  0
SECTION
  2
HEADER
  9
$ACADVER
  1
AC1015
  9
$ACADMAINTVER
 70
    20
  9
$DWGCODEPAGE
  3
ANSI_1252
  9
$INSBASE
 10
0.0
 20
0.0
 30
0.0
  9
$EXTMIN
 10
-0.0181263349739993
 20
-0.0128166004865875
 30
-0.0000000349181948
  9
$EXTMAX
 10
36.01126256839246
 20
24.00448709958153
 30
0.0000000814935746
  9
$LIMMIN
 10
0.0
 20
0.0
  9
$LIMMAX
 10
297.0
 20
210.0
  9
$ORTHOMODE
 70
     0
  9
$REGENMODE
 70
     1
  9
$FILLMODE
 70
     1
  9
$QTEXTMODE
 70
     0
  9
$MIRRTEXT
 70
     1
  9
$LTSCALE
 40
1.0
  9
$ATTMODE
 70
     1
  9
$TEXTSIZE
 40
3.0
  9
$TRACEWID
 40
0.5
  9
$TEXTSTYLE
  7
STANDARD
  9
$CLAYER
  8
0
  9
$CELTYPE
  6
BYLAYER
  9
$CECOLOR
 62
   256
  9
$CELTSCALE
 40
1.0
  9
$DISPSILH
 70
     0
  9
$DIMSCALE
 40
1.0
  9
$DIMASZ
 40
0.5
  9
$DIMEXO
 40
1.662500000000002
  9
$DIMDLI
 40
9.5
  9
$DIMRND
 40
0.0
  9
$DIMDLE
 40
0.0
  9
$DIMEXE
 40
0.9725000000000012
  9
$DIMTP
 40
0.0
  9
$DIMTM
 40
0.0
  9
$DIMTXT
 40
0.25
  9
$DIMCEN
 40
2.0
  9
$DIMTSZ
 40
0.0
  9
$DIMTOL
 70
     0
  9
$DIMLIM
 70
     0
  9
$DIMTIH
 70
     0
  9
$DIMTOH
 70
     0
  9
$DIMSE1
 70
     0
  9
$DIMSE2
 70
     0
  9
$DIMTAD
 70
     1
  9
$DIMZIN
 70
     0
  9
$DIMBLK
  1

  9
$DIMASO
 70
     1
  9
$DIMSHO
 70
     0
  9
$DIMPOST
  1
"
  9
$DIMAPOST
  1
mm
  9
$DIMALT
 70
     1
  9
$DIMALTD
 70
     0
  9
$DIMALTF
 40
25.39999999
  9
$DIMLFAC
 40
0.11811
  9
$DIMTOFL
 70
     0
  9
$DIMTVP
 40
0.0
  9
$DIMTIX
 70
     0
  9
$DIMSOXD
 70
     0
  9
$DIMSAH
 70
     0
  9
$DIMBLK1
  1

  9
$DIMBLK2
  1

  9
$DIMSTYLE
  2
STANDARD
  9
$DIMCLRD
 70
     0
  9
$DIMCLRE
 70
     0
  9
$DIMCLRT
 70
     0
  9
$DIMTFAC
 40
1.0
  9
$DIMGAP
 40
0.09
  9
$DIMJUST
 70
     0
  9
$DIMSD1
 70
     0
  9
$DIMSD2
 70
     0
  9
$DIMTOLJ
 70
     1
  9
$DIMTZIN
 70
     0
  9
$DIMALTZ
 70
     0
  9
$DIMALTTZ
 70
     0
  9
$DIMUPT
 70
     0
  9
$DIMDEC
 70
     3
  9
$DIMTDEC
 70
     3
  9
$DIMALTU
 70
     2
  9
$DIMALTTD
 70
     0
  9
$DIMTXSTY
  7
STANDARD
  9
$DIMAUNIT
 70
     0
  9
$DIMADEC
 70
     0
  9
$DIMALTRND
 40
0.0
  9
$DIMAZIN
 70
     0
  9
$DIMDSEP
 70
    46
  9
$DIMATFIT
 70
     3
  9
$DIMFRAC
 70
     0
  9
$DIMLDRBLK
  1

  9
$DIMLUNIT
 70
     2
  9
$DIMLWD
 70
    -2
  9
$DIMLWE
 70
    -2
  9
$DIMTMOVE
 70
     0
  9
$LUNITS
 70
     2
  9
$LUPREC
 70
     4
  9
$SKETCHINC
 40
1.0
  9
$FILLETRAD
 40
0.0
  9
$AUNITS
 70
     0
  9
$AUPREC
 70
     0
  9
$MENU
  1
acad
  9
$ELEVATION
 40
0.0
  9
$PELEVATION
 40
0.0
  9
$THICKNESS
 40
0.0
  9
$LIMCHECK
 70
     0
  9
$CHAMFERA
 40
0.0
  9
$CHAMFERB
 40
0.0
  9
$CHAMFERC
 40
0.0
  9
$CHAMFERD
 40
0.0
  9
$SKPOLY
 70
     0
  9
$TDCREATE
 40
2451632.437908102
  9
$TDUCREATE
 40
2451632.729574768
  9
$TDUPDATE
 40
2454917.701713403
  9
$TDUUPDATE
 40
2454917.993380069
  9
$TDINDWG
 40
0.0727683912
  9
$TDUSRTIMER
 40
0.0727681597
  9
$USRTIMER
 70
     1
  9
$ANGBASE
 50
0.0
  9
$ANGDIR
 70
     0
  9
$PDMODE
 70
     0
  9
$PDSIZE
 40
0.0
  9
$PLINEWID
 40
0.0
  9
$SPLFRAME
 70
     0
  9
$SPLINETYPE
 70
     6
  9
$SPLINESEGS
 70
     8
  9
$HANDSEED
  5
208B
  9
$SURFTAB1
 70
     6
  9
$SURFTAB2
 70
     6
  9
$SURFTYPE
 70
     6
  9
$SURFU
 70
     6
  9
$SURFV
 70
     6
  9
$UCSBASE
  2

  9
$UCSNAME
  2

  9
$UCSORG
 10
0.0
 20
0.0
 30
0.0
  9
$UCSXDIR
 10
1.0
 20
0.0
 30
0.0
  9
$UCSYDIR
 10
0.0
 20
1.0
 30
0.0
  9
$UCSORTHOREF
  2

  9
$UCSORTHOVIEW
 70
     0
  9
$UCSORGTOP
 10
0.0
 20
0.0
 30
0.0
  9
$UCSORGBOTTOM
 10
0.0
 20
0.0
 30
0.0
  9
$UCSORGLEFT
 10
0.0
 20
0.0
 30
0.0
  9
$UCSORGRIGHT
 10
0.0
 20
0.0
 30
0.0
  9
$UCSORGFRONT
 10
0.0
 20
0.0
 30
0.0
  9
$UCSORGBACK
 10
0.0
 20
0.0
 30
0.0
  9
$PUCSBASE
  2

  9
$PUCSNAME
  2

  9
$PUCSORG
 10
0.0
 20
0.0
 30
0.0
  9
$PUCSXDIR
 10
1.0
 20
0.0
 30
0.0
  9
$PUCSYDIR
 10
0.0
 20
1.0
 30
0.0
  9
$PUCSORTHOREF
  2

  9
$PUCSORTHOVIEW
 70
     0
  9
$PUCSORGTOP
 10
0.0
 20
0.0
 30
0.0
  9
$PUCSORGBOTTOM
 10
0.0
 20
0.0
 30
0.0
  9
$PUCSORGLEFT
 10
0.0
 20
0.0
 30
0.0
  9
$PUCSORGRIGHT
 10
0.0
 20
0.0
 30
0.0
  9
$PUCSORGFRONT
 10
0.0
 20
0.0
 30
0.0
  9
$PUCSORGBACK
 10
0.0
 20
0.0
 30
0.0
  9
$USERI1
 70
     0
  9
$USERI2
 70
     0
  9
$USERI3
 70
     0
  9
$USERI4
 70
     0
  9
$USERI5
 70
     0
  9
$USERR1
 40
0.0
  9
$USERR2
 40
0.0
  9
$USERR3
 40
0.0
  9
$USERR4
 40
0.0
  9
$USERR5
 40
0.0
  9
$WORLDVIEW
 70
     1
  9
$SHADEDGE
 70
     3
  9
$SHADEDIF
 70
    70
  9
$TILEMODE
 70
     1
  9
$MAXACTVP
 70
    48
  9
$PINSBASE
 10
0.0
 20
0.0
 30
0.0
  9
$PLIMCHECK
 70
     0
  9
$PEXTMIN
 10
0.0
 20
0.0
 30
0.0
  9
$PEXTMAX
 10
36.0
 20
24.0
 30
0.0
  9
$PLIMMIN
 10
-1.916362706842049
 20
-4.711214363327504
  9
$PLIMMAX
 10
374.5393871532726
 20
286.1864086595551
  9
$UNITMODE
 70
     0
  9
$VISRETAIN
 70
     1
  9
$PLINEGEN
 70
     0
  9
$PSLTSCALE
 70
     1
  9
$TREEDEPTH
 70
  3020
  9
$CMLSTYLE
  2
STANDARD
  9
$CMLJUST
 70
     0
  9
$CMLSCALE
 40
1.0
  9
$PROXYGRAPHICS
 70
     1
  9
$MEASUREMENT
 70
     0
  9
$CELWEIGHT
370
    -1
  9
$ENDCAPS
280
     0
  9
$JOINSTYLE
280
     0
  9
$LWDISPLAY
290
     0
  9
$INSUNITS
 70
     0
  9
$HYPERLINKBASE
  1

  9
$STYLESHEET
  1

  9
$XEDIT
290
     1
  9
$CEPSNTYPE
380
     0
  9
$PSTYLEMODE
290
     1
  9
$FINGERPRINTGUID
  2
{99BDA5D1-E7F9-4B0F-97FF-C7A13E3E7E1A}
  9
$VERSIONGUID
  2
{D4D910EB-B35E-4DD5-BFCE-07D740306F2D}
  9
$EXTNAMES
290
     1
  9
$PSVPSCALE
 40
0.0
  9
$OLESTARTUP
290
     0
  0
ENDSEC
  0
SECTION
  2
CLASSES
  0
CLASS
  1
ACDBDICTIONARYWDFLT
  2
AcDbDictionaryWithDefault
  3
ObjectDBX Classes
 90
        0
280
     0
281
     0
  0
CLASS
  1
ACDBPLACEHOLDER
  2
AcDbPlaceHolder
  3
ObjectDBX Classes
 90
        0
280
     0
281
     0
  0
CLASS
  1
LAYOUT
  2
AcDbLayout
  3
ObjectDBX Classes
 90
        0
280
     0
281
     0
  0
CLASS
  1
DICTIONARYVAR
  2
AcDbDictionaryVar
  3
ObjectDBX Classes
 90
        0
280
     0
281
     0
  0
CLASS
  1
TABLESTYLE
  2
AcDbTableStyle
  3
ObjectDBX Classes
 90
     4095
280
     0
281
     0
  0
CLASS
  1
MATERIAL
  2
AcDbMaterial
  3
ObjectDBX Classes
 90
     1024
280
     0
281
     0
  0
CLASS
  1
VISUALSTYLE
  2
AcDbVisualStyle
  3
ObjectDBX Classes
 90
     4095
280
     0
281
     0
  0
ENDSEC
  0
SECTION
  2
TABLES
  0
TABLE
  2
VPORT
  5
8
330
0
100
AcDbSymbolTable
 70
     1
  0
VPORT
  5
204E
330
8
100
AcDbSymbolTableRecord
100
AcDbViewportTableRecord
  2
*Active
 70
     0
 10
0.0
 20
0.0
 11
1.0
 21
1.0
 12
17.99656811670923
 22
11.99583524954746
 13
0.0
 23
0.0
 14
0.0
 24
0.0
 15
0.0
 25
0.0
 16
0.0
 26
0.0
 36
1.0
 17
0.0
 27
0.0
 37
0.0
 40
24.21941284761427
 41
1.644662921348314
 42
50.0
 43
0.0
 44
0.0
 50
0.0
 51
0.0
 71
     0
 72
   100
 73
     1
 74
     1
 75
     0
 76
     0
 77
     0
 78
     0
281
     0
 65
     1
110
0.0
120
0.0
130
0.0
111
1.0
121
0.0
131
0.0
112
0.0
122
1.0
132
0.0
 79
     0
146
0.0
  0
ENDTAB
  0
TABLE
  2
LTYPE
  5
5
330
0
100
AcDbSymbolTable
 70
     6
  0
LTYPE
  5
12
330
5
100
AcDbSymbolTableRecord
100
AcDbLinetypeTableRecord
  2
BYBLOCK
 70
     0
  3

 72
    65
 73
     0
 40
0.0
  0
LTYPE
  5
13
330
5
100
AcDbSymbolTableRecord
100
AcDbLinetypeTableRecord
  2
BYLAYER
 70
     0
  3

 72
    65
 73
     0
 40
0.0
  0
LTYPE
  5
14
330
5
100
AcDbSymbolTableRecord
100
AcDbLinetypeTableRecord
  2
CONTINUOUS
 70
     0
  3
solid line
 72
    65
 73
     0
 40
0.0
  0
LTYPE
  5
1F
330
5
100
AcDbSymbolTableRecord
100
AcDbLinetypeTableRecord
  2
CENTER
 70
     0
  3
--- - --- - --- - --- - --- - 
 72
    65
 73
     4
 40
6.0
 49
3.0
 74
     0
 49
-1.0
 74
     0
 49
1.0
 74
     0
 49
-1.0
 74
     0
  0
LTYPE
  5
45
330
5
100
AcDbSymbolTableRecord
100
AcDbLinetypeTableRecord
  2
ACAD_ISO04W100
 70
     0
  3
ISO long-dash dot ____ . ____ . ____ . ____ . _
 72
    65
 73
     4
 40
30.5
 49
24.0
 74
     0
 49
-3.0
 74
     0
 49
0.5
 74
     0
 49
-3.0
 74
     0
  0
LTYPE
  5
2A5
330
5
100
AcDbSymbolTableRecord
100
AcDbLinetypeTableRecord
  2
HIDDEN
 70
     0
  3
Hidden __ __ __ __ __ __ __ __ __ __ __ __ __ __
 72
    65
 73
     2
 40
1.905
 49
1.27
 74
     0
 49
-0.635
 74
     0
  0
LTYPE
  5
2A6
330
5
100
AcDbSymbolTableRecord
100
AcDbLinetypeTableRecord
  2
CENTERX2
 70
     0
  3
Center (2x) ________  __  ________  __  _____
 72
    65
 73
     4
 40
20.32
 49
12.7
 74
     0
 49
-2.54
 74
     0
 49
2.54
 74
     0
 49
-2.54
 74
     0
  0
LTYPE
  5
4B7
330
5
100
AcDbSymbolTableRecord
100
AcDbLinetypeTableRecord
  2
PHANTOM
 70
     0
  3
Phantom ______  __  __  ______  __  __  ______
 72
    65
 73
     6
 40
2.5
 49
1.25
 74
     0
 49
-0.25
 74
     0
 49
0.25
 74
     0
 49
-0.25
 74
     0
 49
0.25
 74
     0
 49
-0.25
 74
     0
  0
ENDTAB
  0
TABLE
  2
LAYER
  5
2
102
{ACAD_XDICTIONARY
360
6C3
102
}
330
0
100
AcDbSymbolTable
 70
    10
  0
LAYER
  5
E
330
2
100
AcDbSymbolTableRecord
100
AcDbLayerTableRecord
  2
0
 70
     0
 62
     7
  6
CONTINUOUS
370
    -3
390
E4
  0
LAYER
  5
20
330
2
100
AcDbSymbolTableRecord
100
AcDbLayerTableRecord
  2
1
 70
     0
 62
     7
  6
CONTINUOUS
370
    -3
390
E4
  0
LAYER
  5
21
330
2
100
AcDbSymbolTableRecord
100
AcDbLayerTableRecord
  2
DEFPOINTS
 70
     0
 62
    -7
  6
CONTINUOUS
290
     0
370
    -3
390
E4
  0
LAYER
  5
46
330
2
100
AcDbSymbolTableRecord
100
AcDbLayerTableRecord
  2
VIEW1
 70
     0
 62
    -1
  6
CONTINUOUS
370
    -3
390
E4
  0
LAYER
  5
47
330
2
100
AcDbSymbolTableRecord
100
AcDbLayerTableRecord
  2
TB
 70
     0
 62
     7
  6
CONTINUOUS
370
    -3
390
E4
  0
LAYER
  5
EF
330
2
100
AcDbSymbolTableRecord
100
AcDbLayerTableRecord
  2
DIVIDE
 70
     0
 62
     4
  6
CONTINUOUS
370
    -3
390
E4
  0
LAYER
  5
F0
330
2
100
AcDbSymbolTableRecord
100
AcDbLayerTableRecord
  2
DIM
 70
     0
 62
     4
  6
CONTINUOUS
370
    -3
390
E4
  0
LAYER
  5
F1
330
2
100
AcDbSymbolTableRecord
100
AcDbLayerTableRecord
  2
G__TOTO
 70
     0
 62
     7
  6
CONTINUOUS
370
    -3
390
E4
  0
LAYER
  5
2A7
330
2
100
AcDbSymbolTableRecord
100
AcDbLayerTableRecord
  2
PIC02
 70
     0
 62
     7
  6
CONTINUOUS
370
    -3
390
E4
  0
LAYER
  5
6EB
330
2
100
AcDbSymbolTableRecord
100
AcDbLayerTableRecord
  2
LINE_TEX
 70
     0
 62
     6
  6
CONTINUOUS
370
    -3
390
E4
  0
ENDTAB
  0
TABLE
  2
STYLE
  5
3
330
0
100
AcDbSymbolTable
 70
    10
  0
STYLE
  5
F
330
3
100
AcDbSymbolTableRecord
100
AcDbTextStyleTableRecord
  2
STANDARD
 70
     0
 40
0.0
 41
1.428571449999999
 50
0.0
 71
     0
 42
3.0
  3
txt
  4

  0
STYLE
  5
22
330
3
100
AcDbSymbolTableRecord
100
AcDbTextStyleTableRecord
  2
BIGFONT
 70
     0
 40
0.0
 41
1.428571449999999
 50
0.0
 71
     0
 42
3.0
  3
txt
  4
bigfont
  0
STYLE
  5
48
330
3
100
AcDbSymbolTableRecord
100
AcDbTextStyleTableRecord
  2
ADESK1
 70
     0
 40
0.0
 41
1.0
 50
0.0
 71
     0
 42
0.2
  3
romans
  4

  0
STYLE
  5
F2
330
3
100
AcDbSymbolTableRecord
100
AcDbTextStyleTableRecord
  2
SWISS
 70
     0
 40
0.0
 41
1.0
 50
0.0
 71
     0
 42
0.5
  3
swissel.ttf
  4

1001
ACAD
1000
Swis721 LtEx BT
1071
       34
  0
STYLE
  5
F3
330
3
100
AcDbSymbolTableRecord
100
AcDbTextStyleTableRecord
  2
DUTCH
 70
     0
 40
0.0
 41
1.0
 50
0.0
 71
     0
 42
0.2
  3
dutcheb.ttf
  4

1001
ACAD
1000
Dutch801 XBd BT
1071
       18
  0
STYLE
  5
F4
330
3
100
AcDbSymbolTableRecord
100
AcDbTextStyleTableRecord
  2
STYLE4
 70
     0
 40
0.0
 41
1.0
 50
0.0
 71
     0
 42
0.25
  3
swisscl.ttf
  4

1001
ACAD
1000
Swis721 LtCn BT
1071
       34
  0
STYLE
  5
F5
330
3
100
AcDbSymbolTableRecord
100
AcDbTextStyleTableRecord
  2
BLACK
 70
     0
 40
0.4
 41
1.0
 50
0.0
 71
     0
 42
0.4
  3
ARIAL.TTF
  4

1001
ACAD
1000
Arial
1071
       34
  0
STYLE
  5
2A8
330
3
100
AcDbSymbolTableRecord
100
AcDbTextStyleTableRecord
  2
SLDTEXTSTYLE0
 70
     0
 40
0.0
 41
0.75
 50
0.0
 71
     0
 42
0.0
  3
txt
  4

  0
STYLE
  5
4B6
330
3
100
AcDbSymbolTableRecord
100
AcDbTextStyleTableRecord
  2

 70
     1
 40
0.0
 41
1.0
 50
0.0
 71
     0
 42
3.0
  3
ltypeshp.shx
  4

  0
STYLE
  5
6EC
330
3
100
AcDbSymbolTableRecord
100
AcDbTextStyleTableRecord
  2
ROMANS
 70
     0
 40
0.0
 41
0.75
 50
10.0
 71
     0
 42
6.0
  3
romans.shx
  4

  0
ENDTAB
  0
TABLE
  2
VIEW
  5
6
330
0
100
AcDbSymbolTable
 70
     1
  0
ENDTAB
  0
TABLE
  2
UCS
  5
7
330
0
100
AcDbSymbolTable
 70
     0
  0
ENDTAB
  0
TABLE
  2
APPID
  5
9
330
0
100
AcDbSymbolTable
 70
    12
  0
APPID
  5
10
330
9
100
AcDbSymbolTableRecord
100
AcDbRegAppTableRecord
  2
ACAD
 70
     0
  0
APPID
  5
145
330
9
100
AcDbSymbolTableRecord
100
AcDbRegAppTableRecord
  2
DCO15
 70
     0
  0
APPID
  5
4A5
330
9
100
AcDbSymbolTableRecord
100
AcDbRegAppTableRecord
  2
ACAD_EXEMPT_FROM_CAD_STANDARDS
 70
     0
  0
APPID
  5
6BD
330
9
100
AcDbSymbolTableRecord
100
AcDbRegAppTableRecord
  2
ACAD_PSEXT
 70
     0
  0
APPID
  5
6FD
330
9
100
AcDbSymbolTableRecord
100
AcDbRegAppTableRecord
  2
ACAD_DSTYLE_DIMTEXT_FILL
 70
     0
  0
APPID
  5
6FE
330
9
100
AcDbSymbolTableRecord
100
AcDbRegAppTableRecord
  2
ACAD_DSTYLE_DIMEXT_LENGTH
 70
     0
  0
APPID
  5
6FF
330
9
100
AcDbSymbolTableRecord
100
AcDbRegAppTableRecord
  2
ACAD_DSTYLE_DIMEXT_ENABLED
 70
     0
  0
APPID
  5
700
330
9
100
AcDbSymbolTableRecord
100
AcDbRegAppTableRecord
  2
ACAD_DSTYLE_DIM_LINETYPE
 70
     0
  0
APPID
  5
701
330
9
100
AcDbSymbolTableRecord
100
AcDbRegAppTableRecord
  2
ACAD_DSTYLE_DIM_EXT1_LINETYPE
 70
     0
  0
APPID
  5
702
330
9
100
AcDbSymbolTableRecord
100
AcDbRegAppTableRecord
  2
ACAD_DSTYLE_DIM_EXT2_LINETYPE
 70
     0
  0
APPID
  5
7BE
330
9
100
AcDbSymbolTableRecord
100
AcDbRegAppTableRecord
  2
ACAD_DSTYLE_DIMJOGGED_JOGANGLE_SYMBOL
 70
     0
  0
APPID
  5
852
330
9
100
AcDbSymbolTableRecord
100
AcDbRegAppTableRecord
  2
ACAD_DSTYLE_DIMARC_LENGTH_SYMBOL
 70
     0
  0
ENDTAB
  0
TABLE
  2
DIMSTYLE
  5
A
330
0
100
AcDbSymbolTable
 70
     3
100
AcDbDimStyleTable
 71
     1
340
37
  0
DIMSTYLE
105
37
102
{ACAD_REACTORS
330
6FA
330
6FC
102
}
330
A
100
AcDbSymbolTableRecord
100
AcDbDimStyleTableRecord
  2
STANDARD
 70
     0
  3
"
  4
mm
 41
0.5
 42
1.662500000000002
 43
9.5
 44
0.9725000000000012
 73
     0
 74
     0
 77
     1
140
0.25
141
2.0
143
25.39999999
144
0.11811
170
     1
171
     0
271
     3
272
     3
274
     0
340
F
1001
ACAD_DSTYLE_DIMJOGGED_JOGANGLE_SYMBOL
1070
   384
1040
0.7853981633974483
  0
DIMSTYLE
105
49
330
A
100
AcDbSymbolTableRecord
100
AcDbDimStyleTableRecord
  2
STANDARD_WS
 70
     0
 41
3.0
 42
2.0
 43
9.5
 44
1.0
 73
     0
 74
     0
 77
     1
140
3.0
141
2.0
143
25.39999999
271
     1
340
F
  0
DIMSTYLE
105
6ED
330
A
100
AcDbSymbolTableRecord
100
AcDbDimStyleTableRecord
  2
DIM-1
 70
     0
 40
2.0
 41
2.1
 42
0.5
 43
5.0
 44
0.5
 73
     0
 74
     0
 77
     1
140
2.799999999999998
141
0.0
147
0.5
174
     1
176
   256
177
   256
178
   256
271
     0
272
     0
340
6EC
  0
ENDTAB
  0
TABLE
  2
BLOCK_RECORD
  5
1
330
0
100
AcDbSymbolTable
 70
    15
  0
BLOCK_RECORD
  5
18
102
{ACAD_XDICTIONARY
360
177
102
}
330
1
100
AcDbSymbolTableRecord
100
AcDbBlockTableRecord
  2
*MODEL_SPACE
340
1F4
  0
BLOCK_RECORD
  5
15
102
{ACAD_XDICTIONARY
360
175
102
}
330
1
100
AcDbSymbolTableRecord
100
AcDbBlockTableRecord
  2
*PAPER_SPACE
340
1F5
  0
BLOCK_RECORD
  5
41
330
1
100
AcDbSymbolTableRecord
100
AcDbBlockTableRecord
  2
A$C20E747D1
340
0
102
{BLKREFS
331
4E
102
}
  0
BLOCK_RECORD
  5
4A
330
1
100
AcDbSymbolTableRecord
100
AcDbBlockTableRecord
  2
A$C48BF28D9
340
0
  0
BLOCK_RECORD
  5
DC
330
1
100
AcDbSymbolTableRecord
100
AcDbBlockTableRecord
  2
A$C78C55178
340
0
  0
BLOCK_RECORD
  5
1FF
330
1
100
AcDbSymbolTableRecord
100
AcDbBlockTableRecord
  2
COMP1
340
0
  0
BLOCK_RECORD
  5
20D
330
1
100
AcDbSymbolTableRecord
100
AcDbBlockTableRecord
  2
COMP2
340
0
  0
BLOCK_RECORD
  5
21B
330
1
100
AcDbSymbolTableRecord
100
AcDbBlockTableRecord
  2
COMP3
340
0
  0
BLOCK_RECORD
  5
229
330
1
100
AcDbSymbolTableRecord
100
AcDbBlockTableRecord
  2
COMP4
340
0
  0
BLOCK_RECORD
  5
236
330
1
100
AcDbSymbolTableRecord
100
AcDbBlockTableRecord
  2
COMP5
340
0
  0
BLOCK_RECORD
  5
244
330
1
100
AcDbSymbolTableRecord
100
AcDbBlockTableRecord
  2
COMP6
340
0
  0
BLOCK_RECORD
  5
253
330
1
100
AcDbSymbolTableRecord
100
AcDbBlockTableRecord
  2
COMP14
340
0
  0
BLOCK_RECORD
  5
262
330
1
100
AcDbSymbolTableRecord
100
AcDbBlockTableRecord
  2
COMP15
340
0
  0
BLOCK_RECORD
  5
26F
330
1
100
AcDbSymbolTableRecord
100
AcDbBlockTableRecord
  2
COMP16
340
0
  0
BLOCK_RECORD
  5
27D
330
1
100
AcDbSymbolTableRecord
100
AcDbBlockTableRecord
  2
COMP17
340
0
  0
BLOCK_RECORD
  5
28A
330
1
100
AcDbSymbolTableRecord
100
AcDbBlockTableRecord
  2
COMP18
340
0
  0
BLOCK_RECORD
  5
297
330
1
100
AcDbSymbolTableRecord
100
AcDbBlockTableRecord
  2
COMP19
340
0
  0
ENDTAB
  0
ENDSEC
  0
SECTION
  2
BLOCKS
  0
BLOCK
  5
19
330
18
100
AcDbEntity
  8
0
100
AcDbBlockBegin
  2
*MODEL_SPACE
 70
     0
 10
0.0
 20
0.0
 30
0.0
  3
*MODEL_SPACE
  1

  0
ENDBLK
  5
1A
330
18
100
AcDbEntity
  8
0
100
AcDbBlockEnd
  0
BLOCK
  5
16
330
15
100
AcDbEntity
 67
     1
  8
0
100
AcDbBlockBegin
  2
*PAPER_SPACE
 70
     0
 10
0.0
 20
0.0
 30
0.0
  3
*PAPER_SPACE
  1

  0
ENDBLK
  5
17
330
15
100
AcDbEntity
 67
     1
  8
0
100
AcDbBlockEnd
  0
BLOCK
  5
43
330
41
100
AcDbEntity
  8
0
100
AcDbBlockBegin
  2
A$C20E747D1
 70
     0
 10
0.0
 20
0.0
 30
0.0
  3
A$C20E747D1
  1

  0
LINE
  5
42
330
41
100
AcDbEntity
  8
TB
100
AcDbLine
 10
0.0000006630197262
 20
0.0000001553186451
 30
0.0
 11
203.2000006630195
 21
0.0000001553186451
 31
0.0
  0
ENDBLK
  5
44
330
41
100
AcDbEntity
  8
0
100
AcDbBlockEnd
  0
BLOCK
  5
76
330
4A
100
AcDbEntity
  8
0
100
AcDbBlockBegin
  2
A$C48BF28D9
 70
     0
 10
0.0
 20
0.0
 30
0.0
  3
A$C48BF28D9
  1

  0
TEXT
  5
4B
330
4A
100
AcDbEntity
  8
TB
100
AcDbText
 10
294.9315978522765
 20
14.57187574484038
 30
0.0
 40
2.299999999999998
  1
3" FLUSH VALVE (140 mm)
  7
ADESK1
100
AcDbText
  0
TEXT
  5
4C
330
4A
100
AcDbEntity
  8
TB
100
AcDbText
 10
273.7050209758166
 20
8.043427512463892
 30
0.0
 40
1.650999999999999
  1
MATERIAL:
  7
ADESK1
100
AcDbText
  0
LINE
  5
4D
330
4A
100
AcDbEntity
  8
0
100
AcDbLine
 10
161.8276398024951
 20
266.7000003160753
 30
0.0
 11
0.0000004018933453
 21
266.7000003160753
 31
0.0
  0
INSERT
  5
4E
330
4A
100
AcDbEntity
  8
0
  6
ACAD_ISO04W100
100
AcDbBlockReference
  2
A$C20E747D1
 10
-0.0000002611263881
 20
0.0000001607567697
 30
0.0
  0
VIEWPORT
  5
4F
102
{ACAD_XDICTIONARY
360
2078
102
}
330
4A
100
AcDbEntity
  8
VIEW1
100
AcDbViewport
 10
215.2255498372546
 20
142.3277395934633
 30
0.0
 40
174.3158033015758
 41
196.683018360657
 69
     0
 12
48.17003849832521
 22
34.22665945599678
 13
0.0
 23
0.0
 14
1.0
 24
1.0
 15
0.5
 25
0.5
 16
0.0
 26
0.0
 36
1.0
 17
0.0
 27
0.0
 37
0.0
 42
50.0
 43
0.0
 44
0.0
 45
61.99136485986379
 50
0.0
 51
0.0
 72
   100
 90
    32800
  1

281
     0
 71
     1
 74
     0
110
0.0
120
0.0
130
0.0
111
1.0
121
0.0
131
0.0
112
0.0
122
1.0
132
0.0
 79
     0
146
0.0
  0
TEXT
  5
50
330
4A
100
AcDbEntity
  8
0
100
AcDbText
 10
271.3500502412125
 20
24.39449518767185
 30
0.0
 40
5.08
  1
TOTO USA INC.
  7
ADESK1
100
AcDbText
  0
LINE
  5
51
330
4A
100
AcDbEntity
  8
TB
100
AcDbLine
 10
247.4256398024952
 20
32.51200031607544
 30
0.0
 11
355.3756398024952
 21
32.51200031607544
 31
0.0
  0
LINE
  5
52
330
4A
100
AcDbEntity
  8
TB
100
AcDbLine
 10
161.8276398024951
 20
0.0000003160754147
 30
0.0
 11
365.0276398024951
 21
0.0000003160754147
 31
0.0
  0
LINE
  5
53
330
4A
100
AcDbEntity
  8
TB
100
AcDbLine
 10
365.0276398024951
 20
0.0000003160754147
 30
0.0
 11
365.0276398024951
 21
266.7000003160753
 31
0.0
  0
LINE
  5
54
330
4A
100
AcDbEntity
  8
TB
100
AcDbLine
 10
365.0276398024951
 20
266.7000003160753
 30
0.0
 11
161.8276398024951
 21
266.7000003160753
 31
0.0
  0
LINE
  5
55
330
4A
100
AcDbEntity
  8
TB
100
AcDbLine
 10
0.0000004018933453
 20
266.7000003160753
 30
0.0
 11
0.0000004018933453
 21
0.0000003160754147
 31
0.0
  0
LINE
  5
56
330
4A
100
AcDbEntity
  8
TB
100
AcDbLine
 10
355.3756398024952
 20
6.350000316075409
 30
0.0
 11
355.3756398024952
 21
260.3500003160754
 31
0.0
  0
LINE
  5
57
330
4A
100
AcDbEntity
  8
TB
100
AcDbLine
 10
355.3756398024952
 20
260.3500003160754
 30
0.0
 11
171.479639802495
 21
260.3500003160754
 31
0.0
  0
LINE
  5
58
330
4A
100
AcDbEntity
  8
TB
100
AcDbLine
 10
247.4256398024952
 20
22.3520003160753
 30
0.0
 11
355.3756398024952
 21
22.3520003160753
 31
0.0
  0
LINE
  5
59
330
4A
100
AcDbEntity
  8
TB
100
AcDbLine
 10
247.4256398024952
 20
12.7000003160754
 30
0.0
 11
355.3756398024952
 21
12.7000003160754
 31
0.0
  0
LINE
  5
5A
330
4A
100
AcDbEntity
  8
TB
100
AcDbLine
 10
247.4256398024952
 20
6.350000316075409
 30
0.0
 11
247.4256398024952
 21
32.51200031607544
 31
0.0
  0
LINE
  5
5B
330
4A
100
AcDbEntity
  8
TB
100
AcDbLine
 10
272.8256398024953
 20
6.350000316075409
 30
0.0
 11
272.8256398024953
 21
12.7000003160754
 31
0.0
  0
LINE
  5
5C
330
4A
100
AcDbEntity
  8
TB
100
AcDbLine
 10
310.9256398024951
 20
6.350000316075409
 30
0.0
 11
310.9256398024951
 21
12.7000003160754
 31
0.0
  0
LINE
  5
5D
330
4A
100
AcDbEntity
  8
TB
100
AcDbLine
 10
257.077639802495
 20
12.7000003160754
 30
0.0
 11
257.077639802495
 21
22.3520003160753
 31
0.0
  0
LINE
  5
5E
330
4A
100
AcDbEntity
  8
TB
100
AcDbLine
 10
285.5256398024952
 20
12.7000003160754
 30
0.0
 11
285.5256398024952
 21
22.3520003160753
 31
0.0
  0
LINE
  5
5F
330
4A
100
AcDbEntity
  8
TB
100
AcDbLine
 10
345.7236398024954
 20
12.7000003160754
 30
0.0
 11
345.7236398024954
 21
22.3520003160753
 31
0.0
  0
TEXT
  5
60
330
4A
100
AcDbEntity
  8
TB
100
AcDbText
 10
248.7540598024953
 20
8.699500316075441
 30
0.0
 40
1.250999999999999
  1
SCALE : Not to scale
  7
ADESK1
100
AcDbText
  0
TEXT
  5
61
330
4A
100
AcDbEntity
  8
TB
100
AcDbText
 10
312.266759802495
 20
8.699500316075441
 30
0.0
 40
1.650999999999999
  1
DATE : 03/19/98
  7
ADESK1
100
AcDbText
  0
TEXT
  5
62
330
4A
100
AcDbEntity
  8
TB
100
AcDbText
 10
249.658299802495
 20
19.45386031607545
 30
0.0
 40
1.650999999999999
  1
SIZE
  7
ADESK1
100
AcDbText
  0
TEXT
  5
63
330
4A
100
AcDbEntity
  8
TB
100
AcDbText
 10
258.8276998024955
 20
19.45386031607545
 30
0.0
 40
1.650999999999999
  1
APPROVED:
  7
ADESK1
100
AcDbText
  0
TEXT
  5
64
330
4A
100
AcDbEntity
  8
TB
100
AcDbText
 10
287.3290398024952
 20
19.45386031607545
 30
0.0
 40
1.650999999999999
  1
Model No.
  7
ADESK1
100
AcDbText
  0
TEXT
  5
65
330
4A
100
AcDbEntity
  8
TB
100
AcDbText
 10
347.7683398024954
 20
19.45386031607545
 30
0.0
 40
1.650999999999999
  1
REV
  7
ADESK1
100
AcDbText
  0
LINE
  5
66
330
4A
100
AcDbEntity
  8
TB
100
AcDbLine
 10
215.6756398024952
 20
254.0000003160753
 30
0.0
 11
355.3756398024952
 21
254.0000003160753
 31
0.0
  0
LINE
  5
67
330
4A
100
AcDbEntity
  8
TB
100
AcDbLine
 10
215.6756398024952
 20
247.6500003160754
 30
0.0
 11
355.3756398024952
 21
247.6500003160754
 31
0.0
  0
LINE
  5
68
330
4A
100
AcDbEntity
  8
TB
100
AcDbLine
 10
215.6756398024952
 20
260.3500003160754
 30
0.0
 11
215.6756398024952
 21
247.6500003160754
 31
0.0
  0
LINE
  5
69
330
4A
100
AcDbEntity
  8
TB
100
AcDbLine
 10
228.3756398024952
 20
247.6500003160754
 30
0.0
 11
228.3756398024952
 21
254.0000003160753
 31
0.0
  0
LINE
  5
6A
330
4A
100
AcDbEntity
  8
TB
100
AcDbLine
 10
238.0276398024951
 20
247.6500003160754
 30
0.0
 11
238.0276398024951
 21
254.0000003160753
 31
0.0
  0
LINE
  5
6B
330
4A
100
AcDbEntity
  8
TB
100
AcDbLine
 10
307.6236398024954
 20
247.6500003160754
 30
0.0
 11
307.6236398024954
 21
254.0000003160753
 31
0.0
  0
LINE
  5
6C
330
4A
100
AcDbEntity
  8
TB
100
AcDbLine
 10
329.9756398024952
 20
247.6500003160754
 30
0.0
 11
329.9756398024952
 21
254.0000003160753
 31
0.0
  0
TEXT
  5
6D
330
4A
100
AcDbEntity
  8
TB
100
AcDbText
 10
284.5147198024948
 20
256.0955003160755
 30
0.0
 40
1.650999999999999
  1
REVISIONS
  7
ADESK1
100
AcDbText
  0
TEXT
  5
6E
330
4A
100
AcDbEntity
  8
TB
100
AcDbText
 10
218.436619802495
 20
249.9436203160757
 30
0.0
 40
1.650999999999999
  1
ZONE
  7
ADESK1
100
AcDbText
  0
TEXT
  5
6F
330
4A
100
AcDbEntity
  8
TB
100
AcDbText
 10
230.4101798024948
 20
249.9436203160757
 30
0.0
 40
1.650999999999999
  1
REV
  7
ADESK1
100
AcDbText
  0
TEXT
  5
70
330
4A
100
AcDbEntity
  8
TB
100
AcDbText
 10
263.4784398024953
 20
249.9436203160757
 30
0.0
 40
1.650999999999999
  1
DESCRIPTION
  7
ADESK1
100
AcDbText
  0
TEXT
  5
71
330
4A
100
AcDbEntity
  8
TB
100
AcDbText
 10
315.9472198024951
 20
249.9436203160757
 30
0.0
 40
1.650999999999999
  1
DATE
  7
ADESK1
100
AcDbText
  0
TEXT
  5
72
330
4A
100
AcDbEntity
  8
TB
100
AcDbText
 10
336.1071998024951
 20
249.9436203160757
 30
0.0
 40
1.650999999999999
  1
APPROVED
  7
ADESK1
100
AcDbText
  0
VIEWPORT
  5
73
102
{ACAD_XDICTIONARY
360
207A
102
}
330
4A
100
AcDbEntity
  8
0
100
AcDbViewport
 10
182.8095447324869
 20
133.2986272802963
 30
0.0
 40
345.1321901400163
 41
253.8972539284416
 69
     0
 12
138.5236883450694
 22
5.867791192825706
 13
0.0
 23
0.0
 14
0.25
 24
0.25
 15
0.0
 25
0.0
 16
0.0
 26
0.0
 36
1.0
 17
-138.0
 27
0.0
 37
0.0
 42
50.0
 43
0.0
 44
0.0
 45
11.73558238565141
 50
0.0
 51
0.0
 72
   100
 90
    32800
  1

281
     0
 71
     1
 74
     0
110
0.0
120
0.0
130
0.0
111
1.0
121
0.0
131
0.0
112
0.0
122
1.0
132
0.0
 79
     0
146
0.0
  0
LINE
  5
74
330
4A
100
AcDbEntity
  8
TB
100
AcDbLine
 10
215.6756398024952
 20
247.6500003160754
 30
0.0
 11
355.3756398024952
 21
247.6500003160754
 31
0.0
  0
VIEWPORT
  5
75
102
{ACAD_XDICTIONARY
360
207C
102
}
330
4A
100
AcDbEntity
  8
0
  6
ACAD_ISO04W100
100
AcDbViewport
 10
183.1614132829635
 20
139.4176415823396
 30
0.0
 40
340.2151415925526
 41
210.2169454271375
 69
     0
 12
511.6059393331664
 22
512.6662736505575
 13
0.0
 23
0.0
 14
0.5
 24
0.5
 15
0.5
 25
0.5
 16
0.0
 26
0.0
 36
1.0
 17
0.0
 27
0.0
 37
0.0
 42
50.0
 43
0.0
 44
0.0
 45
364.7477116982452
 50
0.0
 51
0.0
 72
   100
 90
    32800
  1

281
     0
 71
     1
 74
     0
110
0.0
120
0.0
130
0.0
111
1.0
121
0.0
131
0.0
112
0.0
122
1.0
132
0.0
 79
     0
146
0.0
  0
ENDBLK
  5
77
330
4A
100
AcDbEntity
  8
0
100
AcDbBlockEnd
  0
BLOCK
  5
DE
330
DC
100
AcDbEntity
  8
0
100
AcDbBlockBegin
  2
A$C78C55178
 70
     0
 10
0.0
 20
0.0
 30
0.0
  3
A$C78C55178
  1

  0
TEXT
  5
DD
330
DC
100
AcDbEntity
  8
TB
100
AcDbText
 10
-0.4380951354395394
 20
0.7666668331449813
 30
0.0
 40
2.299999999999998
  1
LT502/LT512 TEMPLATE
  7
ADESK1
100
AcDbText
  0
ENDBLK
  5
DF
330
DC
100
AcDbEntity
  8
0
100
AcDbBlockEnd
  0
BLOCK
  5
200
330
1FF
100
AcDbEntity
  8
0
 62
     0
100
AcDbBlockBegin
  2
COMP1
 70
     0
 10
0.0
 20
0.0
 30
0.0
  3
COMP1
  1

  0
MTEXT
  5
201
330
1FF
100
AcDbEntity
  8
0
 62
     7
100
AcDbMText
 10
-77.64042049770002
 20
-16.01158483369999
 30
0.0
 40
2.5
 41
0.0
 71
     1
 72
     5
  1
4
  7
SLDTEXTSTYLE0
 73
     1
 44
1.0
1001
ACAD
1000
MTEXTBEGIN
1070
    73
1070
     1
1070
    44
1040
1.0
1070
    74
1070
     0
1000
MTEXTEND
  0
MTEXT
  5
202
330
1FF
100
AcDbEntity
  8
0
 62
     7
100
AcDbMText
 10
-75.92167049770002
 20
-16.01158483369999
 30
0.0
 40
2.5
 41
0.0
 71
     1
 72
     5
  1
8
  7
SLDTEXTSTYLE0
 73
     1
 44
1.0
1001
ACAD
1000
MTEXTBEGIN
1070
    73
1070
     1
1070
    44
1040
1.0
1070
    74
1070
     0
1000
MTEXTEND
  0
MTEXT
  5
203
330
1FF
100
AcDbEntity
  8
0
 62
     7
100
AcDbMText
 10
-74.20292049770002
 20
-16.01158483369999
 30
0.0
 40
2.5
 41
0.0
 71
     1
 72
     5
  1
3
  7
SLDTEXTSTYLE0
 73
     1
 44
1.0
1001
ACAD
1000
MTEXTBEGIN
1070
    73
1070
     1
1070
    44
1040
1.0
1070
    74
1070
     0
1000
MTEXTEND
  0
LINE
  5
204
330
1FF
100
AcDbEntity
  8
PIC02
  6
Continuous
 62
     7
100
AcDbLine
 10
-35.0458657819
 20
-19.11158893039999
 30
0.0
 11
-75.29666947609999
 21
-19.11158893039999
 31
0.0
  0
LINE
  5
205
330
1FF
100
AcDbEntity
  8
0
  6
Continuous
 62
     7
100
AcDbLine
 10
-37.5458657819
 20
-18.48658893039999
 30
0.0
 11
-35.0458657819
 21
-19.11158893039999
 31
0.0
  0
LINE
  5
206
330
1FF
100
AcDbEntity
  8
0
  6
Continuous
 62
     7
100
AcDbLine
 10
-35.0458657819
 20
-19.11158893039999
 30
0.0
 11
-37.5458657819
 21
-19.73658893039999
 31
0.0
  0
LINE
  5
207
330
1FF
100
AcDbEntity
  8
PIC02
  6
Continuous
 62
     7
100
AcDbLine
 10
-115.5474731701999
 20
-19.11158893039999
 30
0.0
 11
-75.29666947609999
 21
-19.11158893039999
 31
0.0
  0
LINE
  5
208
330
1FF
100
AcDbEntity
  8
0
  6
Continuous
 62
     7
100
AcDbLine
 10
-113.0474731702
 20
-19.73658893039999
 30
0.0
 11
-115.5474731701999
 21
-19.11158893039999
 31
0.0
  0
LINE
  5
209
330
1FF
100
AcDbEntity
  8
0
  6
Continuous
 62
     7
100
AcDbLine
 10
-115.5474731701999
 20
-19.11158893039999
 30
0.0
 11
-113.0474731702
 21
-18.48658893039999
 31
0.0
  0
LINE
  5
20A
330
1FF
100
AcDbEntity
  8
PIC02
  6
Continuous
 62
     7
100
AcDbLine
 10
-35.0458657819
 20
38.2888657161
 30
0.0
 11
-35.0458657819
 21
-20.1115885525
 31
0.0
  0
LINE
  5
20B
330
1FF
100
AcDbEntity
  8
PIC02
  6
Continuous
 62
     7
100
AcDbLine
 10
-115.5474731701999
 20
38.2888657161
 30
0.0
 11
-115.5474731701999
 21
-20.1115885525
 31
0.0
  0
ENDBLK
  5
20C
330
1FF
100
AcDbEntity
  8
0
100
AcDbBlockEnd
  0
BLOCK
  5
20E
330
20D
100
AcDbEntity
  8
0
 62
     0
100
AcDbBlockBegin
  2
COMP2
 70
     0
 10
0.0
 20
0.0
 30
0.0
  3
COMP2
  1

  0
MTEXT
  5
20F
330
20D
100
AcDbEntity
  8
0
 62
     7
100
AcDbMText
 10
-20.270757104
 20
35.94511469439999
 30
0.0
 40
2.5
 41
0.0
 71
     1
 72
     5
  1
4
  7
SLDTEXTSTYLE0
 11
0.0
 21
1.0
 31
0.0
 73
     1
 44
1.0
1001
ACAD
1000
MTEXTBEGIN
1070
    73
1070
     1
1070
    44
1040
1.0
1070
    74
1070
     0
1000
MTEXTEND
  0
MTEXT
  5
210
330
20D
100
AcDbEntity
  8
0
 62
     7
100
AcDbMText
 10
-20.2707565424
 20
37.66386469439999
 30
0.0
 40
2.5
 41
0.0
 71
     1
 72
     5
  1
8
  7
SLDTEXTSTYLE0
 11
0.0
 21
1.0
 31
0.0
 73
     1
 44
1.0
1001
ACAD
1000
MTEXTBEGIN
1070
    73
1070
     1
1070
    44
1040
1.0
1070
    74
1070
     0
1000
MTEXTEND
  0
MTEXT
  5
211
330
20D
100
AcDbEntity
  8
0
 62
     7
100
AcDbMText
 10
-20.2707559807
 20
39.3826146944
 30
0.0
 40
2.5
 41
0.0
 71
     1
 72
     5
  1
3
  7
SLDTEXTSTYLE0
 11
0.0
 21
1.0
 31
0.0
 73
     1
 44
1.0
1001
ACAD
1000
MTEXTBEGIN
1070
    73
1070
     1
1070
    44
1040
1.0
1070
    74
1070
     0
1000
MTEXTEND
  0
LINE
  5
212
330
20D
100
AcDbEntity
  8
PIC02
  6
Continuous
 62
     7
100
AcDbLine
 10
-17.17075682209999
 20
-1.9619405212
 30
0.0
 11
-17.17075682209999
 21
38.2888657161
 31
0.0
  0
LINE
  5
213
330
20D
100
AcDbEntity
  8
0
  6
Continuous
 62
     7
100
AcDbLine
 10
-16.54575682209999
 20
0.5380594788000001
 30
0.0
 11
-17.17075682209999
 21
-1.9619405212
 31
0.0
  0
LINE
  5
214
330
20D
100
AcDbEntity
  8
0
  6
Continuous
 62
     7
100
AcDbLine
 10
-17.17075682209999
 20
-1.9619405212
 30
0.0
 11
-17.79575682209999
 21
0.5380594788000001
 31
0.0
  0
LINE
  5
215
330
20D
100
AcDbEntity
  8
PIC02
  6
Continuous
 62
     7
100
AcDbLine
 10
-17.17075682209999
 20
78.53966941020002
 30
0.0
 11
-17.17075682209999
 21
38.2888657161
 31
0.0
  0
LINE
  5
216
330
20D
100
AcDbEntity
  8
0
  6
Continuous
 62
     7
100
AcDbLine
 10
-17.79575682209999
 20
76.03966941020002
 30
0.0
 11
-17.17075682209999
 21
78.53966941020002
 31
0.0
  0
LINE
  5
217
330
20D
100
AcDbEntity
  8
0
  6
Continuous
 62
     7
100
AcDbLine
 10
-17.17075682209999
 20
78.53966941020002
 30
0.0
 11
-16.54575682209999
 21
76.03966941020002
 31
0.0
  0
LINE
  5
218
330
20D
100
AcDbEntity
  8
PIC02
  6
Continuous
 62
     7
100
AcDbLine
 10
-75.29666947609999
 20
-1.9619405212
 30
0.0
 11
-16.17075720009999
 21
-1.9619405212
 31
0.0
  0
LINE
  5
219
330
20D
100
AcDbEntity
  8
PIC02
  6
Continuous
 62
     7
100
AcDbLine
 10
-75.29666947609999
 20
78.53966941020002
 30
0.0
 11
-16.17075720009999
 21
78.53966941020002
 31
0.0
  0
ENDBLK
  5
21A
330
20D
100
AcDbEntity
  8
0
100
AcDbBlockEnd
  0
BLOCK
  5
21C
330
21B
100
AcDbEntity
  8
0
 62
     0
100
AcDbBlockBegin
  2
COMP3
 70
     0
 10
0.0
 20
0.0
 30
0.0
  3
COMP3
  1

  0
MTEXT
  5
21D
330
21B
100
AcDbEntity
  8
0
 62
     7
100
AcDbMText
 10
-27.7287904904
 20
29.6116650726
 30
0.0
 40
2.5
 41
0.0
 71
     1
 72
     5
  1
3
  7
SLDTEXTSTYLE0
 11
0.0
 21
1.0
 31
0.0
 73
     1
 44
1.0
1001
ACAD
1000
MTEXTBEGIN
1070
    73
1070
     1
1070
    44
1040
1.0
1070
    74
1070
     0
1000
MTEXTEND
  0
MTEXT
  5
21E
330
21B
100
AcDbEntity
  8
0
 62
     7
100
AcDbMText
 10
-27.72878992869999
 20
31.3304150726
 30
0.0
 40
2.5
 41
0.0
 71
     1
 72
     5
  1
1
  7
SLDTEXTSTYLE0
 11
0.0
 21
1.0
 31
0.0
 73
     1
 44
1.0
1001
ACAD
1000
MTEXTBEGIN
1070
    73
1070
     1
1070
    44
1040
1.0
1070
    74
1070
     0
1000
MTEXTEND
  0
MTEXT
  5
21F
330
21B
100
AcDbEntity
  8
0
 62
     7
100
AcDbMText
 10
-27.728789367
 20
33.04916507259999
 30
0.0
 40
2.5
 41
0.0
 71
     1
 72
     5
  1
7
  7
SLDTEXTSTYLE0
 11
0.0
 21
1.0
 31
0.0
 73
     1
 44
1.0
1001
ACAD
1000
MTEXTBEGIN
1070
    73
1070
     1
1070
    44
1040
1.0
1070
    74
1070
     0
1000
MTEXTEND
  0
LINE
  5
220
330
21B
100
AcDbEntity
  8
PIC02
  6
Continuous
 62
     7
100
AcDbLine
 10
-24.62879020849999
 20
5.538222587199999
 30
0.0
 11
-24.62879020849999
 21
31.9554160943
 31
0.0
  0
LINE
  5
221
330
21B
100
AcDbEntity
  8
0
  6
Continuous
 62
     7
100
AcDbLine
 10
-24.00379020849999
 20
8.038222587199999
 30
0.0
 11
-24.62879020849999
 21
5.538222587199999
 31
0.0
  0
LINE
  5
222
330
21B
100
AcDbEntity
  8
0
  6
Continuous
 62
     7
100
AcDbLine
 10
-24.62879020849999
 20
5.538222587199999
 30
0.0
 11
-25.25379020849999
 21
8.038222587199999
 31
0.0
  0
LINE
  5
223
330
21B
100
AcDbEntity
  8
PIC02
  6
Continuous
 62
     7
100
AcDbLine
 10
-24.62879020849999
 20
58.37261023719999
 30
0.0
 11
-24.62879020849999
 21
31.9554160943
 31
0.0
  0
LINE
  5
224
330
21B
100
AcDbEntity
  8
0
  6
Continuous
 62
     7
100
AcDbLine
 10
-25.25379020849999
 20
55.87261023719999
 30
0.0
 11
-24.62879020849999
 21
58.37261023719999
 31
0.0
  0
LINE
  5
225
330
21B
100
AcDbEntity
  8
0
  6
Continuous
 62
     7
100
AcDbLine
 10
-24.62879020849999
 20
58.37261023719999
 30
0.0
 11
-24.00379020849999
 21
55.87261023719999
 31
0.0
  0
LINE
  5
226
330
21B
100
AcDbEntity
  8
PIC02
  6
Continuous
 62
     7
100
AcDbLine
 10
-75.29666947609999
 20
5.538222587199999
 30
0.0
 11
-23.6287905864
 21
5.538222587199999
 31
0.0
  0
LINE
  5
227
330
21B
100
AcDbEntity
  8
PIC02
  6
Continuous
 62
     7
100
AcDbLine
 10
-75.29666947609999
 20
58.37261023719999
 30
0.0
 11
-23.6287905864
 21
58.37261023719999
 31
0.0
  0
ENDBLK
  5
228
330
21B
100
AcDbEntity
  8
0
100
AcDbBlockEnd
  0
BLOCK
  5
22A
330
229
100
AcDbEntity
  8
0
 62
     0
100
AcDbBlockBegin
  2
COMP4
 70
     0
 10
0.0
 20
0.0
 30
0.0
  3
COMP4
  1

  0
MTEXT
  5
22B
330
229
100
AcDbEntity
  8
0
 62
     7
100
AcDbMText
 10
-27.7287904904
 20
71.22184547829998
 30
0.0
 40
2.5
 41
0.0
 71
     1
 72
     5
  1
7
  7
SLDTEXTSTYLE0
 11
0.0
 21
1.0
 31
0.0
 73
     1
 44
1.0
1001
ACAD
1000
MTEXTBEGIN
1070
    73
1070
     1
1070
    44
1040
1.0
1070
    74
1070
     0
1000
MTEXTEND
  0
MTEXT
  5
22C
330
229
100
AcDbEntity
  8
0
 62
     7
100
AcDbMText
 10
-27.72878992869999
 20
72.94059547829998
 30
0.0
 40
2.5
 41
0.0
 71
     1
 72
     5
  1
0
  7
SLDTEXTSTYLE0
 11
0.0
 21
1.0
 31
0.0
 73
     1
 44
1.0
1001
ACAD
1000
MTEXTBEGIN
1070
    73
1070
     1
1070
    44
1040
1.0
1070
    74
1070
     0
1000
MTEXTEND
  0
LINE
  5
22D
330
229
100
AcDbEntity
  8
PIC02
  6
Continuous
 62
     7
100
AcDbLine
 10
-24.62879020849999
 20
78.53966941020002
 30
0.0
 11
-24.62879020849999
 21
72.7062195995
 31
0.0
  0
LINE
  5
22E
330
229
100
AcDbEntity
  8
0
  6
Continuous
 62
     7
100
AcDbLine
 10
-25.25379020849999
 20
76.03966941020002
 30
0.0
 11
-24.62879020849999
 21
78.53966941020002
 31
0.0
  0
LINE
  5
22F
330
229
100
AcDbEntity
  8
0
  6
Continuous
 62
     7
100
AcDbLine
 10
-24.62879020849999
 20
78.53966941020002
 30
0.0
 11
-24.00379020849999
 21
76.03966941020002
 31
0.0
  0
LINE
  5
230
330
229
100
AcDbEntity
  8
PIC02
  6
Continuous
 62
     7
100
AcDbLine
 10
-24.62879020849999
 20
66.87276978869999
 30
0.0
 11
-24.62879020849999
 21
72.7062195995
 31
0.0
  0
LINE
  5
231
330
229
100
AcDbEntity
  8
0
  6
Continuous
 62
     7
100
AcDbLine
 10
-24.00379020849999
 20
69.37276978869999
 30
0.0
 11
-24.62879020849999
 21
66.87276978869999
 31
0.0
  0
LINE
  5
232
330
229
100
AcDbEntity
  8
0
  6
Continuous
 62
     7
100
AcDbLine
 10
-24.62879020849999
 20
66.87276978869999
 30
0.0
 11
-25.25379020849999
 21
69.37276978869999
 31
0.0
  0
LINE
  5
233
330
229
100
AcDbEntity
  8
PIC02
  6
Continuous
 62
     7
100
AcDbLine
 10
-75.29666947609999
 20
78.53966941020002
 30
0.0
 11
-23.6287905864
 21
78.53966941020002
 31
0.0
  0
LINE
  5
234
330
229
100
AcDbEntity
  8
PIC02
  6
Continuous
 62
     7
100
AcDbLine
 10
-63.4693306566
 20
66.87276978869999
 30
0.0
 11
-23.6287905864
 21
66.87276978869999
 31
0.0
  0
ENDBLK
  5
235
330
229
100
AcDbEntity
  8
0
100
AcDbBlockEnd
  0
BLOCK
  5
237
330
236
100
AcDbEntity
  8
0
 62
     0
100
AcDbBlockBegin
  2
COMP5
 70
     0
 10
0.0
 20
0.0
 30
0.0
  3
COMP5
  1

  0
MTEXT
  5
238
330
236
100
AcDbEntity
  8
0
 62
     7
100
AcDbMText
 10
-77.64042049770002
 20
-8.512897406799998
 30
0.0
 40
2.5
 41
0.0
 71
     1
 72
     5
  1
3
  7
SLDTEXTSTYLE0
 73
     1
 44
1.0
1001
ACAD
1000
MTEXTBEGIN
1070
    73
1070
     1
1070
    44
1040
1.0
1070
    74
1070
     0
1000
MTEXTEND
  0
MTEXT
  5
239
330
236
100
AcDbEntity
  8
0
 62
     7
100
AcDbMText
 10
-75.92167049770002
 20
-8.512897406799998
 30
0.0
 40
2.5
 41
0.0
 71
     1
 72
     5
  1
8
  7
SLDTEXTSTYLE0
 73
     1
 44
1.0
1001
ACAD
1000
MTEXTBEGIN
1070
    73
1070
     1
1070
    44
1040
1.0
1070
    74
1070
     0
1000
MTEXTEND
  0
MTEXT
  5
23A
330
236
100
AcDbEntity
  8
0
 62
     7
100
AcDbMText
 10
-74.20292049770002
 20
-8.512897406799998
 30
0.0
 40
2.5
 41
0.0
 71
     1
 72
     5
  1
0
  7
SLDTEXTSTYLE0
 73
     1
 44
1.0
1001
ACAD
1000
MTEXTBEGIN
1070
    73
1070
     1
1070
    44
1040
1.0
1070
    74
1070
     0
1000
MTEXTEND
  0
LINE
  5
23B
330
236
100
AcDbEntity
  8
PIC02
  6
Continuous
 62
     7
100
AcDbLine
 10
-106.9423310537
 20
-11.6128976887
 30
0.0
 11
-75.29666947609999
 21
-11.6128976887
 31
0.0
  0
LINE
  5
23C
330
236
100
AcDbEntity
  8
0
  6
Continuous
 62
     7
100
AcDbLine
 10
-104.4423310536999
 20
-12.2378976887
 30
0.0
 11
-106.9423310537
 21
-11.6128976887
 31
0.0
  0
LINE
  5
23D
330
236
100
AcDbEntity
  8
0
  6
Continuous
 62
     7
100
AcDbLine
 10
-106.9423310537
 20
-11.6128976887
 30
0.0
 11
-104.4423310536999
 21
-10.9878976887
 31
0.0
  0
LINE
  5
23E
330
236
100
AcDbEntity
  8
PIC02
  6
Continuous
 62
     7
100
AcDbLine
 10
-43.6510078984
 20
-11.6128976887
 30
0.0
 11
-75.29666947609999
 21
-11.6128976887
 31
0.0
  0
LINE
  5
23F
330
236
100
AcDbEntity
  8
0
  6
Continuous
 62
     7
100
AcDbLine
 10
-46.1510078984
 20
-10.9878976887
 30
0.0
 11
-43.6510078984
 21
-11.6128976887
 31
0.0
  0
LINE
  5
240
330
236
100
AcDbEntity
  8
0
  6
Continuous
 62
     7
100
AcDbLine
 10
-43.6510078984
 20
-11.6128976887
 30
0.0
 11
-46.1510078984
 21
-12.2378976887
 31
0.0
  0
LINE
  5
241
330
236
100
AcDbEntity
  8
PIC02
  6
Continuous
 62
     7
100
AcDbLine
 10
-106.9423310537
 20
36.03548413389999
 30
0.0
 11
-106.9423310537
 21
-12.61289731079999
 31
0.0
  0
LINE
  5
242
330
236
100
AcDbEntity
  8
PIC02
  6
Continuous
 62
     7
100
AcDbLine
 10
-43.6510078984
 20
36.03548413389999
 30
0.0
 11
-43.6510078984
 21
-12.61289731079999
 31
0.0
  0
ENDBLK
  5
243
330
236
100
AcDbEntity
  8
0
100
AcDbBlockEnd
  0
BLOCK
  5
245
330
244
100
AcDbEntity
  8
0
 62
     0
100
AcDbBlockBegin
  2
COMP6
 70
     0
 10
0.0
 20
0.0
 30
0.0
  3
COMP6
  1

  0
MTEXT
  5
246
330
244
100
AcDbEntity
  8
0
 62
     7
100
AcDbMText
 10
-11.4073936095
 20
-23.5335433233
 30
0.0
 40
2.5
 41
0.0
 71
     1
 72
     5
  1
1
  7
SLDTEXTSTYLE0
 11
0.0
 21
1.0
 31
0.0
 73
     1
 44
1.0
1001
ACAD
1000
MTEXTBEGIN
1070
    73
1070
     1
1070
    44
1040
1.0
1070
    74
1070
     0
1000
MTEXTEND
  0
MTEXT
  5
247
330
244
100
AcDbEntity
  8
0
 62
     7
100
AcDbMText
 10
-11.4073930478
 20
-21.8147933233
 30
0.0
 40
2.5
 41
0.0
 71
     1
 72
     5
  1
3
  7
SLDTEXTSTYLE0
 11
0.0
 21
1.0
 31
0.0
 73
     1
 44
1.0
1001
ACAD
1000
MTEXTBEGIN
1070
    73
1070
     1
1070
    44
1040
1.0
1070
    74
1070
     0
1000
MTEXTEND
  0
LINE
  5
248
330
244
100
AcDbEntity
  8
PIC02
  6
Continuous
 62
     7
100
AcDbLine
 10
-8.307393327599998
 20
-31.79413510299999
 30
0.0
 11
-8.307393327599998
 21
-34.794144142
 31
0.0
  0
LINE
  5
249
330
244
100
AcDbEntity
  8
0
  6
Continuous
 62
     7
100
AcDbLine
 10
-8.932393327599998
 20
-34.294135103
 30
0.0
 11
-8.307393327599998
 21
-31.79413510299999
 31
0.0
  0
LINE
  5
24A
330
244
100
AcDbEntity
  8
0
  6
Continuous
 62
     7
100
AcDbLine
 10
-8.307393327599998
 20
-31.79413510299999
 30
0.0
 11
-7.682393327599998
 21
-34.294135103
 31
0.0
  0
LINE
  5
24B
330
244
100
AcDbEntity
  8
PIC02
  6
Continuous
 62
     7
100
AcDbLine
 10
-8.307393327599998
 20
-31.79413510299999
 30
0.0
 11
-8.307393327599998
 21
-30.702896273
 31
0.0
  0
LINE
  5
24C
330
244
100
AcDbEntity
  8
PIC02
  6
Continuous
 62
     7
100
AcDbLine
 10
-8.307393327599998
 20
-29.61166761579999
 30
0.0
 11
-8.307393327599998
 21
-30.702896273
 31
0.0
  0
LINE
  5
24D
330
244
100
AcDbEntity
  8
PIC02
  6
Continuous
 62
     7
100
AcDbLine
 10
-8.307393327599998
 20
-29.61166761579999
 30
0.0
 11
-8.307393327599998
 21
-20.0647850972
 31
0.0
  0
LINE
  5
24E
330
244
100
AcDbEntity
  8
0
  6
Continuous
 62
     7
100
AcDbLine
 10
-7.682393327599998
 20
-27.11166761579999
 30
0.0
 11
-8.307393327599998
 21
-29.61166761579999
 31
0.0
  0
LINE
  5
24F
330
244
100
AcDbEntity
  8
0
  6
Continuous
 62
     7
100
AcDbLine
 10
-8.307393327599998
 20
-29.61166761579999
 30
0.0
 11
-8.932393327599998
 21
-27.11166761579999
 31
0.0
  0
LINE
  5
250
330
244
100
AcDbEntity
  8
PIC02
  6
Continuous
 62
     7
100
AcDbLine
 10
-1.628586544499999
 20
-31.79413510299999
 30
0.0
 11
-9.3073929497
 21
-31.79413510299999
 31
0.0
  0
LINE
  5
251
330
244
100
AcDbEntity
  8
PIC02
  6
Continuous
 62
     7
100
AcDbLine
 10
-1.1249658777
 20
-29.61166761579999
 30
0.0
 11
-9.3073929497
 21
-29.61166761579999
 31
0.0
  0
ENDBLK
  5
252
330
244
100
AcDbEntity
  8
0
100
AcDbBlockEnd
  0
BLOCK
  5
254
330
253
100
AcDbEntity
  8
0
 62
     0
100
AcDbBlockBegin
  2
COMP14
 70
     0
 10
0.0
 20
0.0
 30
0.0
  3
COMP14
  1

  0
MTEXT
  5
255
330
253
100
AcDbEntity
  8
0
 62
     7
100
AcDbMText
 10
-69.089199877
 20
-35.8797777982
 30
0.0
 40
2.5
 41
0.0
 71
     1
 72
     5
  1
1
  7
SLDTEXTSTYLE0
 11
0.0
 21
1.0
 31
0.0
 73
     1
 44
1.0
1001
ACAD
1000
MTEXTBEGIN
1070
    73
1070
     1
1070
    44
1040
1.0
1070
    74
1070
     0
1000
MTEXTEND
  0
MTEXT
  5
256
330
253
100
AcDbEntity
  8
0
 62
     7
100
AcDbMText
 10
-69.08919931529999
 20
-34.1610277982
 30
0.0
 40
2.5
 41
0.0
 71
     1
 72
     5
  1
3
  7
SLDTEXTSTYLE0
 11
0.0
 21
1.0
 31
0.0
 73
     1
 44
1.0
1001
ACAD
1000
MTEXTBEGIN
1070
    73
1070
     1
1070
    44
1040
1.0
1070
    74
1070
     0
1000
MTEXTEND
  0
LINE
  5
257
330
253
100
AcDbEntity
  8
PIC02
  6
Continuous
 62
     7
100
AcDbLine
 10
-65.49968532459999
 20
-40.5095089126
 30
0.0
 11
-65.49968532459999
 21
-43.5095154085
 31
0.0
  0
LINE
  5
258
330
253
100
AcDbEntity
  8
0
  6
Continuous
 62
     7
100
AcDbLine
 10
-66.12468532459999
 20
-43.0095089126
 30
0.0
 11
-65.49968532459999
 21
-40.5095089126
 31
0.0
  0
LINE
  5
259
330
253
100
AcDbEntity
  8
0
  6
Continuous
 62
     7
100
AcDbLine
 10
-65.49968532459999
 20
-40.5095089126
 30
0.0
 11
-64.87468532459999
 21
-43.0095089126
 31
0.0
  0
LINE
  5
25A
330
253
100
AcDbEntity
  8
PIC02
  6
Continuous
 62
     7
100
AcDbLine
 10
-65.49968532459999
 20
-40.5095089126
 30
0.0
 11
-65.49968532459999
 21
-39.42615394780001
 31
0.0
  0
LINE
  5
25B
330
253
100
AcDbEntity
  8
PIC02
  6
Continuous
 62
     7
100
AcDbLine
 10
-65.49968532459999
 20
-38.3427989829
 30
0.0
 11
-65.49968532459999
 21
-39.42615394780001
 31
0.0
  0
LINE
  5
25C
330
253
100
AcDbEntity
  8
PIC02
  6
Continuous
 62
     7
100
AcDbLine
 10
-65.49968532459999
 20
-38.3427989829
 30
0.0
 11
-65.49968532459999
 21
-31.3740522522
 31
0.0
  0
LINE
  5
25D
330
253
100
AcDbEntity
  8
0
  6
Continuous
 62
     7
100
AcDbLine
 10
-64.87468532459999
 20
-35.8427989829
 30
0.0
 11
-65.49968532459999
 21
-38.3427989829
 31
0.0
  0
LINE
  5
25E
330
253
100
AcDbEntity
  8
0
  6
Continuous
 62
     7
100
AcDbLine
 10
-65.49968532459999
 20
-38.3427989829
 30
0.0
 11
-66.12468532459999
 21
-35.8427989829
 31
0.0
  0
LINE
  5
25F
330
253
100
AcDbEntity
  8
PIC02
  6
Continuous
 62
     7
100
AcDbLine
 10
-71.12991961129998
 20
-40.5095089126
 30
0.0
 11
-64.4996857025
 21
-40.5095089126
 31
0.0
  0
LINE
  5
260
330
253
100
AcDbEntity
  8
PIC02
  6
Continuous
 62
     7
100
AcDbLine
 10
-71.12991961129998
 20
-38.3427989829
 30
0.0
 11
-64.4996857025
 21
-38.3427989829
 31
0.0
  0
ENDBLK
  5
261
330
253
100
AcDbEntity
  8
0
100
AcDbBlockEnd
  0
BLOCK
  5
263
330
262
100
AcDbEntity
  8
0
 62
     0
100
AcDbBlockBegin
  2
COMP15
 70
     0
 10
0.0
 20
0.0
 30
0.0
  3
COMP15
  1

  0
MTEXT
  5
264
330
262
100
AcDbEntity
  8
0
 62
     7
100
AcDbMText
 10
-76.78104359719998
 20
-43.7454302257
 30
0.0
 40
2.5
 41
0.0
 71
     1
 72
     5
  1
6
  7
SLDTEXTSTYLE0
 73
     1
 44
1.0
1001
ACAD
1000
MTEXTBEGIN
1070
    73
1070
     1
1070
    44
1040
1.0
1070
    74
1070
     0
1000
MTEXTEND
  0
MTEXT
  5
265
330
262
100
AcDbEntity
  8
0
 62
     7
100
AcDbMText
 10
-75.06229359719998
 20
-43.7454302257
 30
0.0
 40
2.5
 41
0.0
 71
     1
 72
     5
  1
3
  7
SLDTEXTSTYLE0
 73
     1
 44
1.0
1001
ACAD
1000
MTEXTBEGIN
1070
    73
1070
     1
1070
    44
1040
1.0
1070
    74
1070
     0
1000
MTEXTEND
  0
LINE
  5
266
330
262
100
AcDbEntity
  8
PIC02
  6
Continuous
 62
     7
100
AcDbLine
 10
-70.0465646464
 20
-46.84542796439999
 30
0.0
 11
-75.29666947609999
 21
-46.84542796439999
 31
0.0
  0
LINE
  5
267
330
262
100
AcDbEntity
  8
0
  6
Continuous
 62
     7
100
AcDbLine
 10
-72.5465646464
 20
-46.22042796439999
 30
0.0
 11
-70.0465646464
 21
-46.84542796439999
 31
0.0
  0
LINE
  5
268
330
262
100
AcDbEntity
  8
0
  6
Continuous
 62
     7
100
AcDbLine
 10
-70.0465646464
 20
-46.84542796439999
 30
0.0
 11
-72.5465646464
 21
-47.47042796439999
 31
0.0
  0
LINE
  5
269
330
262
100
AcDbEntity
  8
PIC02
  6
Continuous
 62
     7
100
AcDbLine
 10
-80.5467743057
 20
-46.84542796439999
 30
0.0
 11
-75.29666947609999
 21
-46.84542796439999
 31
0.0
  0
LINE
  5
26A
330
262
100
AcDbEntity
  8
0
  6
Continuous
 62
     7
100
AcDbLine
 10
-78.04677430569999
 20
-47.47042796439999
 30
0.0
 11
-80.5467743057
 21
-46.84542796439999
 31
0.0
  0
LINE
  5
26B
330
262
100
AcDbEntity
  8
0
  6
Continuous
 62
     7
100
AcDbLine
 10
-80.5467743057
 20
-46.84542796439999
 30
0.0
 11
-78.04677430569999
 21
-46.22042796439999
 31
0.0
  0
LINE
  5
26C
330
262
100
AcDbEntity
  8
PIC02
  6
Continuous
 62
     7
100
AcDbLine
 10
-70.0465646464
 20
-39.42615394780001
 30
0.0
 11
-70.0465646464
 21
-47.84542758649999
 31
0.0
  0
LINE
  5
26D
330
262
100
AcDbEntity
  8
PIC02
  6
Continuous
 62
     7
100
AcDbLine
 10
-80.5467743057
 20
-39.42615394780001
 30
0.0
 11
-80.5467743057
 21
-47.84542758649999
 31
0.0
  0
ENDBLK
  5
26E
330
262
100
AcDbEntity
  8
0
100
AcDbBlockEnd
  0
BLOCK
  5
270
330
26F
100
AcDbEntity
  8
0
 62
     0
100
AcDbBlockBegin
  2
COMP16
 70
     0
 10
0.0
 20
0.0
 30
0.0
  3
COMP16
  1

  0
MTEXT
  5
271
330
26F
100
AcDbEntity
  8
0
 62
     7
100
AcDbMText
 10
-20.27075837559999
 20
-49.3533719212
 30
0.0
 40
2.5
 41
0.0
 71
     1
 72
     5
  1
2
  7
SLDTEXTSTYLE0
 11
0.0
 21
1.0
 31
0.0
 73
     1
 44
1.0
1001
ACAD
1000
MTEXTBEGIN
1070
    73
1070
     1
1070
    44
1040
1.0
1070
    74
1070
     0
1000
MTEXTEND
  0
MTEXT
  5
272
330
26F
100
AcDbEntity
  8
0
 62
     7
100
AcDbMText
 10
-20.270757814
 20
-47.6346219212
 30
0.0
 40
2.5
 41
0.0
 71
     1
 72
     5
  1
3
  7
SLDTEXTSTYLE0
 11
0.0
 21
1.0
 31
0.0
 73
     1
 44
1.0
1001
ACAD
1000
MTEXTBEGIN
1070
    73
1070
     1
1070
    44
1040
1.0
1070
    74
1070
     0
1000
MTEXTEND
  0
MTEXT
  5
273
330
26F
100
AcDbEntity
  8
0
 62
     7
100
AcDbMText
 10
-20.2707572523
 20
-45.9158719212
 30
0.0
 40
2.5
 41
0.0
 71
     1
 72
     5
  1
8
  7
SLDTEXTSTYLE0
 11
0.0
 21
1.0
 31
0.0
 73
     1
 44
1.0
1001
ACAD
1000
MTEXTBEGIN
1070
    73
1070
     1
1070
    44
1040
1.0
1070
    74
1070
     0
1000
MTEXTEND
  0
LINE
  5
274
330
26F
100
AcDbEntity
  8
PIC02
  6
Continuous
 62
     7
100
AcDbLine
 10
-17.17075809369999
 20
-27.1758991725
 30
0.0
 11
-17.17075809369999
 21
-47.0096259858
 31
0.0
  0
LINE
  5
275
330
26F
100
AcDbEntity
  8
0
  6
Continuous
 62
     7
100
AcDbLine
 10
-17.79575809369999
 20
-29.6758991725
 30
0.0
 11
-17.17075809369999
 21
-27.1758991725
 31
0.0
  0
LINE
  5
276
330
26F
100
AcDbEntity
  8
0
  6
Continuous
 62
     7
100
AcDbLine
 10
-17.17075809369999
 20
-27.1758991725
 30
0.0
 11
-16.54575809369999
 21
-29.6758991725
 31
0.0
  0
LINE
  5
277
330
26F
100
AcDbEntity
  8
PIC02
  6
Continuous
 62
     7
100
AcDbLine
 10
-17.17075809369999
 20
-66.8433553424
 30
0.0
 11
-17.17075809369999
 21
-47.0096259858
 31
0.0
  0
LINE
  5
278
330
26F
100
AcDbEntity
  8
0
  6
Continuous
 62
     7
100
AcDbLine
 10
-16.54575809369999
 20
-64.3433553424
 30
0.0
 11
-17.17075809369999
 21
-66.8433553424
 31
0.0
  0
LINE
  5
279
330
26F
100
AcDbEntity
  8
0
  6
Continuous
 62
     7
100
AcDbLine
 10
-17.17075809369999
 20
-66.8433553424
 30
0.0
 11
-17.79575809369999
 21
-64.3433553424
 31
0.0
  0
LINE
  5
27A
330
26F
100
AcDbEntity
  8
PIC02
  6
Continuous
 62
     7
100
AcDbLine
 10
-75.29666947609999
 20
-27.1758991725
 30
0.0
 11
-16.17075847159999
 21
-27.1758991725
 31
0.0
  0
LINE
  5
27B
330
26F
100
AcDbEntity
  8
PIC02
  6
Continuous
 62
     7
100
AcDbLine
 10
-71.62992959499998
 20
-66.8433553424
 30
0.0
 11
-16.17075847159999
 21
-66.8433553424
 31
0.0
  0
ENDBLK
  5
27C
330
26F
100
AcDbEntity
  8
0
100
AcDbBlockEnd
  0
BLOCK
  5
27E
330
27D
100
AcDbEntity
  8
0
 62
     0
100
AcDbBlockBegin
  2
COMP17
 70
     0
 10
0.0
 20
0.0
 30
0.0
  3
COMP17
  1

  0
MTEXT
  5
27F
330
27D
100
AcDbEntity
  8
0
 62
     7
100
AcDbMText
 10
-73.10938714609999
 20
72.6999082138
 30
0.0
 40
2.5
 41
0.0
 71
     1
 72
     5
  1
3
  7
SLDTEXTSTYLE0
 11
0.7771459614983866
 21
0.6293203909986934
 31
0.0
 73
     1
 44
1.0
1001
ACAD
1000
MTEXTBEGIN
1070
    73
1070
     1
1070
    44
1040
1.0
1070
    74
1070
     0
1000
MTEXTEND
  0
MTEXT
  5
280
330
27D
100
AcDbEntity
  8
0
 62
     7
100
AcDbMText
 10
-71.7736673717
 20
73.78155244680001
 30
0.0
 40
2.5
 41
0.0
 71
     1
 72
     5
  1
1
  7
SLDTEXTSTYLE0
 11
0.7771459614983866
 21
0.6293203909986934
 31
0.0
 73
     1
 44
1.0
1001
ACAD
1000
MTEXTBEGIN
1070
    73
1070
     1
1070
    44
1040
1.0
1070
    74
1070
     0
1000
MTEXTEND
  0
LINE
  5
281
330
27D
100
AcDbEntity
  8
PIC02
  6
Continuous
 62
     7
100
AcDbLine
 10
-73.2941016178
 20
68.50482141909998
 30
0.0
 11
-68.47541714550001
 21
72.4319526485
 31
0.0
  0
LINE
  5
282
330
27D
100
AcDbEntity
  8
0
  6
Continuous
 62
     7
100
AcDbLine
 10
-70.95791146969998
 20
69.5924061709
 30
0.0
 11
-73.2941016178
 21
68.50482141909998
 31
0.0
  0
LINE
  5
283
330
27D
100
AcDbEntity
  8
0
  6
Continuous
 62
     7
100
AcDbLine
 10
-73.2941016178
 20
68.50482141909998
 30
0.0
 11
-71.7445619585
 21
70.5638386227
 31
0.0
  0
LINE
  5
284
330
27D
100
AcDbEntity
  8
PIC02
  6
Continuous
 62
     7
100
AcDbLine
 10
-73.2941016178
 20
68.50482141909998
 30
0.0
 11
-75.29666947609999
 21
66.87276978869999
 31
0.0
  0
LINE
  5
285
330
27D
100
AcDbEntity
  8
PIC02
  6
Continuous
 62
     7
100
AcDbLine
 10
-77.29923733439999
 20
65.24071307199999
 30
0.0
 11
-75.29666947609999
 21
66.87276978869999
 31
0.0
  0
LINE
  5
286
330
27D
100
AcDbEntity
  8
PIC02
  6
Continuous
 62
     7
100
AcDbLine
 10
-77.29923733439999
 20
65.24071307199999
 30
0.0
 11
-79.624753739
 21
63.34546242
 31
0.0
  0
LINE
  5
287
330
27D
100
AcDbEntity
  8
0
  6
Continuous
 62
     7
100
AcDbLine
 10
-79.6354274824
 20
64.1531283203
 30
0.0
 11
-77.29923733439999
 21
65.24071307199999
 31
0.0
  0
LINE
  5
288
330
27D
100
AcDbEntity
  8
0
  6
Continuous
 62
     7
100
AcDbLine
 10
-77.29923733439999
 20
65.24071307199999
 30
0.0
 11
-78.8487769936
 21
63.18169586839999
 31
0.0
  0
ENDBLK
  5
289
330
27D
100
AcDbEntity
  8
0
100
AcDbBlockEnd
  0
BLOCK
  5
28B
330
28A
100
AcDbEntity
  8
0
 62
     0
100
AcDbBlockBegin
  2
COMP18
 70
     0
 10
0.0
 20
0.0
 30
0.0
  3
COMP18
  1

  0
MTEXT
  5
28C
330
28A
100
AcDbEntity
  8
0
 62
     7
100
AcDbMText
 10
-63.6622308037
 20
72.08418662159998
 30
0.0
 40
2.5
 41
0.0
 71
     1
 72
     5
  1
3
  7
SLDTEXTSTYLE0
 11
0.8910065242067624
 21
0.4539904997034457
 31
0.0
 73
     1
 44
1.0
1001
ACAD
1000
MTEXTBEGIN
1070
    73
1070
     1
1070
    44
1040
1.0
1070
    74
1070
     0
1000
MTEXTEND
  0
MTEXT
  5
28D
330
28A
100
AcDbEntity
  8
0
 62
     7
100
AcDbMText
 10
-62.1308132638
 20
72.8644826429
 30
0.0
 40
2.5
 41
0.0
 71
     1
 72
     5
  1
1
  7
SLDTEXTSTYLE0
 11
0.8910065242067624
 21
0.4539904997034457
 31
0.0
 73
     1
 44
1.0
1001
ACAD
1000
MTEXTBEGIN
1070
    73
1070
     1
1070
    44
1040
1.0
1070
    74
1070
     0
1000
MTEXTEND
  0
LINE
  5
28E
330
28A
100
AcDbEntity
  8
PIC02
  6
Continuous
 62
     7
100
AcDbLine
 10
-64.49550471080001
 20
68.04720119779999
 30
0.0
 11
-59.2276026915
 21
70.73595015630002
 31
0.0
  0
LINE
  5
28F
330
28A
100
AcDbEntity
  8
0
  6
Continuous
 62
     7
100
AcDbLine
 10
-61.984244338
 20
68.6252983695
 30
0.0
 11
-64.49550471080001
 21
68.04720119779999
 31
0.0
  0
LINE
  5
290
330
28A
100
AcDbEntity
  8
0
  6
Continuous
 62
     7
100
AcDbLine
 10
-64.49550471080001
 20
68.04720119779999
 30
0.0
 11
-62.5517324627
 21
69.7390565247
 31
0.0
  0
LINE
  5
291
330
28A
100
AcDbEntity
  8
PIC02
  6
Continuous
 62
     7
100
AcDbLine
 10
-64.49550471080001
 20
68.04720119779999
 30
0.0
 11
-66.7964997518
 21
66.87276978869999
 31
0.0
  0
LINE
  5
292
330
28A
100
AcDbEntity
  8
PIC02
  6
Continuous
 62
     7
100
AcDbLine
 10
-69.09749479289999
 20
65.69833329329999
 30
0.0
 11
-66.7964997518
 21
66.87276978869999
 31
0.0
  0
LINE
  5
293
330
28A
100
AcDbEntity
  8
PIC02
  6
Continuous
 62
     7
100
AcDbLine
 10
-69.09749479289999
 20
65.69833329329999
 30
0.0
 11
-71.76956556189998
 21
64.3345009264
 31
0.0
  0
LINE
  5
294
330
28A
100
AcDbEntity
  8
0
  6
Continuous
 62
     7
100
AcDbLine
 10
-71.6087551657
 20
65.1202361216
 30
0.0
 11
-69.09749479289999
 21
65.69833329329999
 31
0.0
  0
LINE
  5
295
330
28A
100
AcDbEntity
  8
0
  6
Continuous
 62
     7
100
AcDbLine
 10
-69.09749479289999
 20
65.69833329329999
 30
0.0
 11
-71.041267041
 21
64.0064779664
 31
0.0
  0
ENDBLK
  5
296
330
28A
100
AcDbEntity
  8
0
100
AcDbBlockEnd
  0
BLOCK
  5
298
330
297
100
AcDbEntity
  8
0
 62
     0
100
AcDbBlockBegin
  2
COMP19
 70
     0
 10
0.0
 20
0.0
 30
0.0
  3
COMP19
  1

  0
MTEXT
  5
299
330
297
100
AcDbEntity
  8
0
 62
     7
100
AcDbMText
 10
-77.64042049770002
 20
87.8022200072
 30
0.0
 40
2.5
 41
0.0
 71
     1
 72
     5
  1
1
  7
SLDTEXTSTYLE0
 73
     1
 44
1.0
1001
ACAD
1000
MTEXTBEGIN
1070
    73
1070
     1
1070
    44
1040
1.0
1070
    74
1070
     0
1000
MTEXTEND
  0
MTEXT
  5
29A
330
297
100
AcDbEntity
  8
0
 62
     7
100
AcDbMText
 10
-75.92167049770002
 20
87.8022200072
 30
0.0
 40
2.5
 41
0.0
 71
     1
 72
     5
  1
0
  7
SLDTEXTSTYLE0
 73
     1
 44
1.0
1001
ACAD
1000
MTEXTBEGIN
1070
    73
1070
     1
1070
    44
1040
1.0
1070
    74
1070
     0
1000
MTEXTEND
  0
MTEXT
  5
29B
330
297
100
AcDbEntity
  8
0
 62
     7
100
AcDbMText
 10
-74.20292049770002
 20
87.8022200072
 30
0.0
 40
2.5
 41
0.0
 71
     1
 72
     5
  1
2
  7
SLDTEXTSTYLE0
 73
     1
 44
1.0
1001
ACAD
1000
MTEXTBEGIN
1070
    73
1070
     1
1070
    44
1040
1.0
1070
    74
1070
     0
1000
MTEXTEND
  0
LINE
  5
29C
330
297
100
AcDbEntity
  8
PIC02
  6
Continuous
 62
     7
100
AcDbLine
 10
-66.7964997518
 20
84.70222226849998
 30
0.0
 11
-75.29666947609999
 21
84.70222226849998
 31
0.0
  0
LINE
  5
29D
330
297
100
AcDbEntity
  8
0
  6
Continuous
 62
     7
100
AcDbLine
 10
-69.2964997518
 20
85.32722226849998
 30
0.0
 11
-66.7964997518
 21
84.70222226849998
 31
0.0
  0
LINE
  5
29E
330
297
100
AcDbEntity
  8
0
  6
Continuous
 62
     7
100
AcDbLine
 10
-66.7964997518
 20
84.70222226849998
 30
0.0
 11
-69.2964997518
 21
84.07722226849998
 31
0.0
  0
LINE
  5
29F
330
297
100
AcDbEntity
  8
PIC02
  6
Continuous
 62
     7
100
AcDbLine
 10
-83.7968392003
 20
84.70222226849998
 30
0.0
 11
-75.29666947609999
 21
84.70222226849998
 31
0.0
  0
LINE
  5
2A0
330
297
100
AcDbEntity
  8
0
  6
Continuous
 62
     7
100
AcDbLine
 10
-81.2968392003
 20
84.07722226849998
 30
0.0
 11
-83.7968392003
 21
84.70222226849998
 31
0.0
  0
LINE
  5
2A1
330
297
100
AcDbEntity
  8
0
  6
Continuous
 62
     7
100
AcDbLine
 10
-83.7968392003
 20
84.70222226849998
 30
0.0
 11
-81.2968392003
 21
85.32722226849998
 31
0.0
  0
LINE
  5
2A2
330
297
100
AcDbEntity
  8
PIC02
  6
Continuous
 62
     7
100
AcDbLine
 10
-66.7964997518
 20
69.4561547049
 30
0.0
 11
-66.7964997518
 21
85.7022218906
 31
0.0
  0
LINE
  5
2A3
330
297
100
AcDbEntity
  8
PIC02
  6
Continuous
 62
     7
100
AcDbLine
 10
-83.7968392003
 20
69.4561547049
 30
0.0
 11
-83.7968392003
 21
85.7022218906
 31
0.0
  0
ENDBLK
  5
2A4
330
297
100
AcDbEntity
  8
0
100
AcDbBlockEnd
  0
ENDSEC
  0
SECTION
  2
ENTITIES
  0
LINE
  5
31
330
18
100
AcDbEntity
  8
1
  6
CENTER
100
AcDbLine
 10
7.917023571530023
 20
11.98745837812071
 30
0.0
 11
9.213307119777638
 21
11.98745837812071
 31
0.0
  0
LINE
  5
32
330
18
100
AcDbEntity
  8
1
  6
CENTER
100
AcDbLine
 10
17.56507682904286
 20
2.74480812019172
 30
0.0
 11
17.56507682904286
 21
3.635688668855479
 31
0.0
  0
CIRCLE
  5
33
330
18
100
AcDbEntity
  8
1
  6
Continuous
100
AcDbCircle
 10
17.56507682904286
 20
11.98745837812071
 30
0.0
 40
8.351769709265219
  0
POINT
  5
D1
330
18
100
AcDbEntity
  8
DEFPOINTS
  6
ByBlock
 62
     0
100
AcDbPoint
 10
22.81014892760975
 20
18.48678726424353
 30
0.0
  0
LINE
  5
ED
330
18
100
AcDbEntity
  8
1
  6
CENTER
100
AcDbLine
 10
17.56507682904286
 20
20.33922808738593
 30
0.0
 11
17.56507682904286
 21
21.12230548052304
 31
0.0
  0
LINE
  5
EE
330
18
100
AcDbEntity
  8
1
  6
CENTER
100
AcDbLine
 10
25.91684653830807
 20
11.98745837812071
 30
0.0
 11
27.21313008655569
 21
11.98745837812071
 31
0.0
  0
HATCH
  5
120
330
18
100
AcDbEntity
  8
G__TOTO
100
AcDbHatch
 10
0.0
 20
0.0
 30
0.0
210
0.0
220
0.0
230
1.0
  2
SOLID
 70
     1
 71
     0
 91
       10
 92
        7
 72
     1
 73
     1
 93
       20
 10
3.590169190911183
 20
21.53559675730703
 42
0.0
 10
3.709985266338776
 20
21.53559675730703
 42
-0.4142752124674323
 10
3.977955201533276
 20
21.26757041332785
 42
0.0
 10
3.977940012047852
 20
21.19540516783073
 42
0.0
 10
4.136722400908382
 20
21.19540516783073
 42
0.0
 10
4.1368274259505
 20
21.69437914265036
 42
0.0
 10
2.721437041994946
 20
21.69437914265036
 42
0.0
 10
2.721426704522158
 20
21.19540516783073
 42
0.0
 10
2.880177510436851
 20
21.19540516783073
 42
0.0
 10
2.880192723665885
 20
21.26768321902547
 42
-0.4141519149660894
 10
3.148162658860414
 20
21.53559675730703
 42
0.0
 10
3.26809878152261
 20
21.53559675730703
 42
0.0
 10
3.267903211684327
 20
20.6374087140704
 42
-0.4141497897727592
 10
3.168088686395677
 20
20.53761591984971
 42
0.0
 10
2.99797115419085
 20
20.53761591984971
 42
0.0
 10
2.997936581201798
 20
20.37883353450633
 42
0.0
 10
3.859827648172483
 20
20.37883353450633
 42
0.0
 10
3.859862221161549
 20
20.53761591984971
 42
0.0
 10
3.689788155825795
 20
20.53761591984971
 42
-0.4142773378492039
 10
3.589973630537187
 20
20.63745218093846
 42
0.0
 97
        0
 92
        7
 72
     1
 73
     1
 93
       20
 10
6.983901521376409
 20
21.53559675730703
 42
0.0
 10
7.103717596804003
 20
21.53559675730703
 42
-0.4142752124674332
 10
7.371687531998531
 20
21.26757041332785
 42
0.0
 10
7.371672342513122
 20
21.19540516783073
 42
0.0
 10
7.530454731373652
 20
21.19540516783073
 42
0.0
 10
7.530559756415755
 20
21.69437914265036
 42
0.0
 10
6.115169372460215
 20
21.69437914265036
 42
0.0
 10
6.115159034987428
 20
21.19540516783073
 42
0.0
 10
6.273909840902121
 20
21.19540516783073
 42
0.0
 10
6.27392505413114
 20
21.26768321902547
 42
-0.414151914966089
 10
6.541894989325641
 20
21.53559675730703
 42
0.0
 10
6.661831111987893
 20
21.53559675730703
 42
0.0
 10
6.661635542149568
 20
20.6374087140704
 42
-0.41414978977276
 10
6.561821016860918
 20
20.53761591984971
 42
0.0
 10
6.391703484656076
 20
20.53761591984971
 42
0.0
 10
6.391668911667039
 20
20.37883353450633
 42
0.0
 10
7.253559978637738
 20
20.37883353450633
 42
0.0
 10
7.253594551626804
 20
20.53761591984971
 42
0.0
 10
7.08352048629105
 20
20.53761591984971
 42
-0.4142773378492051
 10
6.983705961002456
 20
20.63745218093846
 42
0.0
 97
        0
 92
       16
 93
        4
 72
     2
 10
5.125874755793518
 20
20.85939084604028
 40
0.3671272108233223
 50
199.1202649999999
 51
340.867675
 73
     1
 72
     2
 10
4.615592398690253
 20
21.03641440360477
 40
0.9072433536113846
 50
340.867675
 51
379.193527
 73
     1
 72
     2
 10
5.125912068299086
 20
21.21406186751201
 40
0.3668871639126396
 50
19.193527
 51
160.7944129999999
 73
     1
 72
     2
 10
5.636194331652347
 20
21.0363070129638
 40
0.9072433536113846
 50
160.7944129999999
 51
199.1202649999999
 73
     1
 97
        0
 92
        1
 93
        4
 72
     2
 10
5.041977258947198
 20
21.03636954422311
 40
0.6804489448984811
 50
142.997119
 51
216.4375859999999
 73
     1
 72
     2
 10
5.1259149276745
 20
21.15001996736721
 40
0.8165387620031813
 50
219.356321
 51
320.61032
 73
     1
 72
     2
 10
5.20980951827039
 20
21.03635187234546
 40
0.6804489448984811
 50
323.5257889999999
 51
396.965523
 73
     1
 72
     2
 10
5.125871896418104
 20
20.92319269927442
 40
0.8165387620031813
 50
39.769149
 51
140.196876
 73
     1
 97
        0
 92
        1
 93
        4
 72
     2
 10
8.43564648216487
 20
21.03636954422311
 40
0.6804489448984811
 50
142.997119
 51
216.4375859999999
 73
     1
 72
     2
 10
8.519584150892157
 20
21.15001996736721
 40
0.8165387620031813
 50
219.356321
 51
320.61032
 73
     1
 72
     2
 10
8.603478741488061
 20
21.03635187234546
 40
0.6804489448984811
 50
323.5257889999999
 51
396.965523
 73
     1
 72
     2
 10
8.519541119635761
 20
20.92319269927442
 40
0.8165387620031813
 50
39.769149
 51
140.196876
 73
     1
 97
        0
 92
       16
 93
        4
 72
     2
 10
8.519543979011189
 20
20.85939084604028
 40
0.3671272108233223
 50
199.1202649999999
 51
340.867675
 73
     1
 72
     2
 10
8.00926162190791
 20
21.03641440360477
 40
0.9072433536113846
 50
340.867675
 51
379.193527
 73
     1
 72
     2
 10
8.519581291516743
 20
21.21406186751201
 40
0.3668871639126396
 50
19.193527
 51
160.7944129999999
 73
     1
 72
     2
 10
9.029863554870004
 20
21.0363070129638
 40
0.9072433536113846
 50
160.7944129999999
 51
199.1202649999999
 73
     1
 97
        0
 92
        0
 93
       67
 72
     1
 10
9.499803312226376
 20
21.64356129073192
 11
9.500867374884538
 21
21.64354671260478
 72
     1
 10
9.500867374884549
 20
21.64354671260477
 11
9.503053859584579
 21
21.64347382196892
 72
     1
 10
9.503053859584568
 20
21.64347382196891
 11
9.505167453648743
 21
21.64331350944511
 72
     1
 10
9.505167453648752
 20
21.64331350944511
 11
9.50723726645643
 21
21.64308025941044
 72
     1
 10
9.507237266456428
 20
21.64308025941044
 11
9.509234235503276
 21
21.64275958748776
 72
     1
 10
9.509234235503271
 20
21.64275958748776
 11
9.51118751704363
 21
21.64235144680211
 72
     1
 10
9.511187517043637
 20
21.64235144680211
 11
9.513082439200323
 21
21.64188499360775
 72
     1
 10
9.513082439200317
 20
21.64188499360775
 11
9.514904470721162
 21
21.64131649352325
 72
     1
 10
9.514904470721162
 20
21.64131649352325
 11
9.51668281473551
 21
21.6406751496779
 72
     1
 10
9.516682814735503
 20
21.6406751496779
 11
9.518402846241185
 21
21.63996091519673
 72
     1
 10
9.518402846241187
 20
21.63996091519674
 11
9.5200645652382
 21
21.63915921195258
 72
     1
 10
9.5200645652382
 20
21.63915921195258
 11
9.521667971726547
 21
21.63828461807257
 72
     1
 10
9.521667971726557
 20
21.63828461807256
 11
9.523198487579069
 21
21.63732255542955
 72
     1
 10
9.523198487579065
 20
21.63732255542955
 11
9.52468526905007
 21
21.6362876490257
 72
     1
 10
9.524685269050067
 20
21.6362876490257
 11
9.526113784887416
 21
21.63516527385889
 72
     1
 10
9.526113784887414
 20
21.63516527385887
 11
9.527309050690094
 21
21.63408658619851
 72
     1
 10
9.527309050690092
 20
21.63408658619852
 11
9.528635472762262
 21
21.63274558599917
 72
     1
 10
9.528635472762275
 20
21.63274558599917
 11
9.529845316692117
 21
21.63133164828901
 72
     1
 10
9.529845316692117
 20
21.63133164828899
 11
9.530953160606788
 21
21.62985944494517
 72
     1
 10
9.530953160606784
 20
21.62985944494517
 11
9.531958910756294
 21
21.62831435096549
 72
     1
 10
9.531958910756287
 20
21.6283143509655
 11
9.532862660890629
 21
21.62671094447711
 72
     1
 10
9.532862660890629
 20
21.62671094447711
 11
9.533649786007634
 21
21.62503464735295
 72
     1
 10
9.533649786007643
 20
21.62503464735295
 11
9.53433486423448
 21
21.62328545959293
 72
     1
 10
9.53433486423448
 20
21.62328545959294
 11
9.534917942446158
 21
21.62147800619925
 72
     1
 10
9.534917942446156
 20
21.62147800619925
 11
9.535384395640486
 21
21.61961219342192
 72
     1
 10
9.535384395640477
 20
21.61961219342192
 11
9.53576338007182
 21
21.61765895875655
 72
     1
 10
9.535763380071827
 20
21.61765895875655
 11
9.536025739485829
 21
21.6156619897097
 72
     1
 10
9.536025739485822
 20
21.61566198970971
 11
9.536186098884659
 21
21.61357755189988
 72
     1
 10
9.536186098884655
 20
21.61357755189987
 11
9.536229833266158
 21
21.61143484845636
 72
     1
 10
9.536229833266162
 20
21.61143484845637
 11
9.536215255138991
 21
21.6098751294745
 72
     1
 10
9.536215255138998
 20
21.6098751294745
 11
9.536156942630334
 21
21.60763037914083
 72
     1
 10
9.536156942630327
 20
21.60763037914083
 11
9.536025739485824
 21
21.60545847256796
 72
     1
 10
9.536025739485822
 20
21.60545847256795
 11
9.535821692580485
 21
21.60335950350594
 72
     1
 10
9.535821692580498
 20
21.60335950350596
 11
9.535573864418664
 21
21.60131880007762
 72
     1
 10
9.535573864418651
 20
21.60131880007761
 11
9.53526777062315
 21
21.59933640915793
 72
     1
 10
9.53526777062315
 20
21.59933640915793
 11
9.534888786191814
 21
21.59744144012623
 72
     1
 10
9.534888786191828
 20
21.59744144012622
 11
9.534466067378991
 21
21.59559025235106
 72
     1
 10
9.534466067378986
 20
21.59559025235108
 11
9.533970457930303
 21
21.59382648646388
 72
     1
 10
9.533970457930308
 20
21.59382648646387
 11
9.533416582847985
 21
21.59212103308536
 72
     1
 10
9.533416582847976
 20
21.59212103308535
 11
9.532804348381969
 21
21.5904738922155
 72
     1
 10
9.532804348381972
 20
21.59047389221552
 11
9.532133848282294
 21
21.58891422010869
 72
     1
 10
9.532133848282285
 20
21.58891422010868
 11
9.531405035673957
 21
21.58739828238333
 72
     1
 10
9.531405035673955
 20
21.5873982823833
 11
9.530603285554775
 21
21.58596981342098
 72
     1
 10
9.530603285554789
 20
21.58596981342097
 11
9.529757894804124
 21
21.58459961009232
 72
     1
 10
9.52975789480412
 20
21.58459961009233
 11
9.528839566542611
 21
21.5832877192723
 72
     1
 10
9.528839566542615
 20
21.58328771927229
 11
9.527877503899603
 21
21.58204871908812
 72
     1
 10
9.527877503899603
 20
21.58204871908812
 11
9.526842597495765
 21
21.58088260953975
 72
     1
 10
9.526842597495758
 20
21.58088260953975
 11
9.525749378583251
 21
21.57978939062727
 72
     1
 10
9.525749378583256
 20
21.57978939062727
 11
9.524597800287075
 21
21.57873990609625
 72
     1
 10
9.524597800287068
 20
21.57873990609626
 11
9.523387956357225
 21
21.57777784345326
 72
     1
 10
9.523387956357225
 20
21.57777784345326
 11
9.522105268666553
 21
21.57687409331893
 72
     1
 10
9.522105268666564
 20
21.57687409331892
 11
9.520778799719382
 21
21.57604323382041
 72
     1
 10
9.52077879971938
 20
21.57604323382042
 11
9.51937944013637
 21
21.57527068683057
 72
     1
 10
9.519379440136361
 20
21.57527068683058
 11
9.517936393046854
 21
21.57457103047657
 72
     1
 10
9.517936393046852
 20
21.57457103047656
 11
9.516420455321508
 21
21.57392963975622
 72
     1
 10
9.516420455321508
 20
21.57392963975623
 11
9.514846205087494
 21
21.57336118654672
 72
     1
 10
9.514846205087494
 20
21.57336118654672
 11
9.513213642344815
 21
21.57286557709804
 72
     1
 10
9.513213642344823
 20
21.57286557709804
 11
9.511522767093474
 21
21.57242828015804
 72
     1
 10
9.511522767093467
 20
21.57242828015804
 11
9.509759001206285
 21
21.57206387385389
 72
     1
 10
9.50975900120629
 20
21.57206387385389
 11
9.507951547812609
 21
21.57175778005839
 72
     1
 10
9.507951547812609
 20
21.57175778005839
 11
9.506071156908095
 21
21.57152453002371
 72
     1
 10
9.506071156908092
 20
21.57152453002371
 11
9.50414707849708
 21
21.57136421749986
 72
     1
 10
9.504147078497084
 20
21.57136421749986
 11
9.50215010945023
 21
21.57126217060969
 72
     1
 10
9.502150109450226
 20
21.5712621706097
 11
9.500094827894713
 21
21.57121843622819
 72
     1
 10
9.500094827894713
 20
21.57121843622819
 11
9.429267957991326
 21
21.57121843622819
 72
     1
 10
9.429267957991328
 20
21.57121843622819
 11
9.429267957991328
 21
21.64356129073192
 72
     1
 10
9.429267957991328
 20
21.64356129073192
 11
9.499803312226381
 21
21.64356129073192
 97
        0
 92
        0
 93
      207
 72
     1
 10
9.54214784977087
 20
21.55636505902025
 11
9.540209193232689
 21
21.55780810610974
 72
     1
 10
9.540209193232684
 20
21.55780810610975
 11
9.538139333550009
 21
21.55929493445578
 72
     1
 10
9.53813933355002
 20
21.55929493445578
 11
9.53595284885
 21
21.56081087218111
 72
     1
 10
9.535952848849987
 20
21.56081087218111
 11
9.537235583415666
 21
21.56174377856979
 72
     1
 10
9.537235583415665
 20
21.56174377856981
 11
9.539013927430014
 21
21.56309935689631
 72
     1
 10
9.539013927430019
 20
21.5630993568963
 11
9.540719333933529
 21
21.5644549820978
 72
     1
 10
9.540719333933523
 20
21.5644549820978
 11
9.542366474803371
 21
21.56583976355366
 72
     1
 10
9.542366474803372
 20
21.56583976355367
 11
9.543955303164551
 21
21.56723907626167
 72
     1
 10
9.543955303164551
 20
21.56723907626166
 11
9.545485865892068
 21
21.56865301397185
 72
     1
 10
9.545485865892075
 20
21.56865301397186
 11
9.546943491108741
 21
21.57008148293418
 72
     1
 10
9.546943491108734
 20
21.57008148293419
 11
9.548342850691758
 21
21.57153910815086
 72
     1
 10
9.548342850691767
 20
21.57153910815086
 11
9.549683850891106
 21
21.57301135836971
 72
     1
 10
9.549683850891099
 20
21.57301135836971
 11
9.55096658545678
 21
21.57449813984074
 72
     1
 10
9.550966585456777
 20
21.57449813984073
 11
9.552176429386614
 21
21.57599949943891
 72
     1
 10
9.552176429386619
 20
21.57599949943892
 11
9.5533279608078
 21
21.57753006216644
 72
     1
 10
9.553327960807806
 20
21.57753006216643
 11
9.554421179720311
 21
21.57906057801894
 72
     1
 10
9.554421179720307
 20
21.57906057801894
 11
9.555441554871986
 21
21.58062025012577
 72
     1
 10
9.555441554871975
 20
21.58062025012576
 11
9.556403617514977
 21
21.5821945003598
 72
     1
 10
9.556403617514988
 20
21.58219450035979
 11
9.557307320774331
 21
21.58379790684814
 72
     1
 10
9.557307320774327
 20
21.58379790684813
 11
9.558152758399996
 21
21.58540131333646
 72
     1
 10
9.558152758399998
 20
21.58540131333648
 11
9.558925305389841
 21
21.58703387607917
 72
     1
 10
9.558925305389834
 20
21.58703387607916
 11
9.559639586746012
 21
21.58868101694902
 72
     1
 10
9.559639586746015
 20
21.58868101694903
 11
9.560295508718517
 21
21.59034273594603
 72
     1
 10
9.560295508718525
 20
21.59034273594603
 11
9.560893118182358
 21
21.59203361119737
 72
     1
 10
9.560893118182349
 20
21.59203361119738
 11
9.561417883885356
 21
21.59372443957371
 72
     1
 10
9.561417883885368
 20
21.59372443957372
 11
9.561884337079707
 21
21.59544447107938
 72
     1
 10
9.561884337079703
 20
21.59544447107938
 11
9.562292477765367
 21
21.59717908071222
 72
     1
 10
9.562292477765367
 20
21.59717908071222
 11
9.562627727815206
 21
21.59894284659943
 72
     1
 10
9.562627727815197
 20
21.59894284659943
 11
9.562919243483531
 21
21.6007065656116
 72
     1
 10
9.562919243483534
 20
21.6007065656116
 11
9.563123337263872
 21
21.60249948775312
 72
     1
 10
9.563123337263874
 20
21.60249948775312
 11
9.563283649787704
 21
21.60430694114678
 72
     1
 10
9.563283649787706
 20
21.60430694114679
 11
9.563385696677876
 21
21.60612901954265
 72
     1
 10
9.563385696677883
 20
21.60612901954265
 11
9.563414852932217
 21
21.60796562919065
 72
     1
 10
9.563414852932211
 20
21.60796562919065
 11
9.563400274805035
 21
21.6096856606963
 72
     1
 10
9.563400274805033
 20
21.60968566069632
 11
9.56334196229637
 21
21.61206161417453
 72
     1
 10
9.563341962296377
 20
21.61206161417452
 11
9.563239962281221
 21
21.6143938332712
 72
     1
 10
9.563239962281215
 20
21.61439383327121
 11
9.563094181009544
 21
21.61665320860703
 72
     1
 10
9.563094181009546
 20
21.61665320860703
 11
9.562904665356366
 21
21.61888338081359
 72
     1
 10
9.562904665356356
 20
21.61888338081359
 11
9.562656884069534
 21
21.62104070925927
 72
     1
 10
9.562656884069539
 20
21.62104070925926
 11
9.562365368401207
 21
21.62316883457561
 72
     1
 10
9.562365368401202
 20
21.62316883457562
 11
9.562030118351362
 21
21.62522411613113
 72
     1
 10
9.562030118351358
 20
21.62522411613114
 11
9.561651133920028
 21
21.62723566330515
 72
     1
 10
9.561651133920037
 20
21.62723566330514
 11
9.561228415107201
 21
21.62918894484549
 72
     1
 10
9.561228415107194
 20
21.62918894484547
 11
9.560761961912856
 21
21.63109844512935
 72
     1
 10
9.560761961912859
 20
21.63109844512935
 11
9.56023719620985
 21
21.63294963290451
 72
     1
 10
9.560237196209854
 20
21.6329496329045
 11
9.559668696125347
 21
21.63474255504602
 72
     1
 10
9.559668696125342
 20
21.63474255504602
 11
9.559056508534341
 21
21.63649169593105
 72
     1
 10
9.559056508534339
 20
21.63649169593104
 11
9.558400586561834
 21
21.63819714930955
 72
     1
 10
9.558400586561845
 20
21.63819714930955
 11
9.557700883332834
 21
21.63982971205224
 72
     1
 10
9.557700883332827
 20
21.63982971205225
 11
9.556942914470155
 21
21.64141854041341
 72
     1
 10
9.556942914470155
 20
21.64141854041341
 11
9.55615578935315
 21
21.64296363439309
 72
     1
 10
9.556155789353155
 20
21.64296363439309
 11
9.555310351727477
 21
21.64445046273912
 72
     1
 10
9.55531035172747
 20
21.64445046273911
 11
9.5544211797203
 21
21.64587893170146
 72
     1
 10
9.554421179720307
 20
21.64587893170146
 11
9.553488320206634
 21
21.64726371315731
 72
     1
 10
9.553488320206625
 20
21.6472637131573
 11
9.552497101309279
 21
21.64859013522947
 72
     1
 10
9.552497101309285
 20
21.64859013522948
 11
9.551476773032609
 21
21.64985829166799
 72
     1
 10
9.551476773032604
 20
21.649858291668
 11
9.550398085372261
 21
21.65108271372501
 72
     1
 10
9.550398085372265
 20
21.651082713725
 11
9.549436069604267
 21
21.65208851074948
 72
     1
 10
9.549436069604269
 20
21.65208851074949
 11
9.548299116310257
 21
21.65316715153484
 72
     1
 10
9.548299116310261
 20
21.65316715153483
 11
9.547118428634751
 21
21.65421668294086
 72
     1
 10
9.547118428634746
 20
21.65421668294086
 11
9.545894006577741
 21
21.65522243309034
 72
     1
 10
9.545894006577739
 20
21.65522243309034
 11
9.544611272012062
 21
21.65618449573338
 72
     1
 10
9.544611272012062
 20
21.65618449573337
 11
9.543270224937712
 21
21.65711735524704
 72
     1
 10
9.543270224937714
 20
21.65711735524705
 11
9.541885490356875
 21
21.65800652725422
 72
     1
 10
9.541885490356875
 20
21.65800652725422
 11
9.54045697451953
 21
21.65885196487991
 72
     1
 10
9.540456974519528
 20
21.6588519648799
 11
9.538970193048514
 21
21.65966824625122
 72
     1
 10
9.538970193048513
 20
21.65966824625123
 11
9.537439677196005
 21
21.66044079324106
 72
     1
 10
9.537439677196005
 20
21.66044079324105
 11
9.535850801959814
 21
21.6611696058494
 72
     1
 10
9.535850801959824
 20
21.6611696058494
 11
9.534218286092157
 21
21.66186930907841
 72
     1
 10
9.534218286092155
 20
21.66186930907841
 11
9.532527410840808
 21
21.66251065292374
 72
     1
 10
9.532527410840799
 20
21.66251065292374
 11
9.530792801207949
 21
21.66312284051477
 72
     1
 10
9.530792801207951
 20
21.66312284051476
 11
9.528999879066432
 21
21.66370591872642
 72
     1
 10
9.528999879066432
 20
21.66370591872641
 11
9.527163269418423
 21
21.66423068442944
 72
     1
 10
9.527163269418423
 20
21.66423068442944
 11
9.525268347261734
 21
21.66472624700311
 72
     1
 10
9.525268347261743
 20
21.6647262470031
 11
9.523329690723562
 21
21.66517812207027
 72
     1
 10
9.523329690723556
 20
21.66517812207027
 11
9.521347252928872
 21
21.6656008408831
 72
     1
 10
9.521347252928876
 20
21.6656008408831
 11
9.519292018248371
 21
21.66596524718726
 72
     1
 10
9.519292018248364
 20
21.66596524718726
 11
9.517207580438512
 21
21.66631512223927
 72
     1
 10
9.517207580438508
 20
21.66631512223928
 11
9.515064830119985
 21
21.66660663790763
 72
     1
 10
9.515064830119996
 20
21.66660663790762
 11
9.512878345419981
 21
21.66685441919446
 72
     1
 10
9.512878345419977
 20
21.66685441919445
 11
9.510633595086297
 21
21.66707309110195
 72
     1
 10
9.510633595086289
 20
21.66707309110197
 11
9.508330532243935
 21
21.66726255988013
 72
     1
 10
9.508330532243945
 20
21.66726255988013
 11
9.505983735020095
 21
21.66739376302463
 72
     1
 10
9.505983735020095
 20
21.66739376302464
 11
9.503593156539736
 21
21.66749580991479
 72
     1
 10
9.503593156539736
 20
21.66749580991478
 11
9.501144312425722
 21
21.66755407554846
 72
     1
 10
9.501144312425722
 20
21.66755407554845
 11
9.498651780805209
 21
21.66756865367561
 72
     1
 10
9.498651780805204
 20
21.66756865367561
 11
9.402097469577441
 21
21.66756865367561
 72
     1
 10
9.402097469577441
 20
21.66756865367561
 11
9.402097469577441
 21
21.4566476691973
 72
     1
 10
9.402097469577441
 20
21.45664766919729
 11
9.429267957991324
 21
21.45664766919729
 72
     1
 10
9.429267957991328
 20
21.45664766919729
 11
9.429267957991328
 21
21.54721107328452
 72
     1
 10
9.429267957991328
 20
21.54721107328452
 11
9.500094827894715
 21
21.54721107328452
 72
     1
 10
9.500094827894713
 20
21.54721107328452
 11
9.501698234383059
 21
21.54718191703019
 72
     1
 10
9.501698234383056
 20
21.54718191703019
 11
9.503593156539729
 21
21.54707987014001
 72
     1
 10
9.503593156539736
 20
21.54707987014001
 11
9.505444391189927
 21
21.54690493261401
 72
     1
 10
9.505444391189925
 20
21.54690493261401
 11
9.507222688329267
 21
21.54665715132717
 72
     1
 10
9.507222688329264
 20
21.54665715132717
 11
9.508942719834948
 21
21.5463364794045
 72
     1
 10
9.508942719834948
 20
21.54633647940449
 11
9.510604438831961
 21
21.54592833871882
 72
     1
 10
9.510604438831961
 20
21.54592833871882
 11
9.512207845320306
 21
21.54546188552449
 72
     1
 10
9.512207845320304
 20
21.54546188552449
 11
9.513752939299983
 21
21.54490796356715
 72
     1
 10
9.51375293929999
 20
21.54490796356716
 11
9.515239767646006
 21
21.544281197849
 72
     1
 10
9.515239767645994
 20
21.544281197849
 11
9.516653658481169
 21
21.54356696336783
 72
     1
 10
9.516653658481175
 20
21.54356696336782
 11
9.518023861809854
 21
21.54279441637797
 72
     1
 10
9.518023861809851
 20
21.54279441637796
 11
9.519321127627689
 21
21.54193440062514
 72
     1
 10
9.519321127627691
 20
21.54193440062514
 11
9.520560127811867
 21
21.54101607236363
 72
     1
 10
9.520560127811876
 20
21.54101607236363
 11
9.521740815487383
 21
21.5400103222141
 72
     1
 10
9.521740815487376
 20
21.54001032221413
 11
9.522863237529218
 21
21.53893163455377
 72
     1
 10
9.522863237529222
 20
21.53893163455376
 11
9.523927300187397
 21
21.53776552500544
 72
     1
 10
9.523927300187395
 20
21.53776552500544
 11
9.524933097211912
 21
21.53654110294843
 72
     1
 10
9.524933097211913
 20
21.53654110294843
 11
9.52586595672558
 21
21.53522921212843
 72
     1
 10
9.525865956725581
 20
21.53522921212843
 11
9.526755128732757
 21
21.53384447754756
 72
     1
 10
9.526755128732744
 20
21.53384447754756
 11
9.527571410104085
 21
21.53238680545588
 72
     1
 10
9.527571410104087
 20
21.53238680545589
 11
9.52834395709393
 21
21.53085628960339
 72
     1
 10
9.528343957093937
 20
21.53085628960339
 11
9.529043613447941
 21
21.52925288311505
 72
     1
 10
9.529043613447939
 20
21.52925288311504
 11
9.52968500416828
 21
21.52756200786368
 72
     1
 10
9.529685004168285
 20
21.52756200786368
 11
9.530268035504949
 21
21.52581286697869
 72
     1
 10
9.530268035504946
 20
21.52581286697868
 11
9.530792801207956
 21
21.52397621045565
 72
     1
 10
9.530792801207951
 20
21.52397621045566
 11
9.531244676275122
 21
21.52206671017181
 72
     1
 10
9.531244676275122
 20
21.52206671017181
 11
9.531652816960793
 21
21.52006974112495
 72
     1
 10
9.5316528169608
 20
21.52006974112496
 11
9.531988067010635
 21
21.51801445956944
 72
     1
 10
9.53198806701063
 20
21.51801445956945
 11
9.532279582678961
 21
21.51587170925095
 72
     1
 10
9.532279582678967
 20
21.51587170925095
 11
9.532498254586473
 21
21.51367069329874
 72
     1
 10
9.532498254586471
 20
21.51367069329873
 11
9.53265856711029
 21
21.51138220858356
 72
     1
 10
9.532658567110289
 20
21.51138220858357
 11
9.532760614000462
 21
21.50902078635754
 72
     1
 10
9.532760614000466
 20
21.50902078635754
 11
9.532702301491802
 21
21.50770894241254
 72
     1
 10
9.532702301491795
 20
21.50770894241255
 11
9.532585723349464
 21
21.50521636391701
 72
     1
 10
9.53258572334947
 20
21.505216363917
 11
9.5324836764593
 21
21.5027966760573
 72
     1
 10
9.532483676459307
 20
21.50279667605733
 11
9.532410785823472
 21
21.50044987883347
 72
     1
 10
9.532410785823472
 20
21.50044987883348
 11
9.532367051441966
 21
21.49817592537047
 72
     1
 10
9.532367051441966
 20
21.49817592537046
 11
9.532352473314803
 21
21.49597490941828
 72
     1
 10
9.532352473314801
 20
21.49597490941828
 11
9.532352473314801
 21
21.49383215909976
 72
     1
 10
9.532352473314801
 20
21.49383215909974
 11
9.532367051441964
 21
21.49176229941708
 72
     1
 10
9.532367051441966
 20
21.49176229941709
 11
9.532425363950631
 21
21.48976533037024
 72
     1
 10
9.532425363950622
 20
21.48976533037023
 11
9.5324836764593
 21
21.48784125195923
 72
     1
 10
9.532483676459307
 20
21.48784125195922
 11
9.532585723349477
 21
21.48599001730903
 72
     1
 10
9.53258572334947
 20
21.48599001730904
 11
9.5327023014918
 21
21.48419714204253
 72
     1
 10
9.532702301491795
 20
21.48419714204252
 11
9.532833504636299
 21
21.48249168866401
 72
     1
 10
9.5328335046363
 20
21.48249168866401
 11
9.533008442162305
 21
21.48084454779416
 72
     1
 10
9.533008442162312
 20
21.48084454779415
 11
9.53318333281331
 21
21.47927029756012
 72
     1
 10
9.533183332813308
 20
21.47927029756012
 11
9.533402004720812
 21
21.47775435983479
 72
     1
 10
9.533402004720812
 20
21.47775435983479
 11
9.533635207880477
 21
21.47632584399744
 72
     1
 10
9.533635207880479
 20
21.47632584399744
 11
9.533722676643481
 21
21.47577196891512
 72
     1
 10
9.533722676643478
 20
21.47577196891512
 11
9.534087082947644
 21
21.47376042174111
 72
     1
 10
9.53408708294765
 20
21.4737604217411
 11
9.534480645506153
 21
21.47177803082141
 72
     1
 10
9.53448064550615
 20
21.47177803082141
 11
9.534917942446153
 21
21.46981021802891
 72
     1
 10
9.534917942446156
 20
21.46981021802891
 11
9.535369817513327
 21
21.46785693648854
 72
     1
 10
9.535369817513327
 20
21.46785693648855
 11
9.535865380086994
 21
21.46593285807755
 72
     1
 10
9.535865380086988
 20
21.46593285807755
 11
9.536404723917161
 21
21.46403793592085
 72
     1
 10
9.536404723917158
 20
21.46403793592084
 11
9.536958645874488
 21
21.46215759189134
 72
     1
 10
9.536958645874491
 20
21.46215759189134
 11
9.53755625533833
 21
21.46029177911401
 72
     1
 10
9.53755625533833
 20
21.460291779114
 11
9.538183067931505
 21
21.45845516946597
 72
     1
 10
9.538183067931512
 20
21.45845516946597
 11
9.538838989904016
 21
21.45664766919729
 72
     1
 10
9.538838989904007
 20
21.45664766919729
 11
9.571504776009769
 21
21.45664766919729
 72
     1
 10
9.571504776009774
 20
21.45664766919729
 11
9.571504776009774
 21
21.46358606085366
 72
     1
 10
9.571504776009774
 20
21.46358606085367
 11
9.570178307062594
 21
21.46472301414768
 72
     1
 10
9.57017830706259
 20
21.46472301414768
 11
9.56874983810024
 21
21.46609321747636
 72
     1
 10
9.568749838100245
 20
21.46609321747637
 11
9.567452525407409
 21
21.4675362645659
 72
     1
 10
9.567452525407404
 20
21.4675362645659
 11
9.566286415859062
 21
21.46903762416407
 72
     1
 10
9.566286415859067
 20
21.46903762416406
 11
9.565251509455231
 21
21.47062649940023
 72
     1
 10
9.565251509455237
 20
21.47062649940024
 11
9.564333181193727
 21
21.4722735933951
 72
     1
 10
9.564333181193717
 20
21.47227359339509
 11
9.563546056076711
 21
21.4739790467736
 72
     1
 10
9.563546056076717
 20
21.47397904677361
 11
9.562890087229208
 21
21.47577196891512
 72
     1
 10
9.562890087229206
 20
21.47577196891512
 11
9.56235079027404
 21
21.47762315669031
 72
     1
 10
9.562350790274038
 20
21.4776231566903
 11
9.561957227715534
 21
21.47953265697413
 72
     1
 10
9.561957227715538
 20
21.47953265697413
 11
9.561680243299365
 21
21.48152962602098
 72
     1
 10
9.561680243299363
 20
21.48152962602098
 11
9.561651133920037
 21
21.48195234483384
 72
     1
 10
9.561651133920037
 20
21.48195234483383
 11
9.56147619639403
 21
21.484678173364
 72
     1
 10
9.561476196394025
 20
21.484678173364
 11
9.56130125886802
 21
21.48733106438337
 72
     1
 10
9.561301258868027
 20
21.48733106438339
 11
9.561140946344192
 21
21.48991111164191
 72
     1
 10
9.561140946344195
 20
21.4899111116419
 11
9.560980586945362
 21
21.49241826826457
 72
     1
 10
9.560980586945362
 20
21.49241826826456
 11
9.560834852548699
 21
21.49486706550359
 72
     1
 10
9.560834852548694
 20
21.4948670655036
 11
9.560689071277023
 21
21.49722848772963
 72
     1
 10
9.560689071277025
 20
21.49722848772963
 11
9.56054329000535
 21
21.49953155057196
 72
     1
 10
9.560543290005341
 20
21.49953155057196
 11
9.560426711863016
 21
21.50176172277847
 72
     1
 10
9.56042671186303
 20
21.50176172277847
 11
9.560295508718528
 21
21.50391905122416
 72
     1
 10
9.560295508718525
 20
21.50391905122416
 11
9.560178883701187
 21
21.50600348903403
 72
     1
 10
9.560178883701183
 20
21.50600348903403
 11
9.560076836811004
 21
21.50801503620804
 72
     1
 10
9.560076836811006
 20
21.50801503620805
 11
9.559974836795852
 21
21.50995369274622
 72
     1
 10
9.559974836795845
 20
21.50995369274621
 11
9.559887368032832
 21
21.51183403677572
 72
     1
 10
9.559887368032846
 20
21.51183403677571
 11
9.559799899269853
 21
21.51362695891723
 72
     1
 10
9.559799899269847
 20
21.51362695891724
 11
9.559712430506847
 21
21.5153615685501
 72
     1
 10
9.559712430506849
 20
21.51536156855009
 11
9.559654117998171
 21
21.51702328754709
 72
     1
 10
9.559654117998164
 20
21.5170232875471
 11
9.559581274237345
 21
21.51861211590828
 72
     1
 10
9.559581274237345
 20
21.51861211590828
 11
9.559522961728678
 21
21.52014263176081
 72
     1
 10
9.559522961728688
 20
21.52014263176081
 11
9.559479227347187
 21
21.52158567885031
 72
     1
 10
9.559479227347182
 20
21.52158567885035
 11
9.559435492965681
 21
21.52297046030615
 72
     1
 10
9.559435492965675
 20
21.52297046030614
 11
9.559391758584165
 21
21.52426777299901
 72
     1
 10
9.559391758584169
 20
21.52426777299901
 11
9.559362602329844
 21
21.5255067731832
 72
     1
 10
9.559362602329841
 20
21.52550677318318
 11
9.559173133551672
 21
21.52750374223001
 72
     1
 10
9.559173133551666
 20
21.52750374223002
 11
9.558866992881156
 21
21.52996711759623
 72
     1
 10
9.558866992881164
 20
21.52996711759621
 11
9.558517164704172
 21
21.53227022731357
 72
     1
 10
9.55851716470417
 20
21.53227022731357
 11
9.558123602145666
 21
21.53442750888424
 72
     1
 10
9.55812360214567
 20
21.53442750888423
 11
9.55768630520566
 21
21.5364244779311
 72
     1
 10
9.557686305205663
 20
21.53642447793109
 11
9.557190742632004
 21
21.53826113445409
 72
     1
 10
9.557190742632002
 20
21.5382611344541
 11
9.556651398801829
 21
21.5399374315783
 72
     1
 10
9.556651398801818
 20
21.5399374315783
 11
9.556068320590144
 21
21.54145336930362
 72
     1
 10
9.556068320590156
 20
21.54145336930362
 11
9.555426976744817
 21
21.54282357263231
 72
     1
 10
9.555426976744811
 20
21.54282357263232
 11
9.554741898517979
 21
21.54401883843501
 72
     1
 10
9.554741898517974
 20
21.54401883843499
 11
9.554129664051966
 21
21.54495169794865
 72
     1
 10
9.55412966405197
 20
21.54495169794865
 11
9.553284226426297
 21
21.54607411999049
 72
     1
 10
9.553284226426299
 20
21.54607411999049
 11
9.552322210658296
 21
21.54724022953886
 72
     1
 10
9.552322210658289
 20
21.54724022953886
 11
9.551243522997932
 21
21.54843549534152
 72
     1
 10
9.551243522997935
 20
21.54843549534152
 11
9.550033679068102
 21
21.5496744955257
 72
     1
 10
9.550033679068107
 20
21.54967449552571
 11
9.548707256995935
 21
21.55094260508919
 72
     1
 10
9.548707256995925
 20
21.55094260508919
 11
9.547249584904237
 21
21.55223991778206
 72
     1
 10
9.54724958490425
 20
21.55223991778206
 11
9.545675334670242
 21
21.5535809648564
 72
     1
 10
9.545675334670235
 20
21.5535809648564
 11
9.543969881291719
 21
21.55496569943722
 72
     1
 10
9.543969881291715
 20
21.55496569943723
 11
9.542147849770861
 21
21.55636505902026
 97
        0
 92
       16
 93
        1
 72
     2
 10
9.471427714258354
 20
21.55223143340577
 40
0.1640625243878329
 50
0.0
 51
360.0
 73
     1
 97
        0
 92
        1
 93
        1
 72
     2
 10
9.471427714258354
 20
21.55223143340577
 40
0.187500027871809
 50
0.0
 51
360.0
 73
     1
 97
        0
 75
     0
 76
     1
 47
0.5016490000000001
 98
        2
 10
3.394573373436216
 20
21.01566325989514
 10
6.901555332247767
 20
21.08620770788153
  0
TEXT
  5
140
330
18
100
AcDbEntity
  8
DIM
  6
Continuous
 62
     7
100
AcDbText
 10
25.99841400491327
 20
3.791169536951301
 30
0.0
 40
0.2222222552554773
  1
REV:Dec. 2003
  7
BLACK
100
AcDbText
  0
TEXT
  5
141
330
18
100
AcDbEntity
  8
DIM
  6
Continuous
 62
     7
100
AcDbText
 10
25.96357756223485
 20
3.368543437225568
 30
0.0
 40
0.2222222552554773
  1
# 0GU117
  7
BLACK
100
AcDbText
  0
TEXT
  5
1FA
330
18
100
AcDbEntity
  8
DIM
  6
Continuous
 62
     7
100
AcDbText
 10
25.99841400491327
 20
4.234684140601814
 30
0.0
 40
0.2222222552554773
  1
LT502/LT512G/LT512
  7
BLACK
100
AcDbText
  0
CIRCLE
  5
462
330
18
100
AcDbEntity
  8
PIC02
  6
PHANTOM
 62
     7
 48
3.0
100
AcDbCircle
 10
17.56507675214462
 20
14.40871318840609
 30
0.0
 40
1.259840041336764
  0
CIRCLE
  5
463
330
18
100
AcDbEntity
  8
PIC02
  6
PHANTOM
 62
     7
 48
3.0
100
AcDbCircle
 10
17.56507675214462
 20
14.40871318840609
 30
0.0
 40
0.8661400284042617
  0
CIRCLE
  5
465
330
18
100
AcDbEntity
  8
PIC02
  6
PHANTOM
 62
     7
 48
3.0
100
AcDbCircle
 10
17.56507675214462
 20
11.98745810898931
 30
0.0
 40
9.507855311894742
  0
LINE
  5
6B8
330
18
100
AcDbEntity
  8
0
  6
CENTER
 48
0.5
100
AcDbLine
 10
15.56507675214462
 20
14.40871318840609
 30
0.0
 11
19.56507675214462
 21
14.40871318840609
 31
0.0
  0
LINE
  5
6B9
330
18
100
AcDbEntity
  8
0
  6
CENTER
 48
0.5
100
AcDbLine
 10
17.56507675214462
 20
12.40871318840609
 30
0.0
 11
17.56507675214462
 21
16.40871318840609
 31
0.0
  0
LWPOLYLINE
  5
6BB
330
18
100
AcDbEntity
  8
0
100
AcDbPolyline
 90
        4
 70
     1
 43
0.0
 10
0.0
 20
0.0
 10
36.0
 20
0.0
 10
36.0
 20
24.0
 10
0.0
 20
24.0
  0
MTEXT
  5
6F8
330
18
100
AcDbEntity
  8
DIM
  6
Continuous
 62
     7
100
AcDbMText
 10
22.65806837989964
 20
17.01730096854555
 30
0.0
 40
0.25
 41
0.0
 71
     9
 72
     1
  1
RIM OF LAVATORY\PBORDE DEL LAVABO\PBORD DU LAVABO
  7
BLACK
 73
     1
 44
1.0
1001
ACAD
1000
MTEXTBEGIN
1070
    73
1070
     1
1070
    44
1040
1.0
1070
    74
1070
     0
1000
MTEXTEND
  0
MTEXT
  5
6F9
330
18
100
AcDbEntity
  8
DIM
  6
Continuous
 62
     7
100
AcDbMText
 10
20.36608907740882
 20
6.678223169971744
 30
0.0
 40
0.25
 41
0.0
 71
     9
 72
     1
  1
CUT ALONG THIS LINE\PCORTE A LO LARGO DE ESTA LINEA\PDECOUPER AU LONG DE CETTE LIGNE
  7
BLACK
 73
     1
 44
1.0
1001
ACAD
1000
MTEXTBEGIN
1070
    73
1070
     1
1070
    44
1040
1.0
1070
    74
1070
     0
1000
MTEXTEND
  0
LEADER
  5
6FA
330
18
100
AcDbEntity
  8
0
100
AcDbLeader
  3
STANDARD
 76
     3
 10
22.72005702097709
 20
5.416443502367811
 30
0.0
 10
20.5195425868111
 20
6.76455250376054
 30
0.0
 10
20.47445617529078
 20
6.76455250376054
 30
0.0
  0
LEADER
  5
6FC
330
18
100
AcDbEntity
  8
0
100
AcDbLeader
  3
STANDARD
 76
     3
 10
24.34915798322415
 20
18.64895602477669
 30
0.0
 10
22.96990679902035
 20
17.3290019991465
 30
0.0
 10
22.70045916201713
 20
17.3290019991465
 30
0.0
1001
ACAD
1000
DSTYLE
1002
{
1070
   147
1040
0.09
1070
    77
1070
     0
1002
}
  0
VIEWPORT
  5
40
102
{ACAD_XDICTIONARY
360
2076
102
}
330
15
100
AcDbEntity
 67
     1
  8
0
100
AcDbViewport
 10
20.9100905384901
 20
11.96410148849468
 30
0.0
 40
60.34873794080829
 41
34.51823699699189
 68
     1
 69
     1
 12
20.9100905384901
 22
11.96410148849468
 13
0.0
 23
0.0
 14
0.0
 24
0.0
 15
0.0
 25
0.0
 16
0.0
 26
0.0
 36
1.0
 17
0.0
 27
0.0
 37
0.0
 42
50.0
 43
0.0
 44
0.0
 45
34.51823699699189
 50
0.0
 51
0.0
 72
   100
 90
    32800
  1

281
     0
 71
     1
 74
     0
110
0.0
120
0.0
130
0.0
111
1.0
121
0.0
131
0.0
112
0.0
122
1.0
132
0.0
 79
     0
146
0.0
  0
VIEWPORT
  5
6BF
102
{ACAD_XDICTIONARY
360
2083
102
}
330
15
100
AcDbEntity
 67
     1
  8
0
100
AcDbViewport
 10
18.0
 20
12.0
 30
0.0
 40
36.0
 41
24.0
 68
     2
 69
     2
 12
17.99873050062268
 22
11.99963524352057
 13
0.0
 23
0.0
 14
0.0
 24
0.0
 15
0.0
 25
0.0
 16
0.0
 26
0.0
 36
1.0
 17
0.0
 27
0.0
 37
0.0
 42
50.0
 43
0.0
 44
0.0
 45
24.0
 50
0.0
 51
0.0
 72
   100
 90
    32800
  1

281
     0
 71
     1
 74
     0
110
0.0
120
0.0
130
0.0
111
1.0
121
0.0
131
0.0
112
0.0
122
1.0
132
0.0
 79
     0
146
0.0
  0
ENDSEC
  0
SECTION
  2
OBJECTS
  0
DICTIONARY
  5
C
330
0
100
AcDbDictionary
281
     1
  3
ACAD_COLOR
350
1F1
  3
ACAD_GROUP
350
D
  3
ACAD_LAYOUT
350
E5
  3
ACAD_MATERIAL
350
1F0
  3
ACAD_MLINESTYLE
350
1B
  3
ACAD_PLOTSETTINGS
350
E6
  3
ACAD_PLOTSTYLENAME
350
E3
  3
ACAD_TABLESTYLE
350
1F2
  3
ACAD_VISUALSTYLE
350
2053
  3
ACDBVARIABLEDICTIONARY
350
148
  3
ASE_INDEX_DICTIONARY
350
203C
  3
DWGPROPS
350
2075
  0
DICTIONARY
  5
6C3
330
2
100
AcDbDictionary
280
     1
281
     1
  3
ACAD_LAYERSTATES
360
6C4
  0
DICTIONARY
  5
177
330
18
100
AcDbDictionary
280
     1
281
     1
  3
ACAD_LAYOUTSELFREF
360
1E2
  0
DICTIONARY
  5
175
330
15
100
AcDbDictionary
280
     1
281
     1
  3
ACAD_LAYOUTSELFREF
360
1E1
  0
DICTIONARY
  5
2078
330
4F
100
AcDbDictionary
280
     1
281
     1
  3
ACAD_XREC_ROUNDTRIP
360
2079
  0
DICTIONARY
  5
207A
330
73
100
AcDbDictionary
280
     1
281
     1
  3
ACAD_XREC_ROUNDTRIP
360
207B
  0
DICTIONARY
  5
207C
330
75
100
AcDbDictionary
280
     1
281
     1
  3
ACAD_XREC_ROUNDTRIP
360
207D
  0
DICTIONARY
  5
2076
330
40
100
AcDbDictionary
280
     1
281
     1
  3
ACAD_XREC_ROUNDTRIP
360
2077
  0
DICTIONARY
  5
2083
330
6BF
100
AcDbDictionary
280
     1
281
     1
  3
ACAD_XREC_ROUNDTRIP
360
2084
  0
DICTIONARY
  5
1F1
102
{ACAD_REACTORS
330
C
102
}
330
C
100
AcDbDictionary
281
     1
  0
DICTIONARY
  5
D
102
{ACAD_REACTORS
330
C
102
}
330
C
100
AcDbDictionary
281
     1
  0
DICTIONARY
  5
E5
102
{ACAD_REACTORS
330
C
102
}
330
C
100
AcDbDictionary
281
     1
  3
Layout1
350
1F5
  3
Model
350
1F4
  0
DICTIONARY
  5
1F0
102
{ACAD_REACTORS
330
C
102
}
330
C
100
AcDbDictionary
281
     1
  3
ByBlock
350
2051
  3
ByLayer
350
2050
  3
Global
350
2052
  0
DICTIONARY
  5
1B
102
{ACAD_REACTORS
330
C
102
}
330
C
100
AcDbDictionary
281
     1
  3
STANDARD
350
1C
  0
DICTIONARY
  5
E6
102
{ACAD_REACTORS
330
C
102
}
330
C
100
AcDbDictionary
281
     1
  0
ACDBDICTIONARYWDFLT
  5
E3
102
{ACAD_REACTORS
330
C
102
}
330
C
100
AcDbDictionary
281
     1
  3
Normal
350
E4
100
AcDbDictionaryWithDefault
340
E4
  0
DICTIONARY
  5
1F2
102
{ACAD_REACTORS
330
C
102
}
330
C
100
AcDbDictionary
281
     1
  3
Standard
350
1F3
  0
DICTIONARY
  5
2053
102
{ACAD_REACTORS
330
C
102
}
330
C
100
AcDbDictionary
281
     1
  3
2dWireframe
350
2059
  3
3D Hidden
350
205B
  3
3dWireframe
350
205A
  3
Basic
350
2058
  3
Brighten
350
205F
  3
ColorChange
350
2063
  3
Conceptual
350
205C
  3
Dim
350
205E
  3
Facepattern
350
2062
  3
Flat
350
2054
  3
FlatWithEdges
350
2055
  3
Gouraud
350
2056
  3
GouraudWithEdges
350
2057
  3
Linepattern
350
2061
  3
Realistic
350
205D
  3
Thicken
350
2060
  0
DICTIONARY
  5
148
102
{ACAD_REACTORS
330
C
102
}
330
C
100
AcDbDictionary
281
     1
  3
CTABLESTYLE
350
1FE
  3
DIMASSOC
350
149
  3
INDEXCTL
350
2074
  3
PROJECTNAME
350
6D7
  3
SORTENTS
350
2073
  0
DICTIONARY
  5
203C
102
{ACAD_REACTORS
330
C
102
}
330
C
100
AcDbDictionary
281
     1
  3
ASEBlockHierarchyIndexRecord
350
203D
1001
DCO15
1040
1651491924.038
  0
XRECORD
  5
2075
102
{ACAD_REACTORS
330
C
102
}
330
C
100
AcDbXrecord
280
     1
  1
DWGPROPS COOKIE
  2

  3

  4

  6

  7

  8
nnguyen
  9

300
=
301
=
302
=
303
=
304
=
305
=
306
=
307
=
308
=
309
=
 40
0.0727683912037037
 41
2451632.437908102
 42
2454917.701713403
  1

 90
        0
  0
DICTIONARY
  5
6C4
102
{ACAD_REACTORS
330
6C3
102
}
330
6C3
100
AcDbDictionary
281
     1
  0
XRECORD
  5
1E2
102
{ACAD_REACTORS
330
177
102
}
330
177
100
AcDbXrecord
280
     1
340
18
  0
XRECORD
  5
1E1
102
{ACAD_REACTORS
330
175
102
}
330
175
100
AcDbXrecord
280
     1
340
15
  0
XRECORD
  5
2079
102
{ACAD_REACTORS
330
2078
102
}
330
2078
100
AcDbXrecord
280
     1
102
SHADEPLOT
 70
     0
  0
XRECORD
  5
207B
102
{ACAD_REACTORS
330
207A
102
}
330
207A
100
AcDbXrecord
280
     1
102
SHADEPLOT
 70
     0
  0
XRECORD
  5
207D
102
{ACAD_REACTORS
330
207C
102
}
330
207C
100
AcDbXrecord
280
     1
102
SHADEPLOT
 70
     0
  0
XRECORD
  5
2077
102
{ACAD_REACTORS
330
2076
102
}
330
2076
100
AcDbXrecord
280
     1
102
SHADEPLOT
 70
     0
  0
XRECORD
  5
2084
102
{ACAD_REACTORS
330
2083
102
}
330
2083
100
AcDbXrecord
280
     1
102
SHADEPLOT
 70
     0
  0
LAYOUT
  5
1F5
102
{ACAD_XDICTIONARY
360
6C6
102
}
102
{ACAD_REACTORS
330
E5
102
}
330
E5
100
AcDbPlotSettings
  1

  2
none_device
  4
Letter_(8.50_x_11.00_Inches)
  6

 40
6.349999904632568
 41
6.349999904632568
 42
6.350006103515625
 43
6.350006103515625
 44
215.8999938964844
 45
279.3999938964844
 46
0.0
 47
0.0
 48
0.0
 49
0.0
140
0.0
141
0.0
142
1.0
143
34.76644459924798
 70
   688
 72
     0
 73
     1
 74
     1
  7

 75
     0
147
0.0287633668477458
148
-96.20725596290595
149
-25.5496182946285
100
AcDbLayout
  1
Layout1
 70
     1
 71
     1
 10
-1.916362706842049
 20
-4.711214363327504
 11
374.5393871532726
 21
286.1864086595551
 12
0.0
 22
0.0
 32
0.0
 14
0.0
 24
0.0
 34
0.0
 15
36.0
 25
24.0
 35
0.0
146
0.0
 13
0.0
 23
0.0
 33
0.0
 16
1.0
 26
0.0
 36
0.0
 17
0.0
 27
1.0
 37
0.0
 76
     0
330
15
331
40
1001
ACAD_PSEXT
1000
None
1000
None
1000
Not applicable
1000
The layout will not be plotted unless a new plotter configuration name is selected.
1070
     0
  0
LAYOUT
  5
1F4
102
{ACAD_XDICTIONARY
360
2080
102
}
102
{ACAD_REACTORS
330
E5
102
}
330
E5
100
AcDbPlotSettings
  1

  2
none_device
  4
Letter_(8.50_x_11.00_Inches)
  6

 40
6.349999904632568
 41
6.349999904632568
 42
6.350006103515625
 43
6.350006103515625
 44
215.8999938964844
 45
279.3999938964844
 46
0.0
 47
0.0
 48
0.0
 49
0.0
140
0.0
141
0.0
142
1.0
143
4.296189273928602
 70
 11952
 72
     0
 73
     1
 74
     0
  7

 75
     0
147
0.2327644189394759
148
115.5677380661209
149
41.11226306653474
100
AcDbLayout
  1
Model
 70
     1
 71
     0
 10
0.0
 20
0.0
 11
12.0
 21
9.0
 12
0.0
 22
0.0
 32
0.0
 14
0.0
 24
0.0
 34
0.0
 15
0.0
 25
0.0
 35
0.0
146
0.0
 13
0.0
 23
0.0
 33
0.0
 16
1.0
 26
0.0
 36
0.0
 17
0.0
 27
1.0
 37
0.0
 76
     0
330
18
331
204E
1001
ACAD_PSEXT
1000
None
1000
None
1000
Not applicable
1000
The layout will not be plotted unless a new plotter configuration name is selected.
1070
     0
  0
MATERIAL
  5
2051
102
{ACAD_XDICTIONARY
360
2087
102
}
102
{ACAD_REACTORS
330
1F0
102
}
330
1F0
100
AcDbMaterial
  1
ByBlock
  0
MATERIAL
  5
2050
102
{ACAD_XDICTIONARY
360
2085
102
}
102
{ACAD_REACTORS
330
1F0
102
}
330
1F0
100
AcDbMaterial
  1
ByLayer
  0
MATERIAL
  5
2052
102
{ACAD_XDICTIONARY
360
2089
102
}
102
{ACAD_REACTORS
330
1F0
102
}
330
1F0
100
AcDbMaterial
  1
Global
  0
MLINESTYLE
  5
1C
102
{ACAD_REACTORS
330
1B
102
}
330
1B
100
AcDbMlineStyle
  2
STANDARD
 70
     0
  3

 62
   256
 51
90.0
 52
90.0
 71
     2
 49
0.5
 62
   256
  6
BYLAYER
 49
-0.5
 62
   256
  6
BYLAYER
  0
ACDBPLACEHOLDER
  5
E4
102
{ACAD_REACTORS
330
E3
102
}
330
E3
  0
TABLESTYLE
  5
1F3
102
{ACAD_XDICTIONARY
360
207E
102
}
102
{ACAD_REACTORS
330
1F2
102
}
330
1F2
100
AcDbTableStyle
  3
Standard
 70
     0
 71
     0
 40
0.06
 41
0.06
280
     0
281
     0
  7
STANDARD
140
0.18
170
     2
 62
     0
 63
     7
283
     0
274
    -2
284
     1
 64
     0
275
    -2
285
     1
 65
     0
276
    -2
286
     1
 66
     0
277
    -2
287
     1
 67
     0
278
    -2
288
     1
 68
     0
279
    -2
289
     1
 69
     0
  7
STANDARD
140
0.25
170
     5
 62
     0
 63
     7
283
     0
274
    -2
284
     1
 64
     0
275
    -2
285
     1
 65
     0
276
    -2
286
     1
 66
     0
277
    -2
287
     1
 67
     0
278
    -2
288
     1
 68
     0
279
    -2
289
     1
 69
     0
  7
STANDARD
140
0.18
170
     5
 62
     0
 63
     7
283
     0
274
    -2
284
     1
 64
     0
275
    -2
285
     1
 65
     0
276
    -2
286
     1
 66
     0
277
    -2
287
     1
 67
     0
278
    -2
288
     1
 68
     0
279
    -2
289
     1
 69
     0
  0
VISUALSTYLE
  5
2059
102
{ACAD_REACTORS
330
2053
102
}
330
2053
100
AcDbVisualStyle
  2
2dWireframe
 70
     4
 71
     0
 72
     2
 73
     0
 90
        0
 40
-0.6
 41
-30.0
 62
     5
 63
     7
 74
     1
 91
        4
 64
     7
 65
   257
 75
     1
175
     1
 42
1.0
 92
        0
 66
   257
 43
1.0
 76
     1
 77
     6
 78
     2
 67
     7
 79
     5
170
     0
171
     0
290
     0
174
     0
 93
        1
 44
0.0
173
     0
291
     0
 45
0.0
1001
ACAD
1000
AcDbSavedByObjectVersion
1070
     0
  0
VISUALSTYLE
  5
205B
102
{ACAD_REACTORS
330
2053
102
}
330
2053
100
AcDbVisualStyle
  2
3D Hidden
 70
     6
 71
     1
 72
     2
 73
     2
 90
        0
 40
-0.6
 41
-30.0
 62
     5
 63
     7
 74
     2
 91
        2
 64
     7
 65
   257
 75
     2
175
     1
 42
40.0
 92
        0
 66
   257
 43
1.0
 76
     1
 77
     6
 78
     2
 67
     7
 79
     3
170
     0
171
     0
290
     0
174
     0
 93
        1
 44
0.0
173
     0
291
     0
 45
0.0
1001
ACAD
1000
AcDbSavedByObjectVersion
1070
     0
  0
VISUALSTYLE
  5
205A
102
{ACAD_REACTORS
330
2053
102
}
330
2053
100
AcDbVisualStyle
  2
3dWireframe
 70
     5
 71
     0
 72
     2
 73
     0
 90
        0
 40
-0.6
 41
-30.0
 62
     5
 63
     7
 74
     1
 91
        4
 64
     7
 65
   257
 75
     1
175
     1
 42
1.0
 92
        0
 66
   257
 43
1.0
 76
     1
 77
     6
 78
     2
 67
     7
 79
     5
170
     0
171
     0
290
     0
174
     0
 93
        1
 44
0.0
173
     0
291
     0
 45
0.0
1001
ACAD
1000
AcDbSavedByObjectVersion
1070
     0
  0
VISUALSTYLE
  5
2058
102
{ACAD_REACTORS
330
2053
102
}
330
2053
100
AcDbVisualStyle
  2
Basic
 70
     7
 71
     1
 72
     0
 73
     1
 90
        0
 40
-0.6
 41
-30.0
 62
     5
 63
     7
 74
     0
 91
        4
 64
     7
 65
   257
 75
     1
175
     1
 42
1.0
 92
        8
 66
     7
 43
1.0
 76
     1
 77
     6
 78
     2
 67
     7
 79
     5
170
     0
171
     0
290
     0
174
     0
 93
        1
 44
0.0
173
     0
291
     1
 45
0.0
1001
ACAD
1000
AcDbSavedByObjectVersion
1070
     0
  0
VISUALSTYLE
  5
205F
102
{ACAD_REACTORS
330
2053
102
}
330
2053
100
AcDbVisualStyle
  2
Brighten
 70
    12
 71
     2
 72
     2
 73
     0
 90
        0
 40
-0.6
 41
-30.0
 62
     5
 63
     7
 74
     1
 91
        4
 64
     7
 65
   257
 75
     1
175
     1
 42
1.0
 92
        8
 66
     7
 43
1.0
 76
     1
 77
     6
 78
     2
 67
     7
 79
     5
170
     0
171
     0
290
     0
174
     0
 93
        1
 44
50.0
173
     0
291
     1
 45
0.0
1001
ACAD
1000
AcDbSavedByObjectVersion
1070
     0
  0
VISUALSTYLE
  5
2063
102
{ACAD_REACTORS
330
2053
102
}
330
2053
100
AcDbVisualStyle
  2
ColorChange
 70
    16
 71
     2
 72
     2
 73
     3
 90
        0
 40
-0.6
 41
-30.0
 62
     5
 63
     8
 74
     1
 91
        4
 64
     7
 65
   257
 75
     1
175
     1
 42
1.0
 92
        8
 66
     8
 43
1.0
 76
     1
 77
     6
 78
     2
 67
     7
 79
     5
170
     0
171
     0
290
     0
174
     0
 93
        1
 44
0.0
173
     0
291
     1
 45
0.0
1001
ACAD
1000
AcDbSavedByObjectVersion
1070
     0
  0
VISUALSTYLE
  5
205C
102
{ACAD_REACTORS
330
2053
102
}
330
2053
100
AcDbVisualStyle
  2
Conceptual
 70
     9
 71
     3
 72
     2
 73
     0
 90
        0
 40
-0.6
 41
-30.0
 62
     5
 63
     7
 74
     2
 91
        2
 64
     7
 65
   257
 75
     1
175
     1
 42
40.0
 92
        8
 66
     7
 43
1.0
 76
     1
 77
     6
 78
     2
 67
     7
 79
     3
170
     0
171
     0
290
     0
174
     0
 93
        1
 44
0.0
173
     0
291
     0
 45
0.0
1001
ACAD
1000
AcDbSavedByObjectVersion
1070
     0
  0
VISUALSTYLE
  5
205E
102
{ACAD_REACTORS
330
2053
102
}
330
2053
100
AcDbVisualStyle
  2
Dim
 70
    11
 71
     2
 72
     2
 73
     0
 90
        0
 40
-0.6
 41
-30.0
 62
     5
 63
     7
 74
     1
 91
        4
 64
     7
 65
   257
 75
     1
175
     1
 42
1.0
 92
        8
 66
     7
 43
1.0
 76
     1
 77
     6
 78
     2
 67
     7
 79
     5
170
     0
171
     0
290
     0
174
     0
 93
        1
 44
-50.0
173
     0
291
     1
 45
0.0
1001
ACAD
1000
AcDbSavedByObjectVersion
1070
     0
  0
VISUALSTYLE
  5
2062
102
{ACAD_REACTORS
330
2053
102
}
330
2053
100
AcDbVisualStyle
  2
Facepattern
 70
    15
 71
     2
 72
     2
 73
     0
 90
        0
 40
-0.6
 41
-30.0
 62
     5
 63
     7
 74
     1
 91
        4
 64
     7
 65
   257
 75
     1
175
     1
 42
1.0
 92
        8
 66
     7
 43
1.0
 76
     1
 77
     6
 78
     2
 67
     7
 79
     5
170
     0
171
     0
290
     0
174
     0
 93
        1
 44
0.0
173
     0
291
     1
 45
0.0
1001
ACAD
1000
AcDbSavedByObjectVersion
1070
     0
  0
VISUALSTYLE
  5
2054
102
{ACAD_REACTORS
330
2053
102
}
330
2053
100
AcDbVisualStyle
  2
Flat
 70
     0
 71
     2
 72
     1
 73
     1
 90
        2
 40
-0.6
 41
30.0
 62
     5
 63
     7
 74
     0
 91
        4
 64
     7
 65
   257
 75
     1
175
     1
 42
1.0
 92
        8
 66
     7
 43
1.0
 76
     1
 77
     6
 78
     2
 67
     7
 79
     5
170
     0
171
     0
290
     0
174
     0
 93
       13
 44
0.0
173
     0
291
     1
 45
0.0
1001
ACAD
1000
AcDbSavedByObjectVersion
1070
     0
  0
VISUALSTYLE
  5
2055
102
{ACAD_REACTORS
330
2053
102
}
330
2053
100
AcDbVisualStyle
  2
FlatWithEdges
 70
     1
 71
     2
 72
     1
 73
     1
 90
        2
 40
-0.6
 41
30.0
 62
     5
 63
     7
 74
     1
 91
        4
 64
     7
 65
   257
 75
     1
175
     1
 42
1.0
 92
        0
 66
   257
 43
1.0
 76
     1
 77
     6
 78
     2
 67
     7
 79
     5
170
     0
171
     0
290
     0
174
     0
 93
       13
 44
0.0
173
     0
291
     1
 45
0.0
1001
ACAD
1000
AcDbSavedByObjectVersion
1070
     0
  0
VISUALSTYLE
  5
2056
102
{ACAD_REACTORS
330
2053
102
}
330
2053
100
AcDbVisualStyle
  2
Gouraud
 70
     2
 71
     2
 72
     2
 73
     1
 90
        2
 40
-0.6
 41
30.0
 62
     5
 63
     7
 74
     0
 91
        4
 64
     7
 65
   257
 75
     1
175
     1
 42
1.0
 92
        0
 66
     7
 43
1.0
 76
     1
 77
     6
 78
     2
 67
     7
 79
     5
170
     0
171
     0
290
     0
174
     0
 93
       13
 44
0.0
173
     0
291
     1
 45
0.0
1001
ACAD
1000
AcDbSavedByObjectVersion
1070
     0
  0
VISUALSTYLE
  5
2057
102
{ACAD_REACTORS
330
2053
102
}
330
2053
100
AcDbVisualStyle
  2
GouraudWithEdges
 70
     3
 71
     2
 72
     2
 73
     1
 90
        2
 40
-0.6
 41
30.0
 62
     5
 63
     7
 74
     1
 91
        4
 64
     7
 65
   257
 75
     1
175
     1
 42
1.0
 92
        0
 66
   257
 43
1.0
 76
     1
 77
     6
 78
     2
 67
     7
 79
     5
170
     0
171
     0
290
     0
174
     0
 93
       13
 44
0.0
173
     0
291
     1
 45
0.0
1001
ACAD
1000
AcDbSavedByObjectVersion
1070
     0
  0
VISUALSTYLE
  5
2061
102
{ACAD_REACTORS
330
2053
102
}
330
2053
100
AcDbVisualStyle
  2
Linepattern
 70
    14
 71
     2
 72
     2
 73
     0
 90
        0
 40
-0.6
 41
-30.0
 62
     5
 63
     7
 74
     1
 91
        4
 64
     7
 65
   257
 75
     7
175
     7
 42
1.0
 92
        8
 66
     7
 43
1.0
 76
     1
 77
     6
 78
     2
 67
     7
 79
     5
170
     0
171
     0
290
     0
174
     0
 93
        1
 44
0.0
173
     0
291
     1
 45
0.0
1001
ACAD
1000
AcDbSavedByObjectVersion
1070
     0
  0
VISUALSTYLE
  5
205D
102
{ACAD_REACTORS
330
2053
102
}
330
2053
100
AcDbVisualStyle
  2
Realistic
 70
     8
 71
     2
 72
     2
 73
     0
 90
        0
 40
-0.6
 41
-30.0
 62
     5
 63
     7
 74
     1
 91
        0
 64
     7
 65
   257
 75
     1
175
     1
 42
1.0
 92
        8
 66
     8
 43
1.0
 76
     1
 77
     6
 78
     2
 67
     7
 79
     5
170
     0
171
     0
290
     0
174
     0
 93
       13
 44
0.0
173
     0
291
     0
 45
0.0
1001
ACAD
1000
AcDbSavedByObjectVersion
1070
     0
  0
VISUALSTYLE
  5
2060
102
{ACAD_REACTORS
330
2053
102
}
330
2053
100
AcDbVisualStyle
  2
Thicken
 70
    13
 71
     2
 72
     2
 73
     0
 90
        0
 40
-0.6
 41
-30.0
 62
     5
 63
     7
 74
     1
 91
        4
 64
     7
 65
   257
 75
     1
175
     1
 42
1.0
 92
       12
 66
     7
 43
1.0
 76
     1
 77
     6
 78
     2
 67
     7
 79
     5
170
     0
171
     0
290
     0
174
     0
 93
        1
 44
0.0
173
     0
291
     1
 45
0.0
1001
ACAD
1000
AcDbSavedByObjectVersion
1070
     0
  0
DICTIONARYVAR
  5
1FE
102
{ACAD_REACTORS
330
148
102
}
330
148
100
DictionaryVariables
280
     0
  1
STANDARD
  0
DICTIONARYVAR
  5
149
102
{ACAD_REACTORS
330
148
102
}
330
148
100
DictionaryVariables
280
     0
  1
1
  0
DICTIONARYVAR
  5
2074
102
{ACAD_REACTORS
330
148
102
}
330
148
100
DictionaryVariables
280
     0
  1
0
  0
DICTIONARYVAR
  5
6D7
102
{ACAD_REACTORS
330
148
102
}
330
148
100
DictionaryVariables
280
     0
  1

  0
DICTIONARYVAR
  5
2073
102
{ACAD_REACTORS
330
148
102
}
330
148
100
DictionaryVariables
280
     0
  1
127
  0
XRECORD
  5
203D
102
{ACAD_REACTORS
330
203C
102
}
330
203C
100
AcDbXrecord
280
     1
330
4E
  0
DICTIONARY
  5
6C6
330
1F5
100
AcDbDictionary
280
     1
281
     1
  3
ACAD_XREC_ROUNDTRIP
360
2082
  3
ADSK_XREC_LAYOUTTHUMBNAIL
360
6C7
  0
DICTIONARY
  5
2080
330
1F4
100
AcDbDictionary
280
     1
281
     1
  3
ACAD_XREC_ROUNDTRIP
360
2081
  0
DICTIONARY
  5
2087
330
2051
100
AcDbDictionary
280
     1
281
     1
  3
ACAD_XREC_ROUNDTRIP
360
2088
  0
DICTIONARY
  5
2085
330
2050
100
AcDbDictionary
280
     1
281
     1
  3
ACAD_XREC_ROUNDTRIP
360
2086
  0
DICTIONARY
  5
2089
330
2052
100
AcDbDictionary
280
     1
281
     1
  3
ACAD_XREC_ROUNDTRIP
360
208A
  0
DICTIONARY
  5
207E
330
1F3
100
AcDbDictionary
280
     1
281
     1
  3
ACAD_XREC_ROUNDTRIP
360
207F
  0
XRECORD
  5
2082
102
{ACAD_REACTORS
330
6C6
102
}
330
6C6
100
AcDbXrecord
280
     1
102
SHADEPLOT
 70
     0
102
SHADEPLOTRESLEVEL
 70
     2
102
SHADEPLOTCUSTOMDPI
 70
   300
  0
XRECORD
  5
6C7
102
{ACAD_REACTORS
330
6C6
102
}
330
6C6
100
AcDbXrecord
280
     1
310
28000000B40000008B0000000100080000000000BC610000000000000000000000010000000000000000000000000000FFFFFF000000000000000000000000000000000000000000000000000000000000000000330000006600000099000000CC000000FF00000000330000333300006633000099330000CC330000FF3300
310
0000660000336600006666000099660000CC660000FF66000000990000339900006699000099990000CC990000FF99000000CC000033CC000066CC000099CC0000CCCC0000FFCC000000FF000033FF000066FF000099FF0000CCFF0000FFFF000000003300330033006600330099003300CC003300FF003300003333003333
310
33006633330099333300CC333300FF33330000663300336633006666330099663300CC663300FF66330000993300339933006699330099993300CC993300FF99330000CC330033CC330066CC330099CC3300CCCC3300FFCC330000FF330033FF330066FF330099FF3300CCFF3300FFFF330000006600330066006600660099
310
006600CC006600FF00660000336600333366006633660099336600CC336600FF33660000666600336666006666660099666600CC666600FF66660000996600339966006699660099996600CC996600FF99660000CC660033CC660066CC660099CC6600CCCC6600FFCC660000FF660033FF660066FF660099FF6600CCFF6600
310
FFFF660000009900330099006600990099009900CC009900FF00990000339900333399006633990099339900CC339900FF33990000669900336699006666990099669900CC669900FF66990000999900339999006699990099999900CC999900FF99990000CC990033CC990066CC990099CC9900CCCC9900FFCC990000FF99
310
0033FF990066FF990099FF9900CCFF9900FFFF99000000CC003300CC006600CC009900CC00CC00CC00FF00CC000033CC003333CC006633CC009933CC00CC33CC00FF33CC000066CC003366CC006666CC009966CC00CC66CC00FF66CC000099CC003399CC006699CC009999CC00CC99CC00FF99CC0000CCCC0033CCCC0066CC
310
CC0099CCCC00CCCCCC00FFCCCC0000FFCC0033FFCC0066FFCC0099FFCC00CCFFCC00FFFFCC000000FF003300FF006600FF009900FF00CC00FF00FF00FF000033FF003333FF006633FF009933FF00CC33FF00FF33FF000066FF003366FF006666FF009966FF00CC66FF00FF66FF000099FF003399FF006699FF009999FF00CC
310
99FF00FF99FF0000CCFF0033CCFF0066CCFF0099CCFF00CCCCFF00FFCCFF0000FFFF0033FFFF0066FFFF0099FFFF00CCFFFF00FFFFFF00000000000D0D0D001A1A1A00282828003535350043434300505050005D5D5D006B6B6B00787878008686860093939300A1A1A100AEAEAE00BBBBBB00C9C9C900D6D6D600E4E4E400
310
F1F1F100FFFFFF0000000000000000000000000000000000000000000000000000000000000000000000000000000000E2E2E2E2E2E2E2E2E2E2E2E2E2E2E2E2E2E2E2E2E2E2E2E2E2E2E2E2E2E2E2E2E2E2E2E2E2E2E2E2E2E2E2E2E2E2E2E2E2E2E2E2E2E2E2E2E2E2E2E2E2E2E2E2E2E2E2E2E2E2E2E2E2E2E2E2E2E2E2
310
E2E2E2E2E2E2E2E2E2E2E2E2E2E2E2E2E2E2E2E2E2E2E2E2E2E2E2E2E2E2E2E2E2E2E2E2E2E2E2E2E2E2E2E2E2E2E2E2E2E2E2E2E2E2E2E2E2E2E2E2E2E2E2E2E2E2E2E2E2E2E2E2E2E2E2E2E2E2E2E2E2E2E2E2E2E2E2E2E2E2E2E2E2E2E2E2E2E2E2E2E2E2E2E2E2E2E2E2E2E2E2E2E2E2E2E2E2E2E2E2E2E2E2E2E2E2E2
310
E2E2E2E2E2E2E2E2E2E2E2E2E2E2E2E2E2E2E2E2E2E2E2E2E2E2E2E2E2E2E2E2E2E2E2E2E2E2E2E2E2E2E2E2E2E2E2E2E2E2E2E2E2E2E2E2E2E2E2E2E2E2E2E2E2E2E2E2E2E2E2E2E2E2E2E2E2E2E2E2E2E2E2E2E2E2E2E2E2E2E2E2E2E2E2E2E2E2E2E2E2E2E2E2E2E2E2E2E2E2E2E2E2E2E2E2E2E2E2E2E2E2E2E2E2E2E2
310
E2E2E2E2E2E2E2E2E2E2E2E2E2E2E2E2E2E2E2E2E2E2E2E2E2E2E2E2E2E2E2E2E2E2E2E2E2E2E2E2E2E2E2E2E2E2E2E2E2E2E2E2E2E2E2E2E2E2E2E2E2E2E2E2E2E2E2E2E2E2E2E2E2E2E2E2E2E2E2E2E2E2E2E2E2E2E2E2E2E2E2E2E2E2E2E2E2E2E2E2E2E2E2E2E2E2E2E2E2E2E2E2E2E2E2E2E2E2E2E2E2E2E2E2E2E2E2
310
E2E2E2E2E2E2E2E2E2E2E2E2E2E2E2E2E2E2E2E2E2E2E2E2E2E2E2E2E2E2E2E2E2E2E2E2E2E2E2E2E2E2E2E2E2E2E2E2E2E2E2E2E2E2E2E2E2E2E2E2E2E2E2E2E2E2E2E2E2E2E2E2E2E2E2E2E2E2E2E2E2F5F5F5F5F5F5F5F5F5F5F5F5F5F5F5F5F5F5F5E2E2E2E2E2E2E2E2E2E2E2E2E2E2E2E2E2E2E2E2E2E2E2E2E2E2E2
310
E2E2E2E2E2E2E2E2E2E2E2E2E2E2E2E2E2E2E2E2E2E2E2E2E2E2E2E2E2E2E2E2E2E2E2E2E2E2E2E2E2E2E2E2E2E2E2E2E2E2E2E2E2E2E2E2E2E2E2E2E2E2E2E2E2E2E2E2E2E2E2E2E2E2E2E2E2E2E2E2E2E2E2E2E2E2E2E2E2E2E2E2E2E2E2E2E2E2E2E2E2E2E2E2E2E2E2E2E2E2E2E2E2E2E2E2E2E2E2E2E2E2E2E2E2E2E2
310
E2E2E2E2E2E2E2F5F5E2E2E2E2E2F5F5F5F5F5E2F5E2E2E2F5F5E2E2E2E2E2E2E2E2E2E2E2E2E2E2E2E2E2E2E2E2E2E2E2E2E2E2E2E2E2E2E2E2E2E2E2E2E2E2E2E2E2E2E2E2E2E2E2E2E2E2E2E2E2E2E2E2E2E2E2E2E2E2E2E2E2E2E2E2E2E2E2E2E2E2E2E2E2E2E2E2E2E2E2E2E2E2E2E2E2E2E2E2E2E2E2E2E2E2E2E2E2
310
E2E2E2E2E2E2E2E2E2E2E2E2E2E2E2E2E2E2E2E2E2E2E2E2E2E2E2E2E2E2E2E2E2E2E2E2E2E2E2E2E2E2E2E2E2E2E2E2E2E2E2E2E2E2E2E2E2E2E2E2F5F5E2E2E2E2F5F5F5E2F5F5F5E2E2E2E2F5F5E2E2E2E2E2E2E2E2E2E2E2E2E2E2E2E2E2E2E2E2E2E2E2E2E2E2E2E2E2E2E2E2E2E2E2E2E2E2E2E2E2E2E2E2E2E2E2E2
310
E2E2E2E2E2E2E2E2E2E2E2E2E2E2E2E2E2E2E2E2E2E2E2E2E2E2E2E2E2E2E2E2E2E2E2E2E2E2E2E2E2E2E2E2E2E2E2E2E2E2E2E2E2E2E2E2E2E2E2E2E2E2E2E2E2E2E2E2E2E2E2E2E2E2E2E2E2E2E2E2E2E2E2E2E2E2E2E2E2E2E2E2E2E2E2E2E2E2E2E2E2E2E2E2E2E2E2E2E2E2E2E2E2F5F5E2E2E2F5F5E2E2E2F5E2F5E2
310
E2E2E2F5F5E2E2E2E2E2E2E2E2E2E2E2E2E2E2E2E2E2E2E2E2E2E2E2E2E2E2E2E2E2E2E2E2E2E2E2E2E2E2E2E2E2E2E2E2E2E2E2E2E2E2E2E2E2E2E2E2E2E2E2E2E2E2E2E2E2E2E2E2E2E2E2E2E2E2E2E2E2E2E2E2E2E2E2E2E2E2E2E2E2E2E2E2E2E2E2E2E2E2E2E2E2E2E2E2E2E2E2E2E2E2E2E2E2E2E2E2E2E2E2E2E2E2
310
E2E2E2E2E2E2E2E2E2E2E2E2E2E2E2E2E2E2E2E2E2E2E2E2E2E2E2E2E2E2E2E2E2E2E2E2E2E2E2F5F5E2E2E2F5E2E2E2E2E2E2F5F5E2E2E2F5F5E2E2E2E2E2E2E2E2E2E2E2E2E2E2E2E2E2E2E2E2E2E2E2E2E2E2E2E2E2E2E2E2E2E2E2E2E2E2E2E2E2E2E2E2E2E2E2E2E2E2E2E2E2E2E2E2E2E2E2E2E2E2E2E2E2E2E2E2E2
310
E2E2E2E2E2E2E2E2E2E2E2E2E2E2E2E2E2E2E2E2E2E2E2E2E2E2E2E2E2E2E2E2E2E2E2E2E2E2E2E2E2E2E2E2E2E2E2E2E2E2E2E2E2E2E2E2E2E2E2E2E2E2E2E2E2E2E2E2E2E2E2E2E2E2E2E2E2E2E2E2E2E2E2E2E2E2E2E2E2E2E2E2F5F5E2E2F5F5E2E2E2E2E2E2E2F5E2E2E2F5F5E2E2E2E2E2E2E2E2E2E2E2E2E2E2E2E2
310
E2E2E2E2E2E2E2E2E2E2E2E2E2E2E2E2E2E2E2E2E2E2E2E2E2E2E2E2E2E2E2E2E2E2E2E2E2E2E2E2E2E2E2E2E2E2E2E2E2E2E2E2E2E2E2E2E2E2E2E2E2E2E2E2E2E2E2E2E2E2E2E2E2E2E2E2E2E2E2E2E2E2E2E2E2E2E2E2E2E2E2E2E2E2E2E2E2E2E2E2E2E2E2E2E2E2E2E2E2E2E2E2E2E2E2E2E2E2E2E2E2E2E2E2E2E2E2
310
E2E2E2E2E2E2E2E2E2E2E2E2E2E2E2E2E2E2F5F5E2E2F5F5E2E2F5F5E2E2E2F5E2E2E2F5F5E2E2E2E2E2E2E2E2E2E2E2E2E2E2E2E2E2E2E2E2E2E2E2E2E2E2E2E2E2E2E2E2E2E2E2E2E2E2E2E2E2E2E2E2E2E2E2E2E2E2E2E2E2E2E2E2E2E2E2E2E2E2E2E2E2E2E2E2E2E2E2E2E2E2E2E2E2E2E2E2E2E2E2E2E2E2E2E2E2E2
310
E2E2E2E2E2E2E2E2E2E2E2E2E2E2E2E2E2E2E2E2E2E2E2E2E2E2E2E2E2E2E2E2E2E2E2E2E2E2E2E2E2E2E2E2E2E2E2E2E2E2E2E2E2E2E2E2E2E2E2E2E2E2E2E2E2E2E2E2E2E2E2F5F5E2E2E2F5E2E2F5F5F5E2F5F5E2E2E2F5F5E2E2E2E2E2E2E2E2E2E2E2E2E2E2E2E2E2E2E2E2E2E2E2E2E2E2E2E2E2E2E2E2E2E2E2E2E2
310
E2E2E2E2E2E2E2E2E2E2E2E2E2E2E2E2E2E2E2E2E2E2E2E2E2E2E2E2E2E2E2E2E2E2E2E2E2E2E2E2E2E2E2E2E2E2E2E2E2E2E2E2E2E2E2E2E2E2E2E2E2E2E2E2E2E2E2E2E2E2E2E2E2E2E2E2E2E2E2E2E2E2E2E2E2E2E2E2E2E2E2E2E2E2E2E2E2E2E2E2E2E2E2E2E2E2E2E2E2E2E2E2E2E2E2E2E2E2E2E2E2E2E2E2F5F5E2
310
E2E2F5F5E2E2F5F5F5F5F5E2E2E2F5F5E2E2E2E2E2E2E2E2E2E2E2E2E2E2E2E2E2E2E2E2E2E2E2E2E2E2E2E2E2E2E2E2E2E2E2E2E2E2E2E2E2E2E2E2E2E2E2E2E2E2E2E2E2E2E2E2E2E2E2E2E2E2E2E2E2E2E2E2E2E2E2E2E2E2E2E2E2E2E2E2E2E2E2E2E2E2E2E2E2E2E2E2E2E2E2E2E2E2E2E2E2E2E2E2E2E2E2E2E2E2E2
310
E2E2E2E2E2E2E2E2E2E2E2E2E2E2E2E2E2E2E2E2E2E2E2E2E2E2E2E2E2E2E2E2E2E2E2E2E2E2E2E2E2E2E2E2E2E2E2E2E2E2F5F5E2E2E2E2F5F5F5E2F5F5F5E2E2E2E2F5F5E2E2E2E2E2E2E2E2E2E2E2E2E2E2E2E2E2E2E2E2E2E2E2E2E2E2E2E2E2E2E2E2E2E2E2E2E2E2E2E2E2E2E2E2E2E2E2E2E2E2E2E2E2E2E2E2E2E2
310
E2E2E2E2E2E2E2E2E2E2E2E2E2E2E2E2E2E2E2E2E2E2E2E2E2E2E2E2E2E2E2E2E2E2E2E2E2E2E2E2E2E2E2E2E2E2E2E2E2E2E2E2E2E2E2E2E2E2E2E2E2E2E2E2E2E2E2E2E2E2E2E2E2E2E2E2E2E2E2E2E2E2E2E2E2E2E2E2E2E2E2E2E2E2E2E2E2E2E2E2E2E2E2F5F5F5F5F5F5E2F5F5F5F5E2E2E2E2E2E2F5F5E2E2E2E2E2
310
E2E2E2E2E2E2E2E2E2E2E2E2E2E2E2E2E2E2E2E2E2E2E2E2E2E2E2E2E2E2E2E2E2E2E2E2E2E2E2E2E2E2E2E2E2E2E2E2E2E2E2E2E2E2E2E2E2E2E2E2E2E2E2E2E2E2E2E2E2E2E2E2E2E2E2E2E2E2E2E2E2E2E2E2E2E2E2E2E2E2E2E2E2E2E2E2E2E2E2E2E2E2E2E2E2E2E2E2E2E2E2E2E2E2E2E2E2E2E2E2E2E2E2E2E2E2E2
310
E2E2E2E2E2E2E2E2E2E2E2E2E2E2E2E2E2E2E2E2E2E2E2E2E2E2E2E2E2F5F5F5F5F5F5F5F5F5F5F5F5F5F5F5F5F5F5F5E2E2E2E2E2E2E2E2E2E2E2E2E2E2E2E2E2E2E2E2E2E2E2E2E2E2E2E2E2E2E2E2E2E2E2E2E2E2E2E2E2E2E2E2E2E2E2E2E2E2E2E2E2E2E2E2E2E2E2E2E2E2E2E2E2E2E2E2E2E2E2E2E2E2E2E2E2E2E2
310
E2E2E2E2E2E2E2E2E2E2E2E2E2E2E2E2E2E2E2E2E2E2E2E2E2E2E2E2E2E2E2E2E2E2E2E2E2E2E2E2E2E2E2E2E2E2E2E2E2E2E2E2E2E2E2E2E2E2E2E2E2E2E2E2E2E2E2E2E2E2E2E2E2E2E2E2E2E2E2E2E2E2E2E2E2E2E2E2E2E2E2E2E2E2E2E2E2E2E2E2E2E2E2E2E2E2E2E2E2E2E2E2E2E2E2E2E2E2E2E2E2E2E2E2E2E2E2
310
E2E2E2E2E2E2E2E2E2E2E2E2E2E2E2E2E2E2E2E2E2E2E2E2E2E2E2E2E2E2E2E2E2E2E2E2E2E2E2E2E2E2E2E2E2E2E2E2E2E2E2E2E2E2E2E2E2E2E2E2E2E2E2E2E2E2E2E2E2E2E2E2E2E2E2E2E2E2E2E2E2E2E2E2E2E2E2E2E2E2E2E2E2E2E2E2E2E2E2E2E2E2E2E2E2E2E2E2E2E2E2E2E2E2E2E2E2E2E2E2E2E2E2E2E2E2E2
310
E2E2E2E2E2E2E2E2E2E2E2E2E2E2E2E2E2E2E2E2E2E2E2E2E2E2E2E2E2E2E2E2E2E2E2E2E2E2E2E2E2E2E2E2E2E2E2E2E2E2E2E2E2E2E2E2E2E2E2E2E2E2E2E2E2E2E2E2E2E2E2E2E2E2E2E2E2E2E2E2E2E2E2E2E2E2E2E2E2E2E2E2E2E2E2E2E2E2E2E2E2E2E2E2E2E2E2E2E2E2E2E2E2E2E2E2E2E2E2E2E2E2E2E2E2E2E2
310
E2E2E2E2E2E2E2E2E2E2E2E2E2E2E2E2E2E2E2E2E2E2E2E2E2E2E2E2E2E2E2E2E2E2E2E2E2E2E2E2E2E2E2E2E2E2E2E2E2E2E2E2E2E2E2E2E2E2E2E2E2E2E2E2E2E2E2E2E2E2E2E2E2E2E2E2E2E2E2E2E2E2E2E2E2E2E2E2E2E2E2E2E2E2E2E2E2E2E2E2E2E2E2E2E2E2E2E2E2E2E2E2E2E2E2E2E2E2E2E2E2E2E2E2E2E2E2
310
E2E2E2E2E2E2E2E2E2E2E2E2E2E2E2E2E2E2E2E2E2E2E2E2E2E2E2E2E2E2E2E2E2E2E2E2E2E2E2E2E2E2E2E2E2E2E2E2E2E2E2E2E2E2E2E2E2E2E2E2E2E2E2E2E2E2E2E2E2E2E2E2E2E2E2E2E2E2E2E2E2E2E2E2E2E2E2E2E2E2E2E2E2E2E2E2E2E2E2E2E2E2E2E2E2E2E2E2E2E2E2E2E2E2E2E2E2E2E2E2E2E2E2E2E2E2E2
310
E2E2E2E2E2E2E2E2E2E2E2E2E2E2E2E2E2E2E2E2E2E2E2E2E2E2E2E2E2E2E2E2E2E2E2E2E2E2E2E2E2E2E2E2E2E2E2E2E2E2E2E2E2E2E2E2E2E2E2E2E2E2E2E2E2E2E2E2E2E2E2E2E2E2E2E2E2E2E2E2E2E2E2E2E2E2E2E2E2E2E2E2E2E2E2E2E2E2E2E2E2E2E2E2E2E2E2E2E2E2E2E2E2E2E2E2E2E2E2E2E2E2E2E2E2E2E2
310
E2E2E2E2E2E2E2E2E2E2E2E2E2E2E2E2E2E2E2E2E2E2E2E2E2E2E2E2E2E2E2E2E2E2E2E2E2E2E2E2E2E2E2E2E2E2E2E2E2E2E2E2E2E2E2E2E2E2E2E2E2E2E2E2E2E2E2E2E2E2E2E2E2E2E2E2E2E2E2E2E2E2E2E2E2E2E2E2E2E2E2E2E2E2E2E2E2E2E2E2E2E2E2E2E2E2E2E2E2E2E2E2E2E2E2E2E2E2E2E2E2E2E2E2E2E2E2
310
E2E2E2E2E2E2E2E2E2E2E2E2E2E2E2E2E2E2E2E2E2E2E2E2E2E2E2E2E2E2E2E2E2E2E2E2E2E2E2E2E2E2E2E2E2E2E2E2E2E2E2E2E2E2E2E2E2E2E2E2E2E2E2E2E2E2E2E2E2E2E2E2E2E2E2E2E2E2E2E2E2E2E2E2E2E2E2E2E2E2E2E2E2E2E2E2E2E2E2E2E2E2E2E2E2E2E2E2E2E2E2E2E2E2E2E2E2E2E2E2E2E2E2E2E2E2E2
310
E2E2E2E2E2E2E2E2E2E2E2E2E2E2E2E2E2E2E2E2E2E2E2E2E2E2E2E2E2E2E2E2E2E2E2E2E2E2E2E2E2E2E2E2E2E2E2E2E2E2E2E2E2E2E2E2E2E2E2E2E2E2E2E2E2E2E2E2E2E2E2E2E2E2E2E2E2E2E2E2E2E2E2E2E2E2E2E2E2E2E2E2E2E2E2E2E2E2E2E2E2E2E2E2E2E2E2E2E2E2E2E2E2E2E2E2E2E2E2E2E2E2E2E2E2E2E2
310
E2E2E2E2E2E2E2E2E2E2E2E2E2E2E2E2E2E2E2E2E2E2E2E2E2E2E2E2E2E2E2E2E2E2E2E2E2E2E2E2E2E2E2E2E2E2E2E2E2E2E2E2E2E2E2E2E2E2E2E2E2E2E2E2E2E2E2E2E2E2E2E2E2E2E2E2E2E2E2E2E2E2E2E2E2E2E2E2E2E2E2E2E2E2E2E2E2E2E2E2E2E2E2E2E2E2E2E2E2E2E2E2E2E2E2E2E2E2E2E2E2E2E2E2E2E2E2
310
E2E2E2E2E2E2E2E2E2E2E2E2E2E2E2E2E2E2E2E2E2E2E2E2E2E2E2E2E2E2E2E2E2E2E2E2E2E2E2E2E2E2E2E2E2E2E2E2E2E2E2E2E2E2E2E2E2E2E2E2E2E2E2E2E2E2E2E2E2E2E2E2E2E2E2E2E2E2E2E2E2E2E2E2E2E2E2E2E2E2E2E2E2E2E2E2E2E2E2E2E2E2E2E2E2E2E2E2E2E2E2E2E2E2E2E2E2E2E2E2E2E2E2E2E2E2E2
310
E2E2E2E2E2E2E2E2E2E2E2E2E2E2E2E2E2E2E2E2E2E2E2E2E2E2E2E2E2E2E2E2E2E2E2E2E2E2E2E2E2E2E2E2E2E2E2E2E2E2E2E2E2E2E2E2E2E2E2E2E2E2E2E2E2E2E2E2E2E2E2E2E2E2E2E2E2E2E2E2E2E2E2E2E2E2E2E2E2E2E2E2E2E2E2E2E2E2E2E2E2E2E2E2E2E2E2E2E2E2E2E2E2E2E2E2E2E2E2E2E2E2E2E2E2E2E2
310
E2E2E2E2E2E2E2E2E2E2E2E2E2E2E2E2E2E2E2E2E2E2E2E2E2E2E2E2E2E2E2E2E2E2E2E2E2E2E2E2E2E2E2E2E2E2E2E2E2E2E2E2E2E2E2E2E2E2E2E2E2E2E2E2E2E2E2E2E2E2E2E2E2E2E2E2E2E2E2E2E2E2E2E2E2E2E2E2E2E2E2E2E2E2E2E2E2E2E2E2E2E2E2E2E2E2E2E2E2E2E2E2E2E2E2E2E2E2E2E2E2E2E2E2E2E2E2
310
E2E2E2E2E2E2E2E2E2E2E2E2E2E2E2E2E2E2E2E2E2E2E2E2E2E2E2E2E2E2E2E2E2E2E2E2E2E2E2E2E2E2E2E2E2E2E2E2E2E2E2E2E2E2E2E2E2E2E2E2E2E2E2E2E2E2E2E2E2E2E2E2E2E2E2E2E2E2E2E2E2E2E2E2E2E2E2E2E2E2E2E2E2E2E2E2E2E2E2E2E2E2E2E2E2E2E2E2E2E2E2E2E2E2E2E2E2E2E2E2E2E2E2E2E2E2E2
310
E2E2E2E2E2E2E2E2E2E2E2E2E2E2E2E2E2E2E2E2E2E2E2E2E2E2E2E2E2E2E2E2E2E2E2E2E2E2E2E2E2E2E2E2E2E2E2E2E2E2E2E2E2E2E2E2E2E2E2E2E2E2E2E2E2E2E2E2E2E2E2E2E2E2E2E2E2E2E2E2E2E2E2E2E2E2E2E2E2E2E2E2E2E2E2E2E2E2E2E2E2E2E2E2E2E2E2E2E2E2E2E2E2E2E2E2E2E2E2E2E2E2E2E2E2E2E2
310
E2E2E2E2E2E2E2E2E2E2E2E2E2E2E2E2E2E2E2E2E2E2E2E2E2E2E2E2E2E2E2E2E2E2E2E2E2E2E2E2E2E2E2E2E2E2E2E2E2E2E2E2E2E2E2E2E2E2E2E2E2E2E2E2E2E2E2E2E2E2E2E2E2E2E2E2E2E2E2E2E2E2E2E2E2E2E2E2E2E2E2E2E2E2E2E2E2E2E2E2E2E2E2E2E2E2E2E2E2E2E2E2E2E2E2E2E2E2E2E2E2E2E2E2E2E2E2
310
E2E2E2E2E2E2E2E2E2E2E2E2E2E2E2E2E2E2E2E2E2E2E2E2E2E2E2E2E2E2E2E2E2E2E2E2E2E2E2E2E2E2E2E2E2E2E2E2E2E2E2E2E2E2E2E2E2E2E2E2E2E2E2E2E2E2E2E2E2E2E2E2E2E2E2E2E2E2E2E2E2E2E2E2E2E2E2E2E2E2E2E2E2E2E2E2E2E2E2E2E2E2E2E2E2E2E2E2E2E2E2E2E2E2E2E2E2E2E2E2E2E2E2E2E2E2E2
310
E2E2E2E2E2E2E2E2E2E2E2E2E2E2E2E2E2E2E2E2E2E2E2E2E2E2E2E2E2E2E2E2E2E2E2E2E2E2E2E2E2E2E2E2E2E2E2E2E2E2E2E2E2E2E2E2E2E2E2E2E2E2E2E2E2E2E2E2E2E2E2E2E2E2E2E2E2E2E2E2E2E2E2E2E2E2E2E2E2E2E2E2E2E2E2E2E2E2E2E2E2E2E2E2E2E2E2E2E2E2E2E2E2E2E2E2E2E2E2E2E2E2E2E2E2E2E2
310
E2E2E2E2E2E2E2E2E2E2E2E2E2E2E2E2E2E2E2E2E2E2E2E2E2E2E2E2E2E2E2E2E2E2E2E2E2E2E2E2E2E2E2E2E2E2E2E2E2E2E2E2E2E2E2E2E2E2E2E2E2E2E2E2E2E2E2E2E2E2E2E2E2E2E2E2E2E2E2E2E2E2E2E2E2E2E2E2E2E2E2E2E2E2E2E2E2E2E2E2E2E2E2E2E2E2E2E2E2E2E2E2E2E2E2E2E2E2E2E2E2E2E2E2E2E2E2
310
E2E2E2E2E2E2E2E2E2E2E2E2E2E2E2E2E2E2E2E2E2E2E2E2E2E2E2E2E2E2E2E2E2E2E2E2E2E2E2E2E2E2E2E2E2E2E2E2E2E2E2E2E2E2E2E2E2E2E2E2E2E2E2E2E2E2E2E2E2E2E2E2E2E2E2E2E2E2E2E2E2E2E2E2E2E2E2E2E2E2E2E2E2E2E2E2E2E2E2E2E2E2E2E2E2E2E2E2E2E2E2E2E2E2E2E2E2E2E2E2E2E2E2E2E2E2E2
310
E2E2E2E2E2E2E2E2E2E2E2E2E2E2E2E2E2E2E2E2E2E2E2E2E2E2E2E2E2E2E2E2E2E2E2E2E2E2E2E2E2E2E2E2E2E2E2E2E2E2E2E2E2E2E2E2E2E2E2E2E2E2E2E2E2E2E2E2E2E2E2E2E2E2E2E2E2E2E2E2E2E2E2E2E2E2E2E2E2E2E2E2E2E2E2E2E2E2E2E2E2E2E2E2E2E2E2E2E2E2E2E2E2E2E2E2E2E2E2E2E2E2E2E2E2E2E2
310
E2E2E2E2E2E2E2E2E2E2E2E2E2E2E2E2E2E2E2E2E2E2E2E2E2E2E2E2E2E2E2E2E2E2E2E2E2E2E2E2E2E2E2E2E2E2E2E2E2E2E2E2E2E2E2E2E2E2E2E2E2E2E2E2E2E2E2E2E2E2E2E2E2E2E2E2E2E2E2E2E2E2E2E2E2E2E2E2E2E2E2E2E2E2E2E2E2E2E2E2E2E2E2E2E2E2E2E2E2E2E2E2E2E2E2E2E2E2E2E2E2E2E2E2E2E2E2
310
E2E2E2E2E2E2E2E2E2E2E2E2E2E2E2E2E2E2E2E2E2E2E2E2E2E2E2E2E2E2E2E2E2E2E2E2E2E2E2E2E2E2E2E2E2E2E2E2E2E2E2E2E2E2E2E2E2E2E2E2E2E2E2E2E2E2E2E2E2E2E2E2E2E2E2E2E2E2E2E2E2E2E2E2E2E2E2E2E2E2E2E2E2E2E2E2E2E2E2E2E2E2E2E2E2E2E2E2E2E2E2E2E2E2E2E2E2E2E2E2E2E2E2E2E2E2E2
310
E2E2E2E2E2E2E2E2E2E2E2E2E2E2E2E2E2E2E2E2E2E2E2E2E2E2E2E2E2E2E2E2E2E2E2E2E2E2E2E2E2E2E2E2E2E2E2E2E2E2E2E2E2E2E2E2E2E2E2E2E2E2E2E2E2E2E2E2E2E2E2E2E2E2E2E2E2E2E2E2E2E2E2E2E2E2E2E2E2E2E2E2E2E2E2E2E2E2E2E2E2E2E2E2E2E2E2E2E2E2E2E2E2E2E2E2E2E2E2E2E2E2E2E2E2E2E2
310
E2E2E2E2E2E2E2E2E2E2E2E2E2E2E2E2E2E2E2E2E2E2E2E2E2E2E2E2E2E2E2E2E2E2E2E2E2E2E2E2E2E2E2E2E2E2E2E2E2E2E2E2E2E2E2E2E2E2E2E2E2E2E2E2E2E2E2E2E2E2E2E2E2E2E2E2E2E2E2E2E2E2E2E2E2E2E2E2E2E2E2E2E2E2E2E2E2E2E2E2E2E2E2E2E2E2E2E2E2E2E2E2E2E2E2E2E2E2E2E2E2E2E2E2E2E2E2
310
E2E2E2E2E2E2E2E2E2E2E2E2E2E2E2E2E2E2E2E2E2E2E2E2E2E2E2E2E2E2E2E2E2E2E2E2E2E2E2E2E2E2E2E2E2E2E2E2E2E2E2E2E2E2E2E2E2E2E2E2E2E2E2E2E2E2E2E2E2E2E2E2E2E2E2E2E2E2E2E2E2E2E2E2E2E2E2E2E2E2E2E2E2E2E2E2E2E2E2E2E2E2E2E2E2E2E2E2E2E2E2E2E2E2E2E2E2E2E2E2E2E2E2E2E2E2E2
310
E2E2E2E2E2E2E2E2E2E2E2E2E2E2E2E2E2E2E2E2E2E2E2E2E2E2E2E2E2E2E2E2E2E2E2E2E2E2E2E2E2E2E2E2E2E2E2E2E2E2E2E2E2E2E2E2E2E2E2E2E2E2E2E2E2E2E2E2E2E2E2E2E2E2E2E2E2E2E2E2E2E2E2E2E2E2E2E2E2E2E2E2E2E2E2E2E2E2E2E2E2E2E2E2E2E2E2E2E2E2E2E2E2E2E2E2E2E2E2E2E2E2E2E2E2E2E2
310
E2E2E2E2E2E2E2E2E2E2E2E2E2E2E2E2E2E2E2E2E2E2E2E2E2E2E2E2E2E2E2E2E2E2E2E2E2E2E2E2E2E2E2E2E2E2E2E2E2E2E2E2E2E2E2E2E2E2E2E2E2E2E2E2E2E2E2E2E2E2E2E2E2E2E2E2E2E2E2E2E2E2E2E2E2E2E2E2E2E2E2E2E2E2E2E2E2E2E2E2E2E2E2E2E2E2E2E2E2E2E2E2E2E2E2E2E2E2E2E2E2E2E2E2E2E2E2
310
E2E2E2E2E2E2E2E2E2E2E2E2E2E2E2E2E2E2E2E2E2E2E2E2E2E2E2E2E2E2E2E2E2E2E2E2E2E2E2E2E2E2E2E2E2E2E2E2E2E2E2E2E2E2E2E2E2E2E2E2E2E2E2E2E2E2E2E2E2E2E2E2E2E2E2E2E2E2E2E2E2E2E2E2E2E2E2E2E2E2E2E2E2E2E2E2E2E2E2E2E2E2E2E2E2E2E2E2E2E2E2E2E2E2E2E2E2E2E2E2E2E2E2E2E2E2E2
310
E2E2E2E2E2E2E2E2E2E2E2E2E2E2E2E2E2E2E2E2E2E2E2E2E2E2E2E2E2E2E2E2E2E2E2E2E2E2E2E2E2E2E2E2E2E2E2E2E2E2E2E2E2E2E2E2E2E2E2E2E2E2E2E2E2E2E2E2E2E2E2E2E2E2E2E2E2E2E2E2E2E2E2E2E2E2E2E2E2E2E2E2E2E2E2E2E2E2E2E2E2E2E2E2E2E2E2E2E2E2E2E2E2E2E2E2E2E2E2E2E2E2E2E2E2E2E2
310
E2E2E2E2E2E2E2E2E2E2E2E2E2E2E2E2E2E2E2E2E2E2E2E2E2E2E2E2E2E2E2E2E2E2E2E2E2E2E2E2E2E2E2E2E2E2E2E2E2E2E2E2E2E2E2E2E2E2E2E2E2E2E2E2E2E2E2E2E2E2E2E2E2E2E2E2E2E2E2E2E2E2E2E2E2E2E2E2E2E2E2E2E2E2E2E2E2E2E2E2E2E2E2E2E2E2E2E2E2E2E2E2E2E2E2E2E2E2E2E2E2E2E2E2E2E2E2
310
E2E2E2E2E2E2E2E2E2E2E2E2E2E2E2E2E2E2E2E2E2E2E2E2E2E2E2E2E2E2E2E2E2E2E2E2E2E2E2E2E2E2E2E2E2E2E2E2E2E2E2E2E2E2E2E2E2E2E2E2E2E2E2E2E2E2E2E2E2E2E2E2E2E2E2E2E2E2E2E2E2E2E2E2E2E2E2E2E2E2E2E2E2E2E2E2E2E2E2E2E2E2E2E2E2E2E2E2E2E2E2E2E2E2E2E2E2E2E2E2E2E2E2E2E2E2E2
310
E2E2E2E2E2E2E2E2E2E2E2E2E2E2E2E2E2E2E2E2E2E2E2E2E2E2E2E2E2E2E2E2E2E2E2E2E2E2E2E2E2E2E2E2E2E2E2E2E2E2E2E2E2E2E2E2E2E2E2E2E2E2E2E2E2E2E2E2E2E2E2E2E2E2E2E2E2E2E2E2E2E2E2E2E2E2E2E2E2E2E2E2E2E2E2E2E2E2E2E2E2E2E2E2E2E2E2E2E2E2E2E2E2E2E2E2E2E2E2E2E2E2E2E2E2E2E2
310
E2E2E2E2E2E2E2E2E2E2E2E2E2E2E2E2E2E2E2E2E2E2E2E2E2E2E2E2E2E2E2E2E2E2E2E2E2E2E2E2E2E2E2E2E2E2E2E2E2E2E2E2E2E2E2E2E2E2E2E2E2E2E2E2E2E2E2E2E2E2E2E2E2E2E2E2E2E2E2E2E2E2E2E2E2E2E2E2E2E2E2E2E2E2E2E2E2E2E2E2E2E2E2E2E2E2E2E2E2E2E2E2E2E2E2E2E2E2E2E2E2E2E2E2E2E2E2
310
E2E2E2E2E2E2E2E2E2E2E2E2E2E2E2E2E2E2E2E2E2E2E2E2E2E2E2E2E2E2E2E2E2E2E2E2E2E2E2E2E2E2E2E2E2E2E2E2E2E2E2E2E2E2E2E2E2E2E2E2E2E2E2E2E2E2E2E2E2E2E2E2E2E2E2E2E2E2E2E2E2E2E2E2E2E2E2E2E2E2E2E2E2E2E2E2E2E2E2E2E2E2E2E2E2E2E2E2E2E2E2E2E2E2E2E2E2E2E2E2E2E2E2E2E2E2E2
310
E2E2E2E2E2E2E2E2E2E2E2E2E2E2E2E2E2E2E2E2E2E2E2E2E2E2E2E2E2E2E2E2E2E2E2E2E2E2E2E2E2E2E2E2E2E2E2E2E2E2E2E2E2E2E2E2E2E2E2E2E2E2E2E2E2E2E2E2E2E2E2E2E2E2E2E2E2E2E2E2E2E2E2E2E2E2E2E2E2E2E2E2E2E2E2E2E2E2E2E2E2E2E2E2E2E2E2E2E2E2E2E2E2E2E2E2E2E2E2E2E2E2E2E2E2E2E2
310
E2E2E2E2E2E2E2E2E2E2E2E2E2E2E2E2E2E2E2E2E2E2E2E2E2E2E2E2E2E2E2E2E2E2E2E2E2E2E2E2E2E2E2E2E2E2E2E2E2E2E2E2E2E2E2E2E2E2E2E2E2E2E2E2E2E2E2E2E2E2E2E2E2E2E2E2E2E2E2E2E2E2E2E2E2E2E2E2E2E2E2E2E2E2E2E2E2E2E2E2E2E2E2E2E2E2E2E2E2E2E2E2E2E2E2E2E2E2E2E2E2E2E2E2E2E2E2
310
E2E2E2E2E2E2E2E2E2E2E2E2E2E2E2E2E2E2E2E2E2E2E2E2E2E2E2E2E2E2E2E2E2E2E2E2E2E2E2E2E2E2E2E2E2E2E2E2E2E2E2E2E2E2E2E2E2E2E2E2E2E2E2E2E2E2E2E2E2E2E2E2E2E2E2E2E2E2E2E2E2E2E2E2E2E2E2E2E2E2E2E2E2E2E2E2E2E2E2E2E2E2E2E2E2E2E2E2E2E2E2E2E2E2E2E2E2E2E2E2E2E2E2E2E2E2E2
310
E2E2E2E2E2E2E2E2E2E2E2E2E2E2E2E2E2E2E2E2E2E2E2E2E2E2E2E2E2E2E2E2E2E2E2E2E2E2E2E2E2E2E2E2E2E2E2E2E2E2E2E2E2E2E2E2E2E2E2E2E2E2E2E2E2E2E2E2E2E2E2E2E2E2E2E2E2E2E2E2E2E2E2E2E2E2E2E2E2E2E2E2E2E2E2E2E2E2E2E2E2E2E2E2E2E2E2E2E2E2E2E2E2E2E2E2E2E2E2E2E2E2E2E2E2E2E2
310
E2E2E2E2E2E2E2E2E2E2E2E2E2E2E2E2E2E2E2E2E2E2E2E2E2E2E2E2E2E2E2E2E2E2E2E2E2E2E2E2E2E2E2E2E2E2E2E2E2E2E2E2E2E2E2E2E2E2E2E2E2E2E2E2E2E2E2E2E2E2E2E2E2E2E2E2E2E2E2E2E2E2E2E2E2E2E2E2E2E2E2E2E2E2E2E2E2E2E2E2E2E2E2E2E2E2E2E2E2E2E2E2E2E2E2E2E2E2E2E2E2E2E2E2E2E2E2
310
E2E2E2E2E2E2E2E2E2E2E2E2E2E2E2E2E2E2E2E2E2E2E2E2E2E2E2E2E2E2E2E2E2E2E2E2E2E2E2E2E2E2E2E2E2E2E2E2E2E2E2E2E2E2E2E2E2E2E2E2E2E2E2E2E2E2E2E2E2E2E2E2E2E2E2E2E2E2E2E2E2E2E2E2E2E2E2E2E2E2E2E2E2E2E2E2E2E2E2E2E2E2E2E2E2E2E2E2E2E2E2E2E2E2E2E2E2E2E2E2E2E2E2E2E2E2E2
310
E2E2E2E2E2E2E2E2E2E2E2E2E2E2E2E2E2E2E2E2E2E2E2E2E2E2E2E2E2E2E2E2E2E2E2E2E2E2E2E2E2E2E2E2E2E2E2E2E2E2E2E2E2E2E2E2E2E2E2E2E2E2E2E2E2E2E2E2E2E2E2E2E2E2E2E2E2E2E2E2E2E2E2E2E2E2E2E2E2E2E2E2E2E2E2E2E2E2E2E2E2E2E2E2E2E2E2E2E2E2E2E2E2E2E2E2E2E2E2E2E2E2E2E2E2E2E2
310
E2E2E2E2E2E2E2E2E2E2E2E2E2E2E2E2E2E2E2E2E2E2E2E2E2E2E2E2E2E2E2E2E2E2E2E2E2E2E2E2E2E2E2E2E2E2E2E2E2E2E2E2E2E2E2E2E2E2E2E2E2E2E2E2E2E2E2E2E2E2E2E2E2E2E2E2E2E2E2E2E2E2E2E2E2E2E2E2E2E2E2E2E2E2E2E2E2E2E2E2E2E2E2E2E2E2E2E2E2E2E2E2E2E2E2E2E2E2E2E2E2E2E2E2E2E2E2
310
E2E2E2E2E2E2E2E2E2E2E2E2E2E2E2E2E2E2E2E2E2E2E2E2E2E2E2E2E2E2E2E2E2E2E2E2E2E2E2E2E2E2E2E2E2E2E2E2E2E2E2E2E2E2E2E2E2E2E2E2E2E2E2E2E2E2E2E2E2E2E2E2E2E2E2E2E2E2E2E2E2E2E2E2E2E2E2E2E2E2E2E2E2E2E2E2E2E2E2E2E2E2E2E2E2E2E2E2E2E2E2E2E2E2E2E2E2E2E2E2E2E2E2E2E2E2E2
310
E2E2E2E2E2E2E2E2E2E2E2E2E2E2E2E2E2E2E2E2E2E2E2E2E2E2E2E2E2E2E2E2E2E2E2E2E2E2E2E2E2E2E2E2E2E2E2E2E2E2E2E2E2E2E2E2E2E2E2E2E2E2E2E2E2E2E2E2E2E2E2E2E2E2E2E2E2E2E2E2E2E2E2E2E2E2E2E2E2E2E2E2E2E2E2E2E2E2E2E2E2E2E2E2E2E2E2E2E2E2E2E2E2E2E2E2E2E2E2E2E2E2E2E2E2E2E2
310
E2E2E2E2E2E2E2E2E2E2E2E2E2E2E2E2E2E2E2E2E2E2E2E2E2E2E2E2E2E2E2E2E2E2E2E2E2E2E2E2E2E2E2E2E2E2E2E2E2E2E2E2E2E2E2E2E2E2E2E2E2E2E2E2E2E2E2E2E2E2E2E2E2E2E2E2E2E2E2E2E2E2E2E2E2E2E2E2E2E2E2E2E2E2E2E2E2E2E2E2E2E2E2E2E2E2E2E2E2E2E2E2E2E2E2E2E2E2E2E2E2E2E2E2E2E2E2
310
E2E2E2E2E2E2E2E2E2E2E2E2E2E2E2E2E2E2E2E2E2E2E2E2E2E2E2E2E2E2E2E2E2E2E2E2E2E2E2E2E2E2E2E2E2E2E2E2E2E2E2E2E2E2E2E2E2E2E2E2E2E2E2E2E2E2E2E2E2E2E2E2E2E2E2E2E2E2E2E2E2E2E2E2E2E2E2E2E2E2E2E2E2E2E2E2E2E2E2E2E2E2E2E2E2E2E2E2E2E2E2E2E2E2E2E2E2E2E2E2E2E2E2E2E2E2E2
310
E2E2E2E2E2E2E2E2E2E2E2E2E2E2E2E2E2E2E2E2E2E2E2E2E2E2E2E2E2E2E2E2E2E2E2E2E2E2E2E2E2E2E2E2E2E2E2E2E2E2E2E2E2E2E2E2E2E2E2E2E2E2E2E2E2E2E2E2E2E2E2E2E2E2E2E2E2E2E2E2E2E2E2E2E2E2E2E2E2E2E2E2E2E2E2E2E2E2E2E2E2E2E2E2E2E2E2E2E2E2E2E2E2E2E2E2E2E2E2E2E2E2E2E2E2E2E2
310
E2E2E2E2E2E2E2E2E2E2E2E2E2E2E2E2E2E2E2E2E2E2E2E2E2E2E2E2E2E2E2E2E2E2E2E2E2E2E2E2E2E2E2E2E2E2E2E2E2E2E2E2E2E2E2E2E2E2E2E2E2E2E2E2E2E2E2E2E2E2E2E2E2E2E2E2E2E2E2E2E2E2E2E2E2E2E2E2E2E2E2E2E2E2E2E2E2E2E2E2E2E2E2E2E2E2E2E2E2E2E2E2E2E2E2E2E2E2E2E2E2E2E2E2E2E2E2
310
E2E2E2E2E2E2E2E2E2E2E2E2E2E2E2E2E2E2E2E2E2E2E2E2E2E2E2E2E2E2E2E2E2E2E2E2E2E2E2E2E2E2E2E2E2E2E2E2E2E2E2E2E2E2E2E2E2E2E2E2E2E2E2E2E2E2E2E2E2E2E2E2E2E2E2E2E2E2E2E2E2E2E2E2E2E2E2E2E2E2E2E2E2E2E2E2E2E2E2E2E2E2E2E2E2E2E2E2E2E2E2E2E2E2E2E2E2E2E2E2E2E2E2E2E2E2E2
310
E2E2E2E2E2E2E2E2E2E2E2E2E2E2E2E2E2E2E2E2E2E2E2E2E2E2E2E2E2E2E2E2E2E2E2E2E2E2E2E2E2E2E2E2E2E2E2E2E2E2E2E2E2E2E2E2E2E2E2E2E2E2E2E2E2E2E2E2E2E2E2E2E2E2E2E2E2E2E2E2E2E2E2E2E2E2E2E2E2E2E2E2E2E2E2E2E2E2E2E2E2E2E2E2E2E2E2E2E2E2E2E2E2E2E2E2E2E2E2E2E2E2E2E2E2E2E2
310
E2E2E2E2E2E2E2E2E2E2E2E2E2E2E2E2E2E2E2E2E2E2E2E2E2E2E2E2E2E2E2E2E2E2E2E2E2E2E2E2E2E2E2E2E2E2E2E2E2E2E2E2E2E2E2E2E2E2E2E2E2E2E2E2E2E2E2E2E2E2E2E2E2E2E2E2E2E2E2E2E2E2E2E2E2E2E2E2E2E2E2E2E2E2E2E2E2E2E2E2E2E2E2E2E2E2E2E2E2E2E2E2E2E2E2E2E2E2E2E2E2E2E2E2E2E2E2
310
E2E2E2E2E2E2E2E2E2E2E2E2E2E2E2E2E2E2E2E2E2E2E2E2E2E2E2E2E2E2E2E2E2E2E2E2E2E2E2E2E2E2E2E2E2E2E2E2E2E2E2E2E2E2E2E2E2E2E2E2E2E2E2E2E2E2E2E2E2E2E2E2E2E2E2E2E2E2E2E2E2E2E2E2E2E2E2E2E2E2E2E2E2E2E2E2E2E2E2E2E2E2E2E2E2E2E2E2E2E2E2E2E2E2E2E2E2E2E2E2E2E2E2E2E2E2E2
310
E2E2E2E2E2E2E2E2E2E2E2E2E2E2E2E2E2E2E2E2E2E2E2E2E2E2E2E2E2E2E2E2E2E2E2E2E2E2E2E2E2E2E2E2E2E2E2E2E2E2E2E2E2E2E2E2E2E2E2E2E2E2E2E2E2E2E2E2E2E2E2E2E2E2E2E2E2E2E2E2E2E2E2E2E2E2E2E2E2E2E2E2E2E2E2E2E2E2E2E2E2E2E2E2E2E2E2E2E2E2E2E2E2E2E2E2E2E2E2E2E2E2E2E2E2E2E2
310
E2E2E2E2E2E2E2E2E2E2E2E2E2E2E2E2E2E2E2E2E2E2E2E2E2E2E2E2E2E2E2E2E2E2E2E2E2E2E2E2E2E2E2E2E2E2E2E2E2E2E2E2E2E2E2E2E2E2E2E2E2E2E2E2E2E2E2E2E2E2E2E2E2E2E2E2E2E2E2E2E2E2E2E2E2E2E2E2E2E2E2E2E2E2E2E2E2E2E2E2E2E2E2E2E2E2E2E2E2E2E2E2E2E2E2E2E2E2E2E2E2E2E2E2E2E2E2
310
E2E2E2E2E2E2E2E2E2E2E2E2E2E2E2E2E2E2E2E2E2E2E2E2E2E2E2E2E2E2E2E2E2E2E2E2E2E2E2E2E2E2E2E2E2E2E2E2E2E2E2E2E2E2E2E2E2E2E2E2E2E2E2E2E2E2E2E2E2E2E2E2E2E2E2E2E2E2E2E2E2E2E2E2E2E2E2E2E2E2E2E2E2E2E2E2E2E2E2E2E2E2E2E2E2E2E2E2E2E2E2E2E2E2E2E2E2E2E2E2E2E2E2E2E2E2E2
310
E2E2E2E2E2E2E2E2E2E2E2E2E2E2E2E2E2E2E2E2E2E2E2E2E2E2E2E2E2E2E2E2E2E2E2E2E2E2E2E2E2E2E2E2E2E2E2E2E2E2E2E2E2E2E2E2E2E2E2E2E2E2E2E2E2E2E2E2E2E2E2E2E2E2E2E2E2E2E2E2E2E2E2E2E2E2E2E2E2E2E2E2E2E2E2E2E2E2E2E2E2E2E2E2E2E2E2E2E2E2E2E2E2E2E2E2E2E2E2E2E2E2E2E2E2E2E2
310
E2E2E2E2E2E2E2E2E2E2E2E2E2E2E2E2E2E2E2E2E2E2E2E2E2E2E2E2E2E2E2E2E2E2E2E2E2E2E2E2E2E2E2E2E2E2E2E2E2E2E2E2E2E2E2E2E2E2E2E2E2E2E2E2E2E2E2E2E2E2E2E2E2E2E2E2E2E2E2E2E2E2E2E2E2E2E2E2E2E2E2E2E2E2E2E2E2E2E2E2E2E2E2E2E2E2E2E2E2E2E2E2E2E2E2E2E2E2E2E2E2E2E2E2E2E2E2
310
E2E2E2E2E2E2E2E2E2E2E2E2E2E2E2E2E2E2E2E2E2E2E2E2E2E2E2E2E2E2E2E2E2E2E2E2E2E2E2E2E2E2E2E2E2E2E2E2E2E2E2E2E2E2E2E2E2E2E2E2E2E2E2E2E2E2E2E2E2E2E2E2E2E2E2E2E2E2E2E2E2E2E2E2E2E2E2E2E2E2E2E2E2E2E2E2E2E2E2E2E2E2E2E2E2E2E2E2E2E2E2E2E2E2E2E2E2E2E2E2E2E2E2E2E2E2E2
310
E2E2E2E2E2E2E2E2E2E2E2E2E2E2E2E2E2E2E2E2E2E2E2E2E2E2E2E2E2E2E2E2E2E2E2E2E2E2E2E2E2E2E2E2E2E2E2E2E2E2E2E2E2E2E2E2E2E2E2E2E2E2E2E2E2E2E2E2E2E2E2E2E2E2E2E2E2E2E2E2E2E2E2E2E2E2E2E2E2E2E2E2E2E2E2E2E2E2E2E2E2E2E2E2E2E2E2E2E2E2E2E2E2E2E2E2E2E2E2E2E2E2E2E2E2E2E2
310
E2E2E2E2E2E2E2E2E2E2E2E2E2E2E2E2E2E2E2E2E2E2E2E2E2E2E2E2E2E2E2E2E2E2E2E2E2E2E2E2E2E2E2E2E2E2E2E2E2E2E2E2E2E2E2E2E2E2E2E2E2E2E2E2E2E2E2E2E2E2E2E2E2E2E2E2E2E2E2E2E2E2E2E2E2E2E2E2E2E2E2E2E2E2E2E2E2E2E2E2E2E2E2E2E2E2E2E2E2E2E2E2E2E2E2E2E2E2E2E2E2E2E2E2E2E2E2
310
E2E2E2E2E2E2E2E2E2E2E2E2E2E2E2E2E2E2E2E2E2E2E2E2E2E2E2E2E2E2E2E2E2E2E2E2E2E2E2E2E2E2E2E2E2E2E2E2E2E2E2E2E2E2E2E2E2E2E2E2E2E2E2E2E2E2E2E2E2E2E2E2E2E2E2E2E2E2E2E2E2E2E2E2E2E2E2E2E2E2E2E2E2E2E2E2E2E2E2E2E2E2E2E2E2E2E2E2E2E2E2E2E2E2E2E2E2E2E2E2E2E2E2E2E2E2E2
310
E2E2E2E2E2E2E2E2E2E2E2E2E2E2E2E2E2E2E2E2E2E2E2E2E2E2E2E2E2E2E2E2E2E2E2E2E2E2E2E2E2E2E2E2E2E2E2E2E2E2E2E2E2E2E2E2E2E2E2E2E2E2E2E2E2E2E2E2E2E2E2E2E2E2E2E2E2E2E2E2E2E2E2E2E2E2E2E2E2E2E2E2E2E2E2E2E2E2E2E2E2E2E2E2E2E2E2E2E2E2E2E2E2E2E2E2E2E2E2E2E2E2E2E2E2E2E2
310
E2E2E2E2E2E2E2E2E2E2E2E2E2E2E2E2E2E2E2E2E2E2E2E2E2E2E2E2E2E2E2E2E2E2E2E2E2E2E2E2E2E2E2E2E2E2E2E2E2E2E2E2E2E2E2E2E2E2E2E2E2E2E2E2E2E2E2E2E2E2E2E2E2E2E2E2E2E2E2E2E2E2E2E2E2E2E2E2E2E2E2E2E2E2E2E2E2E2E2E2E2E2E2E2E2E2E2E2E2E2E2E2E2E2E2E2E2E2E2E2E2E2E2E2E2E2E2
310
E2E2E2E2E2E2E2E2E2E2E2E2E2E2E2E2E2E2E2E2E2E2E2E2E2E2E2E2E2E2E2E2E2E2E2E2E2E2E2E2E2E2E2E2E2E2E2E2E2E2E2E2E2E2E2E2E2E2E2E2E2E2E2E2E2E2E2E2E2E2E2E2E2E2E2E2E2E2E2E2E2E2E2E2E2E2E2E2E2E2E2E2E2E2E2E2E2E2E2E2E2E2E2E2E2E2E2E2E2E2E2E2E2E2E2E2E2E2E2E2E2E2E2E2E2E2E2
310
E2E2E2E2E2E2E2E2E2E2E2E2E2E2E2E2E2E2E2E2E2E2E2E2E2E2E2E2E2E2E2E2E2E2E2E2E2E2E2E2E2E2E2E2E2E2E2E2E2E2E2E2E2E2E2E2E2E2E2E2E2E2E2E2E2E2E2E2E2E2E2E2E2E2E2E2E2E2E2E2E2E2E2E2E2E2E2E2E2E2E2E2E2E2E2E2E2E2E2E2E2E2E2E2E2E2E2E2E2E2E2E2E2E2E2E2E2E2E2E2E2E2E2E2E2E2E2
310
E2E2E2E2E2E2E2E2E2E2E2E2E2E2E2E2E2E2E2E2E2E2E2E2E2E2E2E2E2E2E2E2E2E2E2E2E2E2E2E2E2E2E2E2E2E2E2E2E2E2E2E2E2E2E2E2E2E2E2E2E2E2E2E2E2E2E2E2E2E2E2E2E2E2E2E2E2E2E2E2E2E2E2E2E2E2E2E2E2E2E2E2E2E2E2E2E2E2E2E2E2E2E2E2E2E2E2E2E2E2E2E2E2E2E2E2E2E2E2E2E2E2E2E2E2E2E2
310
E2E2E2E2E2E2E2E2E2E2E2E2E2E2E2E2E2E2E2E2E2E2E2E2E2E2E2E2E2E2E2E2E2E2E2E2E2E2E2E2E2E2E2E2E2E2E2E2E2E2E2E2E2E2E2E2E2E2E2E2E2E2E2E2E2E2E2E2E2E2E2E2E2E2E2E2E2E2E2E2E2E2E2E2E2E2E2E2E2E2E2E2E2E2E2E2E2E2E2E2E2E2E2E2E2E2E2E2E2E2E2E2E2E2E2E2E2E2E2E2E2E2E2E2E2E2E2
310
E2E2E2E2E2E2E2E2E2E2E2E2E2E2E2E2E2E2E2E2E2E2E2E2E2E2E2E2E2E2E2E2E2E2E2E2E2E2E2E2E2E2E2E2E2E2E2E2E2E2E2E2E2E2E2E2E2E2E2E2E2E2E2E2E2E2E2E2E2E2E2E2E2E2E2E2E2E2E2E2E2E2E2E2E2E2E2E2E2E2E2E2E2E2E2E2E2E2E2E2E2E2E2E2E2E2E2E2E2E2E2E2E2E2E2E2E2E2E2E2E2E2E2E2E2E2E2
310
E2E2E2E2E2E2E2E2E2E2E2E2E2E2E2E2E2E2E2E2E2E2E2E2E2E2E2E2E2E2E2E2E2E2E2E2E2E2E2E2E2E2E2E2E2E2E2E2E2E2E2E2E2E2E2E2E2E2E2E2E2E2E2E2E2E2E2E2E2E2E2E2E2E2E2E2E2E2E2E2E2E2E2E2E2E2E2E2E2E2E2E2E2E2E2E2E2E2E2E2E2E2E2E2E2E2E2E2E2E2E2E2E2E2E2E2E2E2E2E2E2E2E2E2E2E2E2
310
E2E2E2E2E2E2E2E2E2E2E2E2E2E2E2E2E2E2E2E2E2E2E2E2E2E2E2E2E2E2E2E2E2E2E2E2E2E2E2E2E2E2E2E2E2E2E2E2E2E2E2E2E2E2E2E2E2E2E2E2E2E2E2E2E2E2E2E2E2E2E2E2E2E2E2E2E2E2E2E2E2E2E2E2E2E2E2E2E2E2E2E2E2E2E2E2E2E2E2E2E2E2E2E2E2E2E2E2E2E2E2E2E2E2E2E2E2E2E2E2E2E2E2E2E2E2E2
310
E2E2E2E2E2E2E2E2E2E2E2E2E2E2E2E2E2E2E2E2E2E2E2E2E2E2E2E2E2E2E2E2E2E2E2E2E2E2E2E2E2E2E2E2E2E2E2E2E2E2E2E2E2E2E2E2E2E2E2E2E2E2E2E2E2E2E2E2E2E2E2E2E2E2E2E2E2E2E2E2E2E2E2E2E2E2E2E2E2E2E2E2E2E2E2E2E2E2E2E2E2E2E2E2E2E2E2E2E2E2E2E2E2E2E2E2E2E2E2E2E2E2E2E2E2E2E2
310
E2E2E2E2E2E2E2E2E2E2E2E2E2E2E2E2E2E2E2E2E2E2E2E2E2E2E2E2E2E2E2E2E2E2E2E2E2E2E2E2E2E2E2E2E2E2E2E2E2E2E2E2E2E2E2E2E2E2E2E2E2E2E2E2E2E2E2E2E2E2E2E2E2E2E2E2E2E2E2E2E2E2E2E2E2E2E2E2E2E2E2E2E2E2E2E2E2E2E2E2E2E2E2E2E2E2E2E2E2E2E2E2E2E2E2E2E2E2E2E2E2E2E2E2E2E2E2
310
E2E2E2E2E2E2E2E2E2E2E2E2E2E2E2E2E2E2E2E2E2E2E2E2E2E2E2E2E2E2E2E2E2E2E2E2E2E2E2E2E2E2E2E2E2E2E2E2E2E2E2E2E2E2E2E2E2E2E2E2E2E2E2E2E2E2E2E2E2E2E2E2E2E2E2E2E2E2E2E2E2E2E2E2E2E2E2E2E2E2E2E2E2E2E2E2E2E2E2E2E2E2E2E2E2E2E2E2E2E2E2E2E2E2E2E2E2E2E2E2E2E2E2E2E2E2E2
310
E2E2E2E2E2E2E2E2E2E2E2E2E2E2E2E2E2E2E2E2E2E2E2E2E2E2E2E2E2E2E2E2E2E2E2E2E2E2E2E2E2E2E2E2E2E2E2E2E2E2E2E2E2E2E2E2E2E2E2E2E2E2E2E2E2E2E2E2E2E2E2E2E2E2E2E2E2E2E2E2E2E2E2E2E2E2E2E2E2E2E2E2E2E2E2E2E2E2E2E2E2E2E2E2E2E2E2E2E2E2E2E2E2E2E2E2E2E2E2E2E2E2E2E2E2E2E2
310
E2E2E2E2E2E2E2E2E2E2E2E2E2E2E2E2E2E2E2E2E2E2E2E2E2E2E2E2E2E2E2E2E2E2E2E2E2E2E2E2E2E2E2E2E2E2E2E2E2E2E2E2E2E2E2E2E2E2E2E2E2E2E2E2E2E2E2E2E2E2E2E2E2E2E2E2E2E2E2E2E2E2E2E2E2E2E2E2E2E2E2E2E2E2E2E2E2E2E2E2E2E2E2E2E2E2E2E2E2E2E2E2E2E2E2E2E2E2E2E2E2E2E2E2E2E2E2
310
E2E2E2E2E2E2E2E2E2E2E2E2E2E2E2E2E2E2E2E2E2E2E2E2E2E2E2E2E2E2E2E2E2E2E2E2E2E2E2E2E2E2E2E2E2E2E2E2E2E2E2E2E2E2E2E2E2E2E2E2E2E2E2E2E2E2E2E2E2E2E2E2E2E2E2E2E2E2E2E2E2E2E2E2E2E2E2E2E2E2E2E2E2E2E2E2E2E2E2E2E2E2E2E2E2E2E2E2E2E2E2E2E2E2E2E2E2E2E2E2E2E2E2E2E2E2E2
310
E2E2E2E2E2E2E2E2E2E2E2E2E2E2E2E2E2E2E2E2E2E2E2E2E2E2E2E2E2E2E2E2E2E2E2E2E2E2E2E2E2E2E2E2E2E2E2E2E2E2E2E2E2E2E2E2E2E2E2E2E2E2E2E2E2E2E2E2E2E2E2E2E2E2E2E2E2E2E2E2E2E2E2E2E2E2E2E2E2E2E2E2E2E2E2E2E2E2E2E2E2E2E2E2E2E2E2E2E2E2E2E2E2E2E2E2E2E2E2E2E2E2E2E2E2E2E2
310
E2E2E2E2E2E2E2E2E2E2E2E2E2E2E2E2E2E2E2E2E2E2E2E2E2E2E2E2E2E2E2E2E2E2E2E2E2E2E2E2E2E2E2E2E2E2E2E2E2E2E2E2E2E2E2E2E2E2E2E2E2E2E2E2E2E2E2E2E2E2E2E2E2E2E2E2E2E2E2E2E2E2E2E2E2E2E2E2E2E2E2E2E2E2E2E2E2E2E2E2E2E2E2E2E2E2E2E2E2E2E2E2E2E2E2E2E2E2E2E2E2E2E2E2E2E2E2
310
E2E2E2E2E2E2E2E2E2E2E2E2E2E2E2E2E2E2E2E2E2E2E2E2E2E2E2E2E2E2E2E2E2E2E2E2E2E2E2E2E2E2E2E2E2E2E2E2E2E2E2E2E2E2E2E2E2E2E2E2E2E2E2E2E2E2E2E2E2E2E2E2E2E2E2E2E2E2E2E2E2E2E2E2E2E2E2E2E2E2E2E2E2E2E2E2E2E2E2E2E2E2E2E2E2E2E2E2E2E2E2E2E2E2E2E2E2E2E2E2E2E2E2E2E2E2E2
310
E2E2E2E2E2E2E2E2E2E2E2E2E2E2E2E2E2E2E2E2E2E2E2E2E2E2E2E2E2E2E2E2E2E2E2E2E2E2E2E2E2E2E2E2E2E2E2E2E2E2E2E2E2E2E2E2E2E2E2E2E2E2E2E2E2E2E2E2E2E2E2E2E2E2E2E2E2E2E2E2E2E2E2E2E2E2E2E2E2E2E2E2E2E2E2E2E2E2E2E2E2E2E2E2E2E2E2E2E2E2E2E2E2E2E2E2E2E2E2E2E2E2E2E2E2E2E2
310
E2E2E2E2E2E2E2E2E2E2E2E2E2E2E2E2E2E2E2E2E2E2E2E2E2E2E2E2E2E2E2E2E2E2E2E2E2E2E2E2E2E2E2E2E2E2E2E2E2E2E2E2E2E2E2E2E2E2E2E2E2E2E2E2E2E2E2E2E2E2E2E2E2E2E2E2E2E2E2E2E2E2E2E2E2E2E2E2E2E2E2E2E2E2E2E2E2E2E2E2E2E2E2E2E2E2E2E2E2E2E2E2E2E2E2E2E2E2E2E2E2E2E2E2E2E2E2
310
E2E2E2E2E2E2E2E2E2E2E2E2E2E2E2E2E2E2E2E2E2E2E2E2E2E2E2E2E2E2E2E2E2E2E2E2E2E2E2E2E2E2E2E2E2E2E2E2E2E2E2E2E2E2E2E2E2E2E2E2E2E2E2E2E2E2E2E2E2E2E2E2E2E2E2E2E2E2E2E2E2E2E2E2E2E2E2E2E2E2E2E2E2E2E2E2E2E2E2E2E2E2E2E2E2E2E2E2E2E2E2E2E2E2E2E2E2E2E2E2E2E2E2E2E2E2E2
310
E2E2E2E2E2E2E2E2E2E2E2E2E2E2E2E2E2E2E2E2E2E2E2E2E2E2E2E2E2E2E2E2E2E2E2E2E2E2E2E2E2E2E2E2E2E2E2E2E2E2E2E2E2E2E2E2E2E2E2E2E2E2E2E2E2E2E2E2E2E2E2E2E2E2E2E2E2E2E2E2E2E2E2E2E2E2E2E2E2E2E2E2E2E2E2E2E2E2E2E2E2E2E2E2E2E2E2E2E2E2E2E2E2E2E2E2E2E2E2E2E2E2E2E2E2E2E2
310
E2E2E2E2E2E2E2E2E2E2E2E2E2E2E2E2E2E2E2E2E2E2E2E2E2E2E2E2E2E2E2E2E2E2E2E2E2E2E2E2E2E2E2E2E2E2E2E2E2E2E2E2E2E2E2E2E2E2E2E2E2E2E2E2E2E2E2E2E2E2E2E2E2E2E2E2E2E2E2E2E2E2E2E2E2E2E2E2E2E2E2E2E2E2E2E2E2E2E2E2E2E2E2E2E2E2E2E2E2E2E2E2E2E2E2E2E2E2E2E2E2E2E2E2E2E2E2
310
E2E2E2E2E2E2E2E2E2E2E2E2E2E2E2E2E2E2E2E2E2E2E2E2E2E2E2E2E2E2E2E2E2E2E2E2E2E2E2E2E2E2E2E2E2E2E2E2E2E2E2E2E2E2E2E2E2E2E2E2E2E2E2E2E2E2E2E2E2E2E2E2E2E2E2E2E2E2E2E2E2E2E2E2E2E2E2E2E2E2E2E2E2E2E2E2E2E2E2E2E2E2E2E2E2E2E2E2E2E2E2E2E2E2E2E2E2E2E2E2E2E2E2E2E2E2E2
310
E2E2E2E2E2E2E2E2E2E2E2E2E2E2E2E2E2E2E2E2E2E2E2E2E2E2E2E2E2E2E2E2E2E2E2E2E2E2E2E2E2E2E2E2E2E2E2E2E2E2E2E2E2E2E2E2E2E2E2E2E2E2E2E2E2E2E2E2E2E2E2E2E2E2E2E2E2E2E2E2E2E2E2E2E2E2E2E2E2E2E2E2E2E2E2E2E2E2E2E2E2E2E2E2E2E2E2E2E2E2E2E2E2E2E2E2E2E2E2E2E2E2E2E2E2E2E2
310
E2E2E2E2E2E2E2E2E2E2E2E2E2E2E2E2E2E2E2E2E2E2E2E2E2E2E2E2E2E2E2E2E2E2E2E2E2E2E2E2E2E2E2E2E2E2E2E2E2E2E2E2E2E2E2E2E2E2E2E2E2E2E2E2E2E2E2E2E2E2E2E2E2E2E2E2E2E2E2E2E2E2E2E2E2E2E2E2E2E2E2E2E2E2E2E2E2E2E2E2E2E2E2E2E2E2E2E2E2E2E2E2E2E2E2E2E2E2E2E2E2E2E2E2E2E2E2
310
E2E2E2E2E2E2E2E2E2E2E2E2E2E2E2E2E2E2E2E2E2E2E2E2E2E2E2E2E2E2E2E2E2E2E2E2E2E2E2E2E2E2E2E2E2E2E2E2E2E2E2E2E2E2E2E2E2E2E2E2E2E2E2E2E2E2E2E2E2E2E2E2E2E2E2E2E2E2E2E2E2E2E2E2E2E2E2E2E2E2E2E2E2E2E2E2E2E2E2E2E2E2E2E2E2E2E2E2E2E2E2E2E2E2E2E2E2E2E2E2E2E2E2E2E2E2E2
310
E2E2E2E2E2E2E2E2E2E2E2E2E2E2E2E2E2E2E2E2E2E2E2E2E2E2E2E2E2E2E2E2E2E2E2E2E2E2E2E2E2E2E2E2E2E2E2E2E2E2E2E2E2E2E2E2E2E2E2E2E2E2E2E2E2E2E2E2E2E2E2E2E2E2E2E2E2E2E2E2E2E2E2E2E2E2E2E2E2E2E2E2E2E2E2E2E2E2E2E2E2E2E2E2E2E2E2E2E2E2E2E2E2E2E2E2E2E2E2E2E2E2E2E2E2E2E2
310
E2E2E2E2E2E2E2E2E2E2E2E2E2E2E2E2E2E2E2E2E2E2E2E2E2E2E2E2E2E2E2E2E2E2E2E2E2E2E2E2E2E2E2E2E2E2E2E2E2E2E2E2E2E2E2E2E2E2E2E2E2E2E2E2E2E2E2E2E2E2E2E2E2E2E2E2E2E2E2E2E2E2E2E2E2E2E2E2E2E2E2E2E2E2E2E2E2E2E2E2E2E2E2E2E2E2E2E2E2E2E2E2E2E2E2E2E2E2E2E2E2E2E2E2E2E2E2
310
E2E2E2E2E2E2E2E2E2E2E2E2E2E2E2E2E2E2E2E2E2E2E2E2E2E2E2E2E2E2E2E2E2E2E2E2E2E2E2E2E2E2E2E2E2E2E2E2E2E2E2E2E2E2E2E2E2E2E2E2E2E2E2E2E2E2E2E2E2E2E2E2E2E2E2E2E2E2E2E2E2E2E2E2E2E2E2E2E2E2E2E2E2E2E2E2E2E2E2E2E2E2E2E2E2E2E2E2E2E2E2E2E2E2E2E2E2E2E2E2E2E2E2E2E2E2E2
310
E2E2E2E2E2E2E2E2E2E2E2E2E2E2E2E2E2E2E2E2E2E2E2E2E2E2E2E2E2E2E2E2E2E2E2E2E2E2E2E2E2E2E2E2E2E2E2E2E2E2E2E2E2E2E2E2E2E2E2E2E2E2E2E2E2E2E2E2E2E2E2E2E2E2E2E2E2E2E2E2E2E2E2E2E2E2E2E2E2E2E2E2E2E2E2E2E2E2E2E2E2E2E2E2E2E2E2E2E2E2E2E2E2E2E2E2E2E2E2E2E2E2E2E2E2E2E2
310
E2E2E2E2E2E2E2E2E2E2E2E2E2E2E2E2E2E2E2E2E2E2E2E2E2E2E2E2E2E2E2E2E2E2E2E2E2E2E2E2E2E2E2E2E2E2E2E2E2E2E2E2E2E2E2E2E2E2E2E2E2E2E2E2E2E2E2E2E2E2E2E2E2E2E2E2E2E2E2E2E2E2E2E2E2E2E2E2E2E2E2E2E2E2E2E2E2E2E2E2E2E2E2E2E2E2E2E2E2E2E2E2E2E2E2E2E2E2E2E2E2E2E2E2E2E2E2
310
E2E2E2E2E2E2E2E2E2E2E2E2E2E2E2E2E2E2E2E2E2E2E2E2E2E2E2E2E2E2E2E2E2E2E2E2E2E2E2E2E2E2E2E2E2E2E2E2E2E2E2E2E2E2E2E2E2E2E2E2E2E2E2E2E2E2E2E2E2E2E2E2E2E2E2E2E2E2E2E2E2E2E2E2E2E2E2E2E2E2E2E2E2E2E2E2E2E2E2E2E2E2E2E2E2E2E2E2E2E2E2E2E2E2E2E2E2E2E2E2E2E2E2E2E2E2E2
310
E2E2E2E2E2E2E2E2E2E2E2E2E2E2E2E2E2E2E2E2E2E2E2E2E2E2E2E2E2E2E2E2E2E2E2E2E2E2E2E2E2E2E2E2E2E2E2E2E2E2E2E2E2E2E2E2E2E2E2E2E2E2E2E2E2E2E2E2E2E2E2E2E2E2E2E2E2E2E2E2E2E2E2E2E2E2E2E2E2E2E2E2E2E2E2E2E2E2E2E2E2E2E2E2E2E2E2E2E2E2E2E2E2E2E2E2E2E2E2E2E2E2E2E2E2E2E2
310
E2E2E2E2E2E2E2E2E2E2E2E2E2E2E2E2E2E2E2E2E2E2E2E2E2E2E2E2E2E2E2E2E2E2E2E2E2E2E2E2E2E2E2E2E2E2E2E2E2E2E2E2E2E2E2E2E2E2E2E2E2E2E2E2E2E2E2E2E2E2E2E2E2E2E2E2E2E2E2E2E2E2E2E2E2E2E2E2E2E2E2E2E2E2E2E2E2E2E2E2E2E2E2E2E2E2E2E2E2E2E2E2E2E2E2E2E2E2E2E2E2E2E2E2E2E2E2
310
E2E2E2E2E2E2E2E2E2E2E2E2E2E2E2E2E2E2E2E2E2E2E2E2E2E2E2E2E2E2E2E2E2E2E2E2E2E2E2E2E2E2E2E2E2E2E2E2E2E2E2E2E2E2E2E2E2E2E2E2E2E2E2E2E2E2E2E2E2E2E2E2E2E2E2E2E2E2E2E2E2E2E2E2E2E2E2E2E2E2E2E2E2E2E2E2E2E2E2E2E2E2E2E2E2E2E2E2E2E2E2E2E2E2E2E2E2E2E2E2E2E2E2E2E2E2E2
310
E2E2E2E2E2E2E2E2E2E2E2E2E2E2E2E2E2E2E2E2E2E2E2E2E2E2E2E2E2E2E2E2E2E2E2E2E2E2E2E2E2E2E2E2E2E2E2E2E2E2E2E2E2E2E2E2E2E2E2E2E2E2E2E2E2E2E2E2E2E2E2E2E2E2E2E2E2E2E2E2E2E2E2E2E2E2E2E2E2E2E2E2E2E2E2E2E2E2E2E2E2E2E2E2E2E2E2E2E2E2E2E2E2E2E2E2E2E2E2E2E2E2E2E2E2E2E2
310
E2E2E2E2E2E2E2E2E2E2E2E2E2E2E2E2E2E2E2E2E2E2E2E2E2E2E2E2E2E2E2E2E2E2E2E2E2E2E2E2E2E2E2E2E2E2E2E2E2E2E2E2E2E2E2E2E2E2E2E2E2E2E2E2E2E2E2E2E2E2E2E2E2E2E2E2E2E2E2E2E2E2E2E2E2E2E2E2E2E2E2E2E2E2E2E2E2E2E2E2E2E2E2E2E2E2E2E2E2E2E2E2E2E2E2E2E2E2E2E2E2E2E2E2E2E2E2
310
E2E2E2E2E2E2E2E2E2E2E2E2E2E2E2E2E2E2E2E2E2E2E2E2E2E2E2E2E2E2E2E2E2E2E2E2E2E2E2E2E2E2E2E2E2E2E2E2E2E2E2E2E2E2E2E2E2E2E2E2E2E2E2E2E2E2E2E2E2E2E2E2E2E2E2E2E2E2E2E2E2E2E2E2E2E2E2E2E2E2E2E2E2E2E2E2E2E2E2E2E2E2E2E2E2E2E2E2E2E2E2E2E2E2E2E2E2E2E2E2E2E2E2E2E2E2E2
310
E2E2E2E2E2E2E2E2E2E2E2E2E2E2E2E2E2E2E2E2E2E2E2E2E2E2E2E2E2E2E2E2E2E2E2E2E2E2E2E2E2E2E2E2E2E2E2E2E2E2E2E2E2E2E2E2E2E2E2E2E2E2E2E2E2E2E2E2E2E2E2E2E2E2E2E2E2E2E2E2E2E2E2E2E2E2E2E2E2E2E2E2E2E2E2E2E2E2E2E2E2E2E2E2E2E2E2E2E2E2E2E2E2E2E2E2E2E2E2E2E2E2E2E2E2E2E2
310
E2E2E2E2E2E2E2E2E2E2E2E2E2E2E2E2E2E2E2E2E2E2E2E2E2E2E2E2E2E2E2E2E2E2E2E2E2E2E2E2E2E2E2E2E2E2E2E2E2E2E2E2E2E2E2E2E2E2E2E2E2E2E2E2E2E2E2E2E2E2E2E2E2E2E2E2E2E2E2E2E2E2E2E2E2E2E2E2E2E2E2E2E2E2E2E2E2E2E2E2E2E2E2E2E2E2E2E2E2E2E2E2E2E2E2E2E2E2E2E2E2E2E2E2E2E2E2
310
E2E2E2E2E2E2E2E2E2E2E2E2E2E2E2E2E2E2E2E2E2E2E2E2E2E2E2E2E2E2E2E2E2E2E2E2E2E2E2E2E2E2E2E2E2E2E2E2E2E2E2E2E2E2E2E2E2E2E2E2E2E2E2E2E2E2E2E2E2E2E2E2E2E2E2E2E2E2E2E2E2E2E2E2E2E2E2E2E2E2E2E2E2E2E2E2E2E2E2E2E2E2E2E2E2E2E2E2E2E2E2E2E2E2E2E2E2E2E2E2E2E2E2E2E2E2E2
310
E2E2E2E2E2E2E2E2E2E2E2E2E2E2E2E2E2E2E2E2E2E2E2E2E2E2E2E2E2E2E2E2E2E2E2E2E2E2E2E2E2E2E2E2E2E2E2E2E2E2E2E2E2E2E2E2E2E2E2E2E2E2E2E2E2E2E2E2E2E2E2E2E2E2E2E2E2E2E2E2E2E2E2E2E2E2E2E2E2E2E2E2E2E2E2E2E2E2E2E2E2E2E2E2E2E2E2E2E2E2E2E2E2E2E2E2E2E2E2E2E2E2E2E2E2E2E2
310
E2E2E2E2E2E2E2E2E2E2E2E2E2E2E2E2E2E2E2E2E2E2E2E2E2E2E2E2E2E2E2E2E2E2E2E2E2E2E2E2E2E2E2E2E2E2E2E2E2E2E2E2E2E2E2E2E2E2E2E2E2E2E2E2E2E2E2E2E2E2E2E2E2E2E2E2E2E2E2E2E2E2E2E2E2E2E2E2E2E2E2E2E2E2E2E2E2E2E2E2E2E2E2E2E2E2E2E2E2E2E2E2E2E2E2E2E2E2E2E2E2E2E2E2E2E2E2
310
E2E2E2E2E2E2E2E2E2E2E2E2E2E2E2E2E2E2E2E2E2E2E2E2E2E2E2E2E2E2E2E2E2E2E2E2E2E2E2E2E2E2E2E2E2E2E2E2E2E2E2E2E2E2E2E2E2E2E2E2E2E2E2E2E2E2E2E2E2E2E2E2E2E2E2E2E2E2E2E2E2E2E2E2E2E2E2E2E2E2E2E2E2E2E2E2E2E2E2E2E2E2E2E2E2E2E2E2E2E2E2E2E2E2E2E2E2E2E2E2E2E2E2E2E2E2E2
310
E2E2E2E2E2E2E2E2E2E2E2E2E2E2E2E2E2E2E2E2E2E2E2E2E2E2E2E2E2E2E2E2E2E2E2E2E2E2E2E2E2E2E2E2E2E2E2E2E2E2E2E2E2E2E2E2E2E2E2E2E2E2E2E2E2E2E2E2E2E2E2E2E2E2E2E2E2E2E2E2E2E2E2E2E2E2E2E2E2E2E2E2E2E2E2E2E2E2E2E2E2E2E2E2E2E2E2E2E2E2E2E2E2E2E2E2E2E2E2E2E2E2E2E2E2E2E2
310
E2E2E2E2E2E2E2E2E2E2E2E2E2E2E2E2E2E2E2E2E2E2E2E2E2E2E2E2E2E2E2E2E2E2E2E2E2E2E2E2E2E2E2E2E2E2E2E2E2E2E2E2E2E2E2E2E2E2E2E2E2E2E2E2E2E2E2E2E2E2E2E2E2E2E2E2E2E2E2E2E2E2E2E2E2E2E2E2E2E2E2E2E2E2E2E2E2E2E2E2E2E2E2E2E2E2E2E2E2E2E2E2E2E2E2E2E2E2E2E2E2E2E2E2E2E2E2
310
E2E2E2E2E2E2E2E2E2E2E2E2E2E2E2E2E2E2E2E2E2E2E2E2E2E2E2E2E2E2E2E2E2E2E2E2E2E2E2E2E2E2E2E2E2E2E2E2E2E2E2E2E2E2E2E2E2E2E2E2E2E2E2E2E2E2E2E2E2E2E2E2E2E2E2E2E2E2E2E2E2E2E2E2E2E2E2E2E2E2E2E2E2E2E2E2E2E2E2E2E2E2E2E2E2E2E2E2E2E2E2E2E2E2E2E2E2E2E2E2E2E2E2E2E2E2E2
310
E2E2E2E2E2E2E2E2E2E2E2E2E2E2E2E2E2E2E2E2E2E2E2E2E2E2E2E2E2E2E2E2E2E2E2E2E2E2E2E2E2E2E2E2E2E2E2E2E2E2E2E2E2E2E2E2E2E2E2E2E2E2E2E2E2E2E2E2E2E2E2E2E2E2E2E2E2E2E2E2E2E2E2E2E2E2E2E2E2E2E2E2E2E2E2E2E2E2E2E2E2E2E2E2E2E2E2E2E2E2E2E2E2E2E2E2E2E2E2E2E2E2E2E2E2E2E2
310
E2E2E2E2E2E2E2E2E2E2E2E2E2E2E2E2E2E2E2E2E2E2E2E2E2E2E2E2E2E2E2E2E2E2E2E2E2E2E2E2E2E2E2E2E2E2E2E2E2E2E2E2E2E2E2E2E2E2E2E2E2E2E2E2E2E2E2E2E2E2E2E2E2E2E2E2E2E2E2E2E2E2E2E2E2E2E2E2E2E2E2E2E2E2E2E2E2E2E2E2E2E2E2E2E2E2E2E2E2E2E2E2E2E2E2E2E2E2E2E2E2E2E2E2E2E2E2
310
E2E2E2E2E2E2E2E2E2E2E2E2E2E2E2E2E2E2E2E2E2E2E2E2E2E2E2E2E2E2E2E2E2E2E2E2E2E2E2E2E2E2E2E2E2E2E2E2E2E2E2E2E2E2E2E2E2E2E2E2E2E2E2E2E2E2E2E2E2E2E2E2E2E2E2E2E2E2E2E2E2E2E2E2E2E2E2E2E2E2E2E2E2E2E2E2E2E2E2E2E2E2E2E2E2E2E2E2E2E2E2E2E2E2E2E2E2E2E2E2E2E2E2E2E2E2E2
310
E2E2E2E2E2E2E2E2E2E2E2E2E2E2E2E2E2E2E2E2E2E2E2E2E2E2E2E2E2E2E2E2E2E2E2E2E2E2E2E2E2E2E2E2E2E2E2E2E2E2E2E2E2E2E2E2E2E2E2E2E2E2E2E2E2E2E2E2E2E2E2E2E2E2E2E2E2E2E2E2E2E2E2E2E2E2E2E2E2E2E2E2E2E2E2E2E2E2E2E2E2E2E2E2E2E2E2E2E2E2E2E2E2E2E2E2E2E2E2E2E2E2E2E2E2E2E2
310
E2E2E2E2E2E2E2E2E2E2E2E2E2E2E2E2E2E2E2E2E2E2E2E2E2E2E2E2E2E2E2E2E2E2E2E2E2E2E2E2E2E2E2E2E2E2E2E2E2E2E2E2E2E2E2E2E2E2E2E2E2E2E2E2E2E2E2E2E2E2E2E2E2E2E2E2E2E2E2E2E2E2E2E2E2E2E2E2E2E2E2E2E2E2E2E2E2E2E2E2E2E2E2E2E2E2E2E2E2E2E2E2E2E2E2E2E2E2E2E2E2E2E2E2E2E2E2
310
E2E2E2E2E2E2E2E2E2E2E2E2E2E2E2E2E2E2E2E2E2E2E2E2E2E2E2E2E2E2E2E2E2E2E2E2E2E2E2E2E2E2E2E2E2E2E2E2E2E2E2E2E2E2E2E2E2E2E2E2E2E2E2E2E2E2E2E2E2E2E2E2E2E2E2E2E2E2E2E2E2E2E2E2E2E2E2E2E2E2E2E2E2E2E2E2E2E2E2E2E2E2E2E2E2E2E2E2E2E2E2E2E2E2E2E2E2E2E2E2E2E2E2E2E2E2E2
310
E2E2E2E2E2E2E2E2E2E2E2E2E2E2E2E2E2E2E2E2E2E2E2E2E2E2E2E2E2E2E2E2E2E2E2E2E2E2E2E2E2E2E2E2E2E2E2E2E2E2E2E2E2E2E2E2E2E2E2E2E2E2E2E2E2E2E2E2E2E2E2E2E2E2E2E2E2E2E2E2E2E2E2E2E2E2E2E2E2E2E2E2E2E2E2E2E2E2E2E2E2E2E2E2E2E2E2E2E2E2E2E2E2E2E2E2E2E2E2E2E2E2E2E2E2E2E2
310
E2E2E2E2E2E2E2E2E2E2E2E2E2E2E2E2E2E2E2E2E2E2E2E2E2E2E2E2E2E2E2E2E2E2E2E2E2E2E2E2E2E2E2E2E2E2E2E2E2E2E2E2E2E2E2E2E2E2E2E2E2E2E2E2E2E2E2E2E2E2E2E2E2E2E2E2E2E2E2E2E2E2E2E2E2E2E2E2E2E2E2E2E2E2E2E2E2E2E2E2E2E2E2E2E2E2E2E2E2E2E2E2E2E2E2E2E2E2E2E2E2E2E2E2E2E2E2
310
E2E2E2E2E2E2E2E2E2E2E2E2E2E2E2E2E2E2E2E2E2E2E2E2E2E2E2E2E2E2E2E2E2E2E2E2E2E2E2E2E2E2E2E2E2E2E2E2E2E2E2E2E2E2E2E2E2E2E2E2E2E2E2E2E2E2E2E2E2E2E2E2E2E2E2E2E2E2E2E2E2E2E2E2E2E2E2E2E2E2E2E2E2E2E2E2E2E2E2E2E2E2E2E2E2E2E2E2E2E2E2E2E2E2E2E2E2E2E2E2E2E2E2E2E2E2E2
310
E2E2E2E2E2E2E2E2E2E2E2E2E2E2E2E2E2E2E2E2E2E2E2E2E2E2E2E2E2E2E2E2E2E2E2E2E2E2E2E2E2E2E2E2E2E2E2E2E2E2E2E2E2E2E2E2E2E2E2E2E2E2E2E2E2E2E2E2E2E2E2E2E2E2E2E2E2E2E2E2E2E2E2E2E2E2E2E2E2E2E2E2E2E2E2E2E2E2E2E2E2E2E2E2E2E2E2E2E2E2E2E2E2E2E2E2E2E2E2E2E2E2E2E2E2E2E2
310
E2E2E2E2E2E2E2E2E2E2E2E2E2E2E2E2E2E2E2E2E2E2E2E2E2E2E2E2E2E2E2E2E2E2E2E2E2E2E2E2E2E2E2E2E2E2E2E2E2E2E2E2E2E2E2E2E2E2E2E2E2E2E2E2E2E2E2E2E2E2E2E2E2E2E2E2E2E2E2E2E2E2E2E2E2E2E2E2E2E2E2E2E2E2E2E2E2E2E2E2E2E2E2E2E2E2E2E2E2E2E2E2E2E2E2E2E2E2E2E2E2E2E2E2E2E2E2
310
E2E2E2E2E2E2E2E2E2E2E2E2E2E2E2E2E2E2E2E2E2E2E2E2E2E2E2E2E2E2E2E2E2E2E2E2E2E2E2E2E2E2E2E2E2E2E2E2E2E2E2E2E2E2E2E2E2E2E2E2E2E2E2E2E2E2E2E2E2E2E2E2E2E2E2E2E2E2E2E2E2E2E2E2E2E2E2E2E2E2E2E2E2E2E2E2E2E2E2E2E2E2E2E2E2E2E2E2E2E2E2E2E2E2E2E2E2E2E2E2E2E2E2E2E2E2E2
310
E2E2E2E2E2E2E2E2E2E2E2E2E2E2E2E2E2E2E2E2E2E2E2E2E2E2E2E2E2E2E2E2E2E2E2E2E2E2E2E2E2E2E2E2E2E2E2E2E2E2E2E2E2E2E2E2E2E2E2E2E2E2E2E2E2E2E2E2E2E2E2E2E2E2E2E2E2E2E2E2E2E2E2E2E2E2E2E2E2E2E2E2E2E2E2E2E2E2E2E2E2E2E2E2E2E2E2E2E2E2E2E2E2E2E2E2E2E2E2E2E2E2E2E2E2E2E2
310
E2E2E2E2E2E2E2E2E2E2E2E2E2E2E2E2E2E2E2E2E2E2E2E2E2E2E2E2E2E2E2E2E2E2E2E2E2E2E2E2E2E2E2E2E2E2E2E2E2E2E2E2E2E2E2E2E2E2E2E2E2E2E2E2E2E2E2E2E2E2E2E2E2E2E2E2E2E2E2E2E2E2E2E2E2E2E2E2E2E2E2E2E2E2E2E2E2E2E2E2E2E2E2E2E2E2E2E2E2E2E2E2E2E2E2E2E2E2E2E2E2E2E2E2E2E2E2
310
E2E2E2E2E2E2E2E2E2E2E2E2E2E2E2E2E2E2E2E2E2E2E2E2E2E2E2E2E2E2E2E2E2E2E2E2E2E2E2E2E2E2E2E2E2E2E2E2E2E2E2E2E2E2E2E2E2E2E2E2E2E2E2E2E2E2E2E2E2E2E2E2E2E2E2E2E2E2E2E2E2E2E2E2E2E2E2E2E2E2E2E2E2E2E2E2E2E2E2E2E2E2E2E2E2E2E2E2E2E2E2E2E2E2E2E2E2E2E2E2E2E2E2E2E2E2E2
310
E2E2E2E2E2E2E2E2E2E2E2E2E2E2E2E2E2E2E2E2E2E2E2E2E2E2E2E2E2E2E2E2E2E2E2E2E2E2E2E2E2E2E2E2E2E2E2E2E2E2E2E2E2E2E2E2E2E2E2E2E2E2E2E2E2E2E2E2E2E2E2E2E2E2E2E2E2E2E2E2E2E2E2E2E2E2E2E2E2E2E2E2E2E2E2E2E2E2E2E2E2E2E2E2E2E2E2E2E2E2E2E2E2E2E2E2E2E2E2E2E2E2E2E2E2E2E2
310
E2E2E2E2E2E2E2E2E2E2E2E2E2E2E2E2E2E2E2E2E2E2E2E2E2E2E2E2E2E2E2E2E2E2E2E2E2E2E2E2E2E2E2E2E2E2E2E2E2E2E2E2E2E2E2E2E2E2E2E2E2E2E2E2E2E2E2E2E2E2E2E2E2E2E2E2E2E2E2E2E2E2E2E2E2E2E2E2E2E2E2E2E2E2E2E2E2E2E2E2E2E2E2E2E2E2E2E2E2E2E2E2E2E2E2E2E2E2E2E2E2E2E2E2E2E2E2
310
E2E2E2E2E2E2E2E2E2E2E2E2E2E2E2E2E2E2E2E2E2E2E2E2E2E2E2E2E2E2E2E2E2E2E2E2E2E2E2E2E2E2E2E2E2E2E2E2E2E2E2E2E2E2E2E2E2E2E2E2E2E2E2E2E2E2E2E2E2E2E2E2E2E2E2E2E2E2E2E2E2E2E2E2E2E2E2E2E2E2E2E2E2E2E2E2E2E2E2E2E2E2E2E2E2E2E2E2E2E2E2E2E2E2E2E2E2E2E2E2E2E2E2E2E2E2E2
310
E2E2E2E2E2E2E2E2E2E2E2E2E2E2E2E2E2E2E2E2E2E2E2E2E2E2E2E2E2E2E2E2E2E2E2E2E2E2E2E2E2E2E2E2E2E2E2E2E2E2E2E2E2E2E2E2E2E2E2E2E2E2E2E2E2E2E2E2E2E2E2E2E2E2E2E2E2E2E2E2E2E2E2E2E2E2E2E2E2E2E2E2E2E2E2E2E2E2E2E2E2E2E2E2E2E2E2E2E2E2E2E2E2E2E2E2E2E2E2E2E2E2E2E2E2E2E2
310
E2E2E2E2E2E2E2E2E2E2E2E2E2E2E2E2E2E2E2E2E2E2E2E2E2E2E2E2E2E2E2E2E2E2E2E2E2E2E2E2E2E2E2E2E2E2E2E2E2E2E2E2E2E2E2E2E2E2E2E2E2E2E2E2E2E2E2E2E2E2E2E2E2E2E2E2E2E2E2E2E2E2E2E2E2E2E2E2E2E2E2E2E2E2E2E2E2E2E2E2E2E2E2E2E2E2E2E2E2E2E2E2E2E2E2E2E2E2E2E2E2E2E2E2E2E2E2
310
E2E2E2E2E2E2E2E2E2E2E2E2E2E2E2E2E2E2E2E2E2E2E2E2E2E2E2E2E2E2E2E2E2E2E2E2E2E2E2E2E2E2E2E2E2E2E2E2E2E2E2E2E2E2E2E2E2E2E2E2E2E2E2E2E2E2E2E2E2E2E2E2E2E2E2E2E2E2E2E2E2E2E2E2E2E2E2E2E2E2E2E2E2E2E2E2E2E2E2E2E2E2E2E2E2E2E2E2E2E2E2E2E2E2E2E2E2E2E2E2E2E2E2E2E2E2E2
310
E2E2E2E2E2E2E2E2E2E2E2E2E2E2E2E2E2E2E2E2E2E2E2E2E2E2E2E2E2E2E2E2E2E2E2E2E2E2E2E2E2E2E2E2E2E2E2E2E2E2E2E2E2E2E2E2E2E2E2E2E2E2E2E2E2E2E2E2E2E2E2E2E2E2E2E2E2E2E2E2E2E2E2E2E2E2E2E2E2E2E2E2E2E2E2E2E2E2E2E2E2E2E2E2E2E2E2E2E2E2E2E2E2E2E2E2E2E2E2E2E2E2E2E2E2E2E2
310
E2E2E2E2E2E2E2E2E2E2E2E2E2E2E2E2E2E2E2E2E2E2E2E2E2E2E2E2E2E2E2E2E2E2E2E2E2E2E2E2E2E2E2E2E2E2E2E2E2E2E2E2E2E2E2E2E2E2E2E2E2E2E2E2E2E2E2E2E2E2E2E2E2E2E2E2E2E2E2E2E2E2E2E2E2E2E2E2E2E2E2E2E2E2E2E2E2E2E2E2E2E2E2E2E2E2E2E2E2E2E2E2E2E2E2E2E2E2E2E2E2E2E2E2E2E2E2
310
E2E2E2E2E2E2E2E2E2E2E2E2E2E2E2E2E2E2E2E2E2E2E2E2E2E2E2E2E2E2E2E2E2E2E2E2E2E2E2E2E2E2E2E2E2E2E2E2E2E2E2E2E2E2E2E2E2E2E2E2E2E2E2E2E2E2E2E2E2E2E2E2E2E2E2E2E2E2E2E2E2E2E2E2E2E2E2E2E2E2E2E2E2E2E2E2E2E2E2E2E2E2E2E2E2E2E2E2E2E2E2E2E2E2E2E2E2E2E2E2E2E2E2E2E2E2E2
310
E2E2E2E2E2E2E2E2E2E2E2E2E2E2E2E2E2E2E2E2E2E2E2E2E2E2E2E2E2E2E2E2E2E2E2E2E2E2E2E2E2E2E2E2E2E2E2E2E2E2E2E2E2E2E2E2E2E2E2E2E2E2E2E2E2E2E2E2E2E2E2E2E2E2E2E2E2E2E2E2E2E2E2E2E2E2E2E2E2E2E2E2E2E2E2E2E2E2E2E2E2E2E2E2E2E2E2E2E2E2E2E2E2E2E2E2E2E2E2E2E2E2E2E2E2E2E2
310
E2E2E2E2E2E2E2E2E2E2E2E2E2E2E2E2E2E2E2E2E2E2E2E2E2E2E2E2E2E2E2E2E2E2E2E2E2E2E2E2E2E2E2E2E2E2E2E2E2E2E2E2E2E2E2E2E2E2E2E2E2E2E2E2E2E2E2E2E2E2E2E2E2E2E2E2E2E2E2E2E2E2E2E2E2E2E2E2E2E2E2E2E2E2E2E2E2E2E2E2E2E2E2E2E2E2E2E2E2E2E2E2E2E2E2E2E2E2E2E2E2E2E2E2E2E2E2
310
E2E2E2E2E2E2E2E2E2E2E2E2E2E2E2E2E2E2E2E2E2E2E2E2E2E2E2E2E2E2E2E2E2E2E2E2E2E2E2E2E2E2E2E2E2E2E2E2E2E2E2E2E2E2E2E2E2E2E2E2E2E2E2E2E2E2E2E2E2E2E2E2E2E2E2E2E2E2E2E2E2E2E2E2E2E2E2E2E2E2E2E2E2E2E2E2E2E2E2E2E2E2E2E2E2E2E2E2E2E2E2E2E2E2E2E2E2E2E2E2E2E2E2E2E2E2E2
310
E2E2E2E2E2E2E2E2E2E2E2E2E2E2E2E2E2E2E2E2E2E2E2E2E2E2E2E2E2E2E2E2E2E2E2E2E2E2E2E2E2E2E2E2E2E2E2E2E2E2E2E2E2E2E2E2E2E2E2E2E2E2E2E2E2E2E2E2E2E2E2E2E2E2E2E2E2E2E2E2E2E2E2E2E2E2E2E2E2E2E2E2E2E2E2E2E2E2E2E2E2E2E2E2E2E2E2E2E2E2E2E2E2E2E2E2E2E2E2E2E2E2E2E2E2E2E2
310
E2E2E2E2E2E2E2E2E2E2E2E2E2E2E2E2E2E2E2E2E2E2E2E2E2E2E2E2E2E2E2E2E2E2E2E2E2E2E2E2E2E2E2E2E2E2E2E2E2E2E2E2E2E2E2E2E2E2E2E2E2E2E2E2E2E2E2E2E2E2E2E2E2E2E2E2E2E2E2E2E2E2E2E2E2E2E2E2E2E2E2E2E2E2E2E2E2E2E2E2E2E2E2E2E2E2E2E2E2E2E2E2E2E2E2E2E2E2E2E2E2E2E2E2E2E2E2
310
E2E2E2E2E2E2E2E2E2E2E2E2E2E2E2E2E2E2E2E2E2E2E2E2E2E2E2E2E2E2E2E2E2E2E2E2E2E2E2E2E2E2E2E2E2E2E2E2E2E2E2E2E2E2E2E2E2E2E2E2E2E2E2E2E2E2E2E2E2E2E2E2E2E2E2E2E2E2E2E2E2E2E2E2E2E2E2E2E2E2E2E2E2E2E2E2E2E2E2E2E2E2E2E2E2E2E2E2E2E2E2E2E2E2E2E2E2E2E2E2E2E2E2E2E2E2E2
310
E2E2E2E2E2E2E2E2E2E2E2E2E2E2E2E2E2E2E2E2E2E2E2E2E2E2E2E2E2E2E2E2E2E2E2E2E2E2E2E2E2E2E2E2E2E2E2E2E2E2E2E2E2E2E2E2E2E2E2E2E2E2E2E2E2E2E2E2E2E2E2E2E2E2E2E2E2E2E2E2E2E2E2E2E2E2E2E2E2E2E2E2E2E2E2E2E2E2E2E2E2E2E2E2E2E2E2E2E2E2E2E2E2E2E2E2E2E2E2E2E2E2E2E2E2E2E2
310
E2E2E2E2E2E2E2E2E2E2E2E2E2E2E2E2E2E2E2E2E2E2E2E2E2E2E2E2E2E2E2E2E2E2E2E2E2E2E2E2E2E2E2E2E2E2E2E2E2E2E2E2E2E2E2E2E2E2E2E2E2E2E2E2E2E2E2E2E2E2E2E2E2E2E2E2E2E2E2E2E2E2E2E2E2E2E2E2E2E2E2E2E2E2E2E2E2E2E2E2E2E2E2E2E2E2E2E2E2E2E2E2E2E2E2E2E2E2E2E2E2E2E2E2E2E2E2
310
E2E2E2E2E2E2E2E2E2E2E2E2E2E2E2E2E2E2E2E2E2E2E2E2E2E2E2E2E2E2E2E2E2E2E2E2E2E2E2E2E2E2E2E2E2E2E2E2E2E2E2E2E2E2E2E2E2E2E2E2E2E2E2E2E2E2E2E2E2E2E2E2E2E2E2E2E2E2E2E2E2E2E2E2E2E2E2E2E2E2E2E2E2E2E2E2E2E2E2E2E2E2E2E2E2E2E2E2E2E2E2E2E2E2E2E2E2E2E2E2E2E2E2E2E2E2E2
310
E2E2E2E2E2E2E2E2E2E2E2E2E2E2E2E2E2E2E2E2E2E2E2E2E2E2E2E2E2E2E2E2E2E2E2E2E2E2E2E2E2E2E2E2E2E2E2E2E2E2E2E2E2E2E2E2E2E2E2E2E2E2E2E2E2E2E2E2E2E2E2E2E2E2E2E2E2E2E2E2E2E2E2E2E2E2E2E2E2E2E2E2E2E2E2E2E2E2E2E2E2E2E2E2E2E2E2E2E2E2E2E2E2E2E2E2E2E2E2E2E2E2E2E2E2E2E2
310
E2E2E2E2E2E2E2E2E2E2E2E2E2E2E2E2E2E2E2E2E2E2E2E2E2E2E2E2E2E2E2E2E2E2E2E2E2E2E2E2E2E2E2E2E2E2E2E2E2E2E2E2E2E2E2E2E2E2E2E2E2E2E2E2E2E2E2E2E2E2E2E2E2E2E2E2E2E2E2E2E2E2E2E2E2E2E2E2E2E2E2E2E2E2E2E2E2E2E2E2E2E2E2E2E2E2E2E2E2E2E2E2E2E2E2E2E2E2E2E2E2E2E2E2E2E2E2
310
E2E2E2E2E2E2E2E2E2E2E2E2E2E2E2E2E2E2E2E2E2E2E2E2E2E2E2E2E2E2E2E2E2E2E2E2E2E2E2E2E2E2E2E2E2E2E2E2E2E2E2E2E2E2E2E2E2E2E2E2E2E2E2E2E2E2E2E2E2E2E2E2E2E2E2E2E2E2E2E2E2E2E2E2E2E2E2E2E2E2E2E2E2E2E2E2E2E2E2E2E2E2E2E2E2E2E2E2E2E2E2E2E2E2E2E2E2E2E2E2E2E2E2E2E2E2E2
310
E2E2E2E2E2E2E2E2E2E2E2E2E2E2E2E2E2E2E2E2E2E2E2E2E2E2E2E2E2E2E2E2E2E2E2E2E2E2E2E2E2E2E2E2E2E2E2E2E2E2E2E2E2E2E2E2E2E2E2E2E2E2E2E2E2E2E2E2E2E2E2E2E2E2E2E2E2E2E2E2E2E2E2E2E2E2E2E2E2E2E2E2E2E2E2E2E2E2E2E2E2E2E2E2E2E2E2E2E2E2E2E2E2E2E2E2E2E2E2E2E2E2E2E2E2E2E2
310
E2E2E2E2E2E2E2E2E2E2E2E2E2E2E2E2E2E2E2E2E2E2E2E2E2E2E2E2E2E2E2E2E2E2E2E2E2E2E2E2E2E2E2E2E2E2E2E2E2E2E2E2E2E2E2E2E2E2E2E2E2E2E2E2E2E2E2E2E2E2E2E2E2E2E2E2E2E2E2E2E2E2E2E2E2E2E2E2E2E2E2E2E2E2E2E2E2E2E2E2E2E2E2E2E2E2E2E2E2E2E2E2E2E2E2E2E2E2E2E2E2E2E2E2E2E2E2
310
E2E2E2E2E2E2E2E2E2E2E2E2E2E2E2E2E2E2E2E2E2E2E2E2E2E2E2E2E2E2E2E2E2E2E2E2E2E2E2E2E2E2E2E2E2E2E2E2E2E2E2E2E2E2E2E2E2E2E2E2E2E2E2E2E2E2E2E2E2E2E2E2E2E2E2E2E2E2E2E2E2E2E2E2E2E2E2E2E2E2E2E2E2E2E2E2E2E2E2E2E2E2E2E2E2E2E2E2E2E2E2E2E2E2E2E2E2E2E2E2E2E2E2E2E2E2E2
310
E2E2E2E2E2E2E2E2E2E2E2E2E2E2E2E2E2E2E2E2E2E2E2E2E2E2E2E2E2E2E2E2E2E2E2E2E2E2E2E2E2E2E2E2E2E2E2E2E2E2E2E2E2E2E2E2E2E2E2E2E2E2E2E2E2E2E2E2E2E2E2E2E2E2E2E2E2E2E2E2E2E2E2E2E2E2E2E2E2E2E2E2E2E2E2E2E2E2E2E2E2E2E2E2E2E2E2E2E2E2E2E2E2E2E2E2E2E2E2E2E2E2E2E2E2E2E2
310
E2E2E2E2E2E2E2E2E2E2E2E2E2E2E2E2E2E2E2E2E2E2E2E2E2E2E2E2E2E2E2E2E2E2E2E2E2E2E2E2E2E2E2E2E2E2E2E2E2E2E2E2E2E2E2E2E2E2E2E2E2E2E2E2E2E2E2E2E2E2E2E2E2E2E2E2E2E2E2E2E2E2E2E2E2E2E2E2E2E2E2E2E2E2E2E2E2E2E2E2E2E2E2E2E2E2E2E2E2E2E2E2E2E2E2E2E2E2E2E2E2E2E2E2E2E2E2
310
E2E2E2E2E2E2E2E2E2E2E2E2E2E2E2E2E2E2E2E2E2E2E2E2E2E2E2E2E2E2E2E2E2E2E2E2E2E2E2E2E2E2E2E2E2E2E2E2E2E2E2E2E2E2E2E2E2E2E2E2E2E2E2E2E2E2E2E2E2E2E2E2E2E2E2E2E2E2E2E2E2E2E2E2E2E2E2E2E2E2E2E2E2E2E2E2E2E2E2E2E2E2E2E2E2E2E2E2E2E2E2E2E2E2E2E2E2E2E2E2E2E2E2E2E2E2E2
310
E2E2E2E2E2E2E2E2E2E2E2E2E2E2E2E2E2E2E2E2E2E2E2E2E2E2E2E2E2E2E2E2E2E2E2E2E2E2E2E2E2E2E2E2E2E2E2E2E2E2E2E2E2E2E2E2E2E2E2E2E2E2E2E2E2E2E2E2E2E2E2E2E2E2E2E2E2E2E2E2E2E2E2E2E2E2E2E2E2E2E2E2E2E2E2E2E2E2E2E2E2E2E2E2E2E2E2E2E2E2E2E2E2E2E2E2E2E2E2E2E2E2E2E2E2E2E2
310
E2E2E2E2E2E2E2E2E2E2E2E2E2E2E2E2E2E2E2E2E2E2E2E2E2E2E2E2E2E2E2E2E2E2E2E2E2E2E2E2E2E2E2E2E2E2E2E2E2E2E2E2E2E2E2E2E2E2E2E2E2E2E2E2E2E2E2E2E2E2E2E2E2E2E2E2E2E2E2E2E2E2E2E2E2E2E2E2E2E2E2E2E2E2E2E2E2E2E2E2E2E2E2E2E2E2E2E2E2E2E2E2E2E2E2E2E2E2E2E2E2E2E2E2E2E2E2
310
E2E2E2E2E2E2E2E2E2E2E2E2E2E2E2E2E2E2E2E2E2E2E2E2E2E2E2E2E2E2E2E2E2E2E2E2E2E2E2E2E2E2E2E2E2E2E2E2E2E2E2E2E2E2E2E2E2E2E2E2E2E2E2E2E2E2E2E2E2E2E2E2E2E2E2E2E2E2E2E2E2E2E2E2E2E2E2E2E2E2E2E2E2E2E2E2E2E2E2E2E2E2E2E2E2E2E2E2E2E2E2E2E2E2E2E2E2E2E2E2E2E2E2E2E2E2E2
310
E2E2E2E2E2E2E2E2E2E2E2E2E2E2E2E2E2E2E2E2E2E2E2E2E2E2E2E2E2E2E2E2E2E2E2E2E2E2E2E2E2E2E2E2E2E2E2E2E2E2E2E2E2E2E2E2E2E2E2E2E2E2E2E2E2E2E2E2E2E2E2E2E2E2E2E2E2E2E2E2E2E2E2E2E2E2E2E2E2E2E2E2E2E2E2E2E2E2E2E2E2E2E2E2E2E2E2E2E2E2E2E2E2E2E2E2E2E2E2E2E2E2E2E2E2E2E2
310
E2E2E2E2E2E2E2E2E2E2E2E2E2E2E2E2E2E2E2E2E2E2E2E2E2E2E2E2E2E2E2E2E2E2E2E2E2E2E2E2E2E2E2E2E2E2E2E2E2E2E2E2E2E2E2E2E2E2E2E2E2E2E2E2E2E2E2E2E2E2E2E2E2E2E2E2E2E2E2E2E2E2E2E2E2E2E2E2E2E2E2E2E2E2E2E2E2E2E2E2E2E2E2E2E2E2E2E2E2E2E2E2E2E2E2E2E2E2E2E2E2E2E2E2E2E2E2
310
E2E2E2E2E2E2E2E2E2E2E2E2E2E2E2E2E2E2E2E2E2E2E2E2E2E2E2E2E2E2E2E2E2E2E2E2E2E2E2E2E2E2E2E2E2E2E2E2E2E2E2E2E2E2E2E2E2E2E2E2E2E2E2E2E2E2E2E2E2E2E2E2E2E2E2E2E2E2E2E2E2E2E2E2E2E2E2E2E2E2E2E2E2E2E2E2E2E2E2E2E2E2E2E2E2E2E2E2E2E2E2E2E2E2E2E2E2E2E2E2E2E2E2E2E2E2E2
310
E2E2E2E2E2E2E2E2E2E2E2E2E2E2E2E2E2E2E2E2E2E2E2E2E2E2E2E2E2E2E2E2E2E2E2E2E2E2E2E2E2E2E2E2E2E2E2E2E2E2E2E2E2E2E2E2E2E2E2E2E2E2E2E2E2E2E2E2E2E2E2E2E2E2E2E2E2E2E2E2E2E2E2E2E2E2E2E2E2E2E2E2E2E2E2E2E2E2E2E2E2E2E2E2E2E2E2E2E2E2E2E2E2E2E2E2E2E2E2E2E2E2E2E2E2E2E2
310
E2E2E2E2E2E2E2E2E2E2E2E2E2E2E2E2E2E2E2E2E2E2E2E2E2E2E2E2E2E2E2E2E2E2E2E2E2E2E2E2E2E2E2E2E2E2E2E2E2E2E2E2E2E2E2E2E2E2E2E2E2E2E2E2E2E2E2E2E2E2E2E2E2E2E2E2E2E2E2E2E2E2E2E2E2E2E2E2E2E2E2E2E2E2E2E2E2E2E2E2E2E2E2E2E2E2E2E2E2E2E2E2E2E2E2E2E2E2E2E2E2E2E2E2E2E2E2
310
E2E2E2E2E2E2E2E2E2E2E2E2E2E2E2E2E2E2E2E2E2E2E2E2E2E2E2E2E2E2E2E2E2E2E2E2E2E2E2E2E2E2E2E2E2E2E2E2E2E2E2E2E2E2E2E2E2E2E2E2E2E2E2E2E2E2E2E2E2E2E2E2E2E2E2E2E2E2E2E2E2E2E2E2E2E2E2E2E2E2E2E2E2E2E2E2E2E2E2E2E2E2E2E2E2E2E2E2E2E2E2E2E2E2E2E2E2E2E2E2E2E2E2E2E2E2E2
310
E2E2E2E2E2E2E2E2E2E2E2E2E2E2E2E2E2E2E2E2E2E2E2E2E2E2E2E2E2E2E2E2E2E2E2E2E2E2E2E2E2E2E2E2E2E2E2E2E2E2E2E2E2E2E2E2E2E2E2E2E2E2E2E2E2E2E2E2E2E2E2E2E2E2E2E2E2E2E2E2E2E2E2E2E2E2E2E2E2E2E2E2E2E2E2E2E2E2E2E2E2E2E2E2E2E2E2E2E2E2E2E2E2E2E2E2E2E2E2E2E2E2E2E2E2E2E2
310
E2E2E2E2E2E2E2E2E2E2E2E2E2E2E2E2E2E2E2E2E2E2E2E2E2E2E2E2E2E2E2E2E2E2E2E2E2E2E2E2E2E2E2E2E2E2E2E2E2E2E2E2E2E2E2E2E2E2E2E2E2E2E2E2E2E2E2E2E2E2E2E2E2E2E2E2E2E2E2E2E2E2E2E2E2E2E2E2E2E2E2E2E2E2E2E2E2E2E2E2E2E2E2E2E2E2E2E2E2E2E2E2E2E2E2E2E2E2E2E2E2E2E2E2E2E2E2
310
E2E2E2E2E2E2E2E2E2E2E2E2E2E2E2E2E2E2E2E2E2E2E2E2E2E2E2E2E2E2E2E2E2E2E2E2E2E2E2E2E2E2E2E2E2E2E2E2E2E2E2E2E2E2E2E2E2E2E2E2E2E2E2E2E2E2E2E2E2E2E2E2E2E2E2E2E2E2E2E2E2E2E2E2E2E2E2E2E2E2E2E2E2E2E2E2E2E2E2E2E2E2E2E2E2E2E2E2E2E2E2E2E2E2E2E2E2E2E2E2E2E2E2E2E2E2E2
310
E2E2E2E2E2E2E2E2E2E2E2E2E2E2E2E2E2E2E2E2E2E2E2E2E2E2E2E2E2E2E2E2E2E2E2E2E2E2E2E2E2E2E2E2E2E2E2E2E2E2E2E2E2E2E2E2E2E2E2E2E2E2E2E2E2E2E2E2E2E2E2E2E2E2E2E2E2E2E2E2E2E2E2E2E2E2E2E2E2E2E2E2E2E2E2E2E2E2E2E2E2E2E2E2E2E2E2E2E2E2E2E2E2E2E2E2E2E2E2E2E2E2E2E2E2E2E2
310
E2E2E2E2E2E2E2E2E2E2E2E2E2E2E2E2E2E2E2E2E2E2E2E2E2E2E2E2E2E2E2E2E2E2E2E2E2E2E2E2E2E2E2E2E2E2E2E2E2E2E2E2E2E2E2E2E2E2E2E2E2E2E2E2E2E2E2E2E2E2E2E2E2E2E2E2E2E2E2E2E2E2E2E2E2E2E2E2E2E2E2E2E2E2E2E2E2E2E2E2E2E2E2E2E2E2E2E2E2E2E2E2E2E2E2E2E2E2E2E2E2E2E2E2E2E2E2
310
E2E2E2E2E2E2E2E2E2E2E2E2E2E2E2E2E2E2E2E2E2E2E2E2E2E2E2E2E2E2E2E2E2E2E2E2E2E2E2E2E2E2E2E2E2E2E2E2E2E2E2E2E2E2E2E2E2E2E2E2E2E2E2E2E2E2E2E2E2E2E2E2E2E2E2E2E2E2E2E2E2E2E2E2E2E2E2E2E2E2E2E2E2E2E2E2E2E2E2E2E2E2E2E2E2E2E2E2E2E2E2E2E2E2E2E2E2E2E2E2E2E2E2E2E2E2E2
310
E2E2E2E2E2E2E2E2E2E2E2E2E2E2E2E2E2E2E2E2E2E2E2E2E2E2E2E2E2E2E2E2E2E2E2E2E2E2E2E2E2E2E2E2E2E2E2E2E2E2E2E2E2E2E2E2E2E2E2E2E2E2E2E2E2E2E2E2E2E2E2E2E2E2E2E2E2E2E2E2E2E2E2E2E2E2E2E2E2E2E2E2E2E2E2E2E2E2E2E2E2E2E2E2E2E2E2E2E2E2E2E2E2E2E2E2E2E2E2E2E2E2E2E2E2E2E2
310
E2E2E2E2E2E2E2E2E2E2E2E2E2E2E2E2E2E2E2E2E2E2E2E2E2E2E2E2E2E2E2E2E2E2E2E2E2E2E2E2E2E2E2E2E2E2E2E2E2E2E2E2E2E2E2E2E2E2E2E2E2E2E2E2E2E2E2E2E2E2E2E2E2E2E2E2E2E2E2E2E2E2E2E2E2E2E2E2E2E2E2E2E2E2E2E2E2E2E2E2E2E2E2E2E2E2E2E2E2E2E2E2E2E2E2E2E2E2E2E2E2E2E2E2E2E2E2
310
E2E2E2E2E2E2E2E2E2E2E2E2E2E2E2E2E2E2E2E2E2E2E2E2E2E2E2E2E2E2E2E2E2E2E2E2E2E2E2E2E2E2E2E2E2E2E2E2E2E2E2E2E2E2E2E2E2E2E2E2E2E2E2E2E2E2E2E2E2E2E2E2E2E2E2E2E2E2E2E2E2E2E2E2E2E2E2E2E2E2E2E2E2E2E2E2E2E2E2E2E2E2E2E2E2E2E2E2E2E2E2E2E2E2E2E2E2E2E2E2E2E2E2E2E2E2E2
310
E2E2E2E2E2E2E2E2E2E2E2E2E2E2E2E2E2E2E2E2E2E2E2E2E2E2E2E2E2E2E2E2E2E2E2E2E2E2E2E2E2E2E2E2E2E2E2E2E2E2E2E2E2E2E2E2E2E2E2E2E2E2E2E2E2E2E2E2E2E2E2E2E2E2E2E2E2E2E2E2E2E2E2E2E2E2E2E2E2E2E2E2E2E2E2E2E2E2E2E2E2E2E2E2E2E2E2E2E2E2E2E2E2E2E2E2E2E2E2E2E2E2E2E2E2E2E2
310
E2E2E2E2E2E2E2E2E2E2E2E2E2E2E2E2E2E2E2E2E2E2E2E2E2E2E2E2E2E2E2E2E2E2E2E2E2E2E2E2E2E2E2E2E2E2E2E2E2E2E2E2E2E2E2E2E2E2E2E2E2E2E2E2E2E2E2E2E2E2E2E2E2E2E2E2E2E2E2E2E2E2E2E2E2E2E2E2E2E2E2E2E2E2E2E2E2E2E2E2E2E2E2E2E2E2E2E2E2E2E2E2E2E2E2E2E2E2E2E2E2E2E2E2E2E2E2
310
E2E2E2E2E2E2E2E2E2E2E2E2E2E2E2E2E2E2E2E2E2E2E2E2E2E2E2E2E2E2E2E2E2E2E2E2E2E2E2E2E2E2E2E2E2E2E2E2E2E2E2E2E2E2E2E2E2E2E2E2E2E2E2E2E2E2E2E2E2E2E2E2E2E2E2E2E2E2E2E2E2E2E2E2E2E2E2E2E2E2E2E2E2E2E2E2E2E2E2E2E2E2E2E2E2E2E2E2E2E2E2E2E2E2E2E2E2E2E2E2E2E2E2E2E2E2E2
310
E2E2E2E2E2E2E2E2E2E2E2E2E2E2E2E2E2E2E2E2E2E2E2E2E2E2E2E2E2E2E2E2E2E2E2E2E2E2E2E2E2E2E2E2E2E2E2E2E2E2E2E2E2E2E2E2E2E2E2E2E2E2E2E2E2E2E2E2E2E2E2E2E2E2E2E2E2E2E2E2E2E2E2E2E2E2E2E2E2E2E2E2E2E2E2E2E2E2E2E2E2E2E2E2E2E2E2E2E2E2E2E2E2E2E2E2E2E2E2E2E2E2E2E2E2E2E2
310
E2E2E2E2E2E2E2E2E2E2E2E2E2E2E2E2E2E2E2E2E2E2E2E2E2E2E2E2E2E2E2E2E2E2E2E2E2E2E2E2E2E2E2E2E2E2E2E2E2E2E2E2E2E2E2E2E2E2E2E2E2E2E2E2E2E2E2E2E2E2E2E2E2E2E2E2E2E2E2E2E2E2E2E2E2E2E2E2E2E2E2E2E2E2E2E2E2E2E2E2E2E2E2E2E2E2E2E2E2E2E2E2E2E2E2E2E2E2E2E2E2E2E2E2E2E2E2
310
E2E2E2E2E2E2E2E2E2E2E2E2E2E2E2E2E2E2E2E2E2E2E2E2E2E2E2E2E2E2E2E2E2E2E2E2E2E2E2E2E2E2E2E2E2E2E2E2E2E2E2E2E2E2E2E2E2E2E2E2E2E2E2E2E2E2E2E2E2E2E2E2E2E2E2E2E2E2E2E2E2E2E2E2E2E2E2E2E2E2E2E2E2E2E2E2E2E2E2E2E2E2E2E2E2E2E2E2E2E2E2E2E2E2E2E2E2E2E2E2E2E2E2E2E2E2E2
310
E2E2E2E2E2E2E2E2E2E2E2E2E2E2E2E2E2E2E2E2E2E2E2E2E2E2E2E2E2E2E2E2E2E2E2E2E2E2E2E2E2E2E2E2E2E2E2E2E2
  0
XRECORD
  5
2081
102
{ACAD_REACTORS
330
2080
102
}
330
2080
100
AcDbXrecord
280
     1
102
SHADEPLOT
 70
     0
102
SHADEPLOTRESLEVEL
 70
     2
102
SHADEPLOTCUSTOMDPI
 70
   300
  0
XRECORD
  5
2088
102
{ACAD_REACTORS
330
2087
102
}
330
2087
100
AcDbXrecord
280
     1
102
MATERIAL
148
0.0
149
0.0
149
0.0
 93
        0
 94
       63
282
     0
 72
     1
 77
     1
171
     1
175
     1
179
     1
273
     0
  0
XRECORD
  5
2086
102
{ACAD_REACTORS
330
2085
102
}
330
2085
100
AcDbXrecord
280
     1
102
MATERIAL
148
0.0
149
0.0
149
0.0
 93
        0
 94
       63
282
     0
 72
     1
 77
     1
171
     1
175
     1
179
     1
273
     0
  0
XRECORD
  5
208A
102
{ACAD_REACTORS
330
2089
102
}
330
2089
100
AcDbXrecord
280
     1
102
MATERIAL
148
0.0
149
0.0
149
0.0
 93
        0
 94
       63
282
     0
 72
     1
 77
     1
171
     1
175
     1
179
     1
273
     0
  0
XRECORD
  5
207F
102
{ACAD_REACTORS
330
207E
102
}
330
207E
100
AcDbXrecord
280
     1
102
ACAD_ROUNDTRIP_PRE2007_TABLESTYLE
 90
        4
 91
        0
  1

 92
        4
 93
        0
  2

 94
        4
 95
        0
  3

  0
ENDSEC
  0
EOF
