  0
SECTION
  2
HEADER
  9
$ACADVER
  1
AC1018
  9
$ACADMAINTVER
 70
   104
  9
$DWGCODEPAGE
  3
ANSI_1252
  9
$LASTSAVEDBY
  1
jgayle
  9
$INSBASE
 10
0.0
 20
0.0
 30
0.0
  9
$EXTMIN
 10
44.87283400853087
 20
0.7407376651729578
 30
-0.0000000349181948
  9
$EXTMAX
 10
99.58963766534802
 20
73.22240419874481
 30
0.0000000814935746
  9
$LIMMIN
 10
0.0
 20
0.0
  9
$LIMMAX
 10
34.0
 20
22.0
  9
$ORTHOMODE
 70
     0
  9
$REGENMODE
 70
     1
  9
$FILLMODE
 70
     1
  9
$QTEXTMODE
 70
     0
  9
$MIRRTEXT
 70
     1
  9
$LTSCALE
 40
1.0
  9
$ATTMODE
 70
     1
  9
$TEXTSIZE
 40
0.1377952756
  9
$TRACEWID
 40
0.05
  9
$TEXTSTYLE
  7
Standard
  9
$CLAYER
  8
0
  9
$CELTYPE
  6
ByLayer
  9
$CECOLOR
 62
   256
  9
$CELTSCALE
 40
1.0
  9
$DISPSILH
 70
     0
  9
$DIMSCALE
 40
1.0
  9
$DIMASZ
 40
0.13
  9
$DIMEXO
 40
0.0393700787
  9
$DIMDLI
 40
0.38
  9
$DIMRND
 40
0.0
  9
$DIMDLE
 40
0.0
  9
$DIMEXE
 40
0.0393700787
  9
$DIMTP
 40
0.0
  9
$DIMTM
 40
0.0
  9
$DIMTXT
 40
0.1377952756
  9
$DIMCEN
 40
0.09
  9
$DIMTSZ
 40
0.0
  9
$DIMTOL
 70
     0
  9
$DIMLIM
 70
     0
  9
$DIMTIH
 70
     1
  9
$DIMTOH
 70
     1
  9
$DIMSE1
 70
     0
  9
$DIMSE2
 70
     0
  9
$DIMTAD
 70
     1
  9
$DIMZIN
 70
     0
  9
$DIMBLK
  1

  9
$DIMASO
 70
     1
  9
$DIMSHO
 70
     1
  9
$DIMPOST
  1

  9
$DIMAPOST
  1

  9
$DIMALT
 70
     1
  9
$DIMALTD
 70
     2
  9
$DIMALTF
 40
25.4
  9
$DIMLFAC
 40
1.0
  9
$DIMTOFL
 70
     0
  9
$DIMTVP
 40
0.0
  9
$DIMTIX
 70
     0
  9
$DIMSOXD
 70
     0
  9
$DIMSAH
 70
     0
  9
$DIMBLK1
  1

  9
$DIMBLK2
  1

  9
$DIMSTYLE
  2
Standard
  9
$DIMCLRD
 70
     0
  9
$DIMCLRE
 70
     0
  9
$DIMCLRT
 70
     0
  9
$DIMTFAC
 40
1.0
  9
$DIMGAP
 40
0.06
  9
$DIMJUST
 70
     0
  9
$DIMSD1
 70
     0
  9
$DIMSD2
 70
     0
  9
$DIMTOLJ
 70
     1
  9
$DIMTZIN
 70
     0
  9
$DIMALTZ
 70
     0
  9
$DIMALTTZ
 70
     0
  9
$DIMUPT
 70
     0
  9
$DIMDEC
 70
     2
  9
$DIMTDEC
 70
     2
  9
$DIMALTU
 70
     2
  9
$DIMALTTD
 70
     2
  9
$DIMTXSTY
  7
Standard
  9
$DIMAUNIT
 70
     0
  9
$DIMADEC
 70
     2
  9
$DIMALTRND
 40
0.0
  9
$DIMAZIN
 70
     0
  9
$DIMDSEP
 70
    46
  9
$DIMATFIT
 70
     3
  9
$DIMFRAC
 70
     0
  9
$DIMLDRBLK
  1

  9
$DIMLUNIT
 70
     2
  9
$DIMLWD
 70
    -2
  9
$DIMLWE
 70
    -2
  9
$DIMTMOVE
 70
     0
  9
$LUNITS
 70
     2
  9
$LUPREC
 70
     2
  9
$SKETCHINC
 40
0.1
  9
$FILLETRAD
 40
0.5
  9
$AUNITS
 70
     0
  9
$AUPREC
 70
     2
  9
$MENU
  1
.
  9
$ELEVATION
 40
0.0
  9
$PELEVATION
 40
0.0
  9
$THICKNESS
 40
0.0
  9
$LIMCHECK
 70
     0
  9
$CHAMFERA
 40
0.0
  9
$CHAMFERB
 40
0.0
  9
$CHAMFERC
 40
0.0
  9
$CHAMFERD
 40
0.0
  9
$SKPOLY
 70
     0
  9
$TDCREATE
 40
2457827.621305243
  9
$TDUCREATE
 40
2457827.787971910
  9
$TDUPDATE
 40
2457827.626340197
  9
$TDUUPDATE
 40
2457827.793006863
  9
$TDINDWG
 40
0.0045589120
  9
$TDUSRTIMER
 40
0.0045567130
  9
$USRTIMER
 70
     1
  9
$ANGBASE
 50
0.0
  9
$ANGDIR
 70
     0
  9
$PDMODE
 70
     0
  9
$PDSIZE
 40
-1.0
  9
$PLINEWID
 40
0.0
  9
$SPLFRAME
 70
     0
  9
$SPLINETYPE
 70
     6
  9
$SPLINESEGS
 70
     8
  9
$HANDSEED
  5
42C
  9
$SURFTAB1
 70
     6
  9
$SURFTAB2
 70
     6
  9
$SURFTYPE
 70
     6
  9
$SURFU
 70
     6
  9
$SURFV
 70
     6
  9
$UCSBASE
  2

  9
$UCSNAME
  2

  9
$UCSORG
 10
0.0
 20
0.0
 30
0.0
  9
$UCSXDIR
 10
1.0
 20
0.0
 30
0.0
  9
$UCSYDIR
 10
0.0
 20
1.0
 30
0.0
  9
$UCSORTHOREF
  2

  9
$UCSORTHOVIEW
 70
     0
  9
$UCSORGTOP
 10
0.0
 20
0.0
 30
0.0
  9
$UCSORGBOTTOM
 10
0.0
 20
0.0
 30
0.0
  9
$UCSORGLEFT
 10
0.0
 20
0.0
 30
0.0
  9
$UCSORGRIGHT
 10
0.0
 20
0.0
 30
0.0
  9
$UCSORGFRONT
 10
0.0
 20
0.0
 30
0.0
  9
$UCSORGBACK
 10
0.0
 20
0.0
 30
0.0
  9
$PUCSBASE
  2

  9
$PUCSNAME
  2

  9
$PUCSORG
 10
0.0
 20
0.0
 30
0.0
  9
$PUCSXDIR
 10
1.0
 20
0.0
 30
0.0
  9
$PUCSYDIR
 10
0.0
 20
1.0
 30
0.0
  9
$PUCSORTHOREF
  2

  9
$PUCSORTHOVIEW
 70
     0
  9
$PUCSORGTOP
 10
0.0
 20
0.0
 30
0.0
  9
$PUCSORGBOTTOM
 10
0.0
 20
0.0
 30
0.0
  9
$PUCSORGLEFT
 10
0.0
 20
0.0
 30
0.0
  9
$PUCSORGRIGHT
 10
0.0
 20
0.0
 30
0.0
  9
$PUCSORGFRONT
 10
0.0
 20
0.0
 30
0.0
  9
$PUCSORGBACK
 10
0.0
 20
0.0
 30
0.0
  9
$USERI1
 70
     0
  9
$USERI2
 70
     0
  9
$USERI3
 70
     0
  9
$USERI4
 70
     0
  9
$USERI5
 70
     0
  9
$USERR1
 40
0.0
  9
$USERR2
 40
0.0
  9
$USERR3
 40
0.0
  9
$USERR4
 40
0.0
  9
$USERR5
 40
0.0
  9
$WORLDVIEW
 70
     1
  9
$SHADEDGE
 70
     3
  9
$SHADEDIF
 70
    70
  9
$TILEMODE
 70
     1
  9
$MAXACTVP
 70
    64
  9
$PINSBASE
 10
0.0
 20
0.0
 30
0.0
  9
$PLIMCHECK
 70
     0
  9
$PEXTMIN
 10
1.000000000000000E+20
 20
1.000000000000000E+20
 30
1.000000000000000E+20
  9
$PEXTMAX
 10
-1.000000000000000E+20
 20
-1.000000000000000E+20
 30
-1.000000000000000E+20
  9
$PLIMMIN
 10
0.0
 20
0.0
  9
$PLIMMAX
 10
12.0
 20
9.0
  9
$UNITMODE
 70
     0
  9
$VISRETAIN
 70
     1
  9
$PLINEGEN
 70
     0
  9
$PSLTSCALE
 70
     1
  9
$TREEDEPTH
 70
  3020
  9
$CMLSTYLE
  2
Standard
  9
$CMLJUST
 70
     0
  9
$CMLSCALE
 40
1.0
  9
$PROXYGRAPHICS
 70
     1
  9
$MEASUREMENT
 70
     0
  9
$CELWEIGHT
370
    -1
  9
$ENDCAPS
280
     0
  9
$JOINSTYLE
280
     0
  9
$LWDISPLAY
290
     1
  9
$INSUNITS
 70
     1
  9
$HYPERLINKBASE
  1

  9
$STYLESHEET
  1

  9
$XEDIT
290
     1
  9
$CEPSNTYPE
380
     0
  9
$PSTYLEMODE
290
     1
  9
$FINGERPRINTGUID
  2
{931EBD6F-B252-4CB4-A8BF-5D103EF2A795}
  9
$VERSIONGUID
  2
{B30EAD3A-2517-42D0-B9F1-4AC5D78CA802}
  9
$EXTNAMES
290
     1
  9
$PSVPSCALE
 40
0.0
  9
$OLESTARTUP
290
     0
  9
$SORTENTS
280
   127
  9
$INDEXCTL
280
     0
  9
$HIDETEXT
280
     0
  9
$XCLIPFRAME
290
     0
  9
$HALOGAP
280
     0
  9
$OBSCOLOR
 70
   257
  9
$OBSLTYPE
280
     0
  9
$INTERSECTIONDISPLAY
280
     0
  9
$INTERSECTIONCOLOR
 70
   257
  9
$DIMASSOC
280
     1
  9
$PROJECTNAME
  1

  0
ENDSEC
  0
SECTION
  2
CLASSES
  0
CLASS
  1
ACDBDICTIONARYWDFLT
  2
AcDbDictionaryWithDefault
  3
ObjectDBX Classes
 90
        0
 91
        1
280
     0
281
     0
  0
CLASS
  1
VISUALSTYLE
  2
AcDbVisualStyle
  3
ObjectDBX Classes
 90
     4095
 91
       24
280
     0
281
     0
  0
CLASS
  1
MATERIAL
  2
AcDbMaterial
  3
ObjectDBX Classes
 90
     1153
 91
        3
280
     0
281
     0
  0
CLASS
  1
SCALE
  2
AcDbScale
  3
ObjectDBX Classes
 90
     1153
 91
       33
280
     0
281
     0
  0
CLASS
  1
SUN
  2
AcDbSun
  3
SCENEOE
 90
     1153
 91
        0
280
     0
281
     0
  0
CLASS
  1
TABLESTYLE
  2
AcDbTableStyle
  3
ObjectDBX Classes
 90
     4095
 91
        1
280
     0
281
     0
  0
CLASS
  1
MLEADERSTYLE
  2
AcDbMLeaderStyle
  3
ACDB_MLEADERSTYLE_CLASS
 90
     4095
 91
        1
280
     0
281
     0
  0
CLASS
  1
DICTIONARYVAR
  2
AcDbDictionaryVar
  3
ObjectDBX Classes
 90
        0
 91
        4
280
     0
281
     0
  0
CLASS
  1
CELLSTYLEMAP
  2
AcDbCellStyleMap
  3
ObjectDBX Classes
 90
     1152
 91
        2
280
     0
281
     0
  0
ENDSEC
  0
SECTION
  2
TABLES
  0
TABLE
  2
VPORT
  5
8
330
0
100
AcDbSymbolTable
 70
     1
  0
VPORT
  5
29
330
8
100
AcDbSymbolTableRecord
100
AcDbViewportTableRecord
  2
*Active
 70
     0
 10
0.0
 20
0.0
 11
1.0
 21
1.0
 12
72.23123583693944
 22
36.98157093195888
 13
0.0
 23
0.0
 14
0.5
 24
0.5
 15
0.5
 25
0.5
 16
0.0
 26
0.0
 36
1.0
 17
0.0
 27
0.0
 37
0.0
 40
73.00186988189892
 41
2.132934131736527
 42
50.0
 43
0.0
 44
0.0
 50
0.0
 51
0.0
 71
     0
 72
  2000
 73
     1
 74
     3
 75
     0
 76
     0
 77
     0
 78
     0
281
     0
 65
     1
110
0.0
120
0.0
130
0.0
111
1.0
121
0.0
131
0.0
112
0.0
122
1.0
132
0.0
 79
     0
146
0.0
1001
ACAD_NAV_VCDISPLAY
1070
     3
  0
ENDTAB
  0
TABLE
  2
LTYPE
  5
5
330
0
100
AcDbSymbolTable
 70
     6
  0
LTYPE
  5
14
330
5
100
AcDbSymbolTableRecord
100
AcDbLinetypeTableRecord
  2
ByBlock
 70
     0
  3

 72
    65
 73
     0
 40
0.0
  0
LTYPE
  5
15
330
5
100
AcDbSymbolTableRecord
100
AcDbLinetypeTableRecord
  2
ByLayer
 70
     0
  3

 72
    65
 73
     0
 40
0.0
  0
LTYPE
  5
16
330
5
100
AcDbSymbolTableRecord
100
AcDbLinetypeTableRecord
  2
Continuous
 70
     0
  3
Solid line
 72
    65
 73
     0
 40
0.0
  0
ENDTAB
  0
TABLE
  2
LAYER
  5
2
102
{ACAD_XDICTIONARY
360
3A7
102
}
330
0
100
AcDbSymbolTable
 70
     3
  0
LAYER
  5
10
102
{ACAD_XDICTIONARY
360
3A0
102
}
330
2
100
AcDbSymbolTableRecord
100
AcDbLayerTableRecord
  2
0
 70
     0
 62
     7
  6
Continuous
370
    -3
390
F
  0
LAYER
  5
354
330
2
100
AcDbSymbolTableRecord
100
AcDbLayerTableRecord
  2
Defpoints
 70
     0
 62
     7
  6
Continuous
290
     0
370
    -3
390
F
  0
ENDTAB
  0
TABLE
  2
STYLE
  5
3
330
0
100
AcDbSymbolTable
 70
     4
  0
STYLE
  5
11
330
3
100
AcDbSymbolTableRecord
100
AcDbTextStyleTableRecord
  2
Standard
 70
     0
 40
0.0
 41
1.0
 50
0.0
 71
     0
 42
0.1377952756
  3
txt
  4

  0
ENDTAB
  0
TABLE
  2
VIEW
  5
6
330
0
100
AcDbSymbolTable
 70
     2
  0
ENDTAB
  0
TABLE
  2
UCS
  5
7
330
0
100
AcDbSymbolTable
 70
     0
  0
ENDTAB
  0
TABLE
  2
APPID
  5
9
330
0
100
AcDbSymbolTable
 70
     5
  0
APPID
  5
12
330
9
100
AcDbSymbolTableRecord
100
AcDbRegAppTableRecord
  2
ACAD
 70
     0
  0
APPID
  5
361
330
9
100
AcDbSymbolTableRecord
100
AcDbRegAppTableRecord
  2
ACAD_DSTYLE_DIMJAG
 70
     0
  0
APPID
  5
362
330
9
100
AcDbSymbolTableRecord
100
AcDbRegAppTableRecord
  2
ACAD_DSTYLE_DIMTALN
 70
     0
  0
APPID
  5
3B4
330
9
100
AcDbSymbolTableRecord
100
AcDbRegAppTableRecord
  2
ACAD_NAV_VCDISPLAY
 70
     0
  0
APPID
  5
42B
330
9
100
AcDbSymbolTableRecord
100
AcDbRegAppTableRecord
  2
ACAD_MLEADERVER
 70
     0
  0
ENDTAB
  0
TABLE
  2
DIMSTYLE
  5
A
330
0
100
AcDbSymbolTable
 70
     1
100
AcDbDimStyleTable
 71
     1
340
27
  0
DIMSTYLE
105
27
330
A
100
AcDbSymbolTableRecord
100
AcDbDimStyleTableRecord
  2
Standard
 70
     0
340
11
  0
ENDTAB
  0
TABLE
  2
BLOCK_RECORD
  5
1
330
0
100
AcDbSymbolTable
 70
     6
  0
BLOCK_RECORD
  5
1F
330
1
100
AcDbSymbolTableRecord
100
AcDbBlockTableRecord
  2
*Model_Space
340
22
  0
BLOCK_RECORD
  5
1B
330
1
100
AcDbSymbolTableRecord
100
AcDbBlockTableRecord
  2
*Paper_Space
340
1E
  0
BLOCK_RECORD
  5
23
330
1
100
AcDbSymbolTableRecord
100
AcDbBlockTableRecord
  2
*Paper_Space0
340
26
  0
ENDTAB
  0
ENDSEC
  0
SECTION
  2
BLOCKS
  0
BLOCK
  5
20
330
1F
100
AcDbEntity
  8
0
100
AcDbBlockBegin
  2
*Model_Space
 70
     0
 10
0.0
 20
0.0
 30
0.0
  3
*Model_Space
  1
*Model_Space
  0
ENDBLK
  5
21
330
1F
100
AcDbEntity
  8
0
100
AcDbBlockEnd
  0
BLOCK
  5
1C
330
1B
100
AcDbEntity
 67
     1
  8
0
100
AcDbBlockBegin
  2
*Paper_Space
 70
     0
 10
0.0
 20
0.0
 30
0.0
  3
*Paper_Space
  1
*Paper_Space
  0
ENDBLK
  5
1D
330
1B
100
AcDbEntity
 67
     1
  8
0
100
AcDbBlockEnd
  0
BLOCK
  5
24
330
23
100
AcDbEntity
 67
     1
  8
0
100
AcDbBlockBegin
  2
*Paper_Space0
 70
     0
 10
0.0
 20
0.0
 30
0.0
  3
*Paper_Space0
  1
*Paper_Space0
  0
ENDBLK
  5
25
330
23
100
AcDbEntity
 67
     1
  8
0
100
AcDbBlockEnd
  0
ENDSEC
  0
SECTION
  2
ENTITIES
  0
LINE
  5
12C
330
1F
100
AcDbEntity
  8
0
  6
Continuous
 62
     7
370
    15
100
AcDbLine
 10
77.02005812369932
 20
20.03069309579894
 30
0.0
 11
77.02005812369932
 21
20.07006318129894
 31
0.0
  0
LINE
  5
12D
330
1F
100
AcDbEntity
  8
0
  6
Continuous
 62
     7
370
    15
100
AcDbLine
 10
68.75234184619936
 20
20.07006318129894
 30
0.0
 11
68.75234184619936
 21
20.03069309579894
 31
0.0
  0
LINE
  5
12E
330
1F
100
AcDbEntity
  8
0
  6
Continuous
 62
     7
370
    15
100
AcDbLine
 10
73.60377588869934
 20
20.03069309579894
 30
0.0
 11
73.60377588869934
 21
20.07006318129894
 31
0.0
  0
LINE
  5
12F
330
1F
100
AcDbEntity
  8
0
  6
Continuous
 62
     7
370
    15
100
AcDbLine
 10
72.42267351619933
 20
20.07006318129894
 30
0.0
 11
72.42267351619933
 21
20.03069309579894
 31
0.0
  0
LINE
  5
130
330
1F
100
AcDbEntity
  8
0
  6
Continuous
 62
     7
370
    15
100
AcDbLine
 10
74.62762096119934
 20
20.07006318129894
 30
0.0
 11
74.62762096119934
 21
20.03069309579894
 31
0.0
  0
LINE
  5
131
330
1F
100
AcDbEntity
  8
0
  6
Continuous
 62
     7
370
    15
100
AcDbLine
 10
71.05755954969933
 20
20.03069309579894
 30
0.0
 11
71.05755954969933
 21
20.07006318129894
 31
0.0
  0
LINE
  5
132
330
1F
100
AcDbEntity
  8
0
  6
Continuous
 62
     7
370
    15
100
AcDbLine
 10
71.00917946869936
 20
20.03069309579894
 30
0.0
 11
71.00917946869936
 21
20.07006318129894
 31
0.0
  0
LINE
  5
133
330
1F
100
AcDbEntity
  8
0
  6
Continuous
 62
     7
370
    15
100
AcDbLine
 10
69.82807720619934
 20
20.07006318129894
 30
0.0
 11
69.82807720619934
 21
20.03069309579894
 31
0.0
  0
LINE
  5
134
330
1F
100
AcDbEntity
  8
0
  6
Continuous
 62
     7
370
    15
100
AcDbLine
 10
75.99399525669935
 20
20.03069309579894
 30
0.0
 11
75.99399525669935
 21
20.07006318129894
 31
0.0
  0
LINE
  5
135
330
1F
100
AcDbEntity
  8
0
  6
Continuous
 62
     7
370
    15
100
AcDbLine
 10
74.81289284769935
 20
20.07006318129894
 30
0.0
 11
74.81289284769935
 21
20.03069309579894
 31
0.0
  0
LINE
  5
136
330
1F
100
AcDbEntity
  8
0
  6
Continuous
 62
     7
370
    15
100
AcDbLine
 10
72.29564881719935
 20
20.07006318129894
 30
0.0
 11
72.29564881719935
 21
20.03069309579894
 31
0.0
  0
ARC
  5
137
330
1F
100
AcDbEntity
  8
0
  6
Continuous
 62
     7
370
    15
100
AcDbCircle
 10
78.35864092969933
 20
47.99132302479894
 30
0.0
 40
0.0314960629921315
100
AcDbArc
 50
0.0
 51
90.0
  0
ARC
  5
138
330
1F
100
AcDbEntity
  8
0
  6
Continuous
 62
     7
370
    15
100
AcDbCircle
 10
78.20116061469931
 20
47.99132302479894
 30
0.0
 40
0.0314960629921315
100
AcDbArc
 50
90.0
 51
180.0
  0
LINE
  5
139
330
1F
100
AcDbEntity
  8
0
  6
Continuous
 62
     7
370
    15
100
AcDbLine
 10
78.39013688319934
 20
47.76604811629893
 30
0.0
 11
78.39013688319934
 21
47.99132316729894
 31
0.0
  0
LINE
  5
13A
330
1F
100
AcDbEntity
  8
0
  6
Continuous
 62
     7
370
    15
100
AcDbLine
 10
78.16966481669934
 20
47.99132316729894
 30
0.0
 11
78.16966481669934
 21
47.76604811629893
 31
0.0
  0
ARC
  5
13B
330
1F
100
AcDbEntity
  8
0
  6
Continuous
 62
     7
370
    15
100
AcDbCircle
 10
67.57123935519934
 20
47.99132302479894
 30
0.0
 40
0.0314960629921315
100
AcDbArc
 50
0.0
 51
90.0
  0
ARC
  5
13C
330
1F
100
AcDbEntity
  8
0
  6
Continuous
 62
     7
370
    15
100
AcDbCircle
 10
67.41375904019932
 20
47.99132302479894
 30
0.0
 40
0.0314960629921315
100
AcDbArc
 50
90.0
 51
180.0
  0
LINE
  5
13D
330
1F
100
AcDbEntity
  8
0
  6
Continuous
 62
     7
370
    15
100
AcDbLine
 10
67.60273515319934
 20
47.76604811629893
 30
0.0
 11
67.60273515319934
 21
47.99132316729894
 31
0.0
  0
LINE
  5
13E
330
1F
100
AcDbEntity
  8
0
  6
Continuous
 62
     7
370
    15
100
AcDbLine
 10
67.38226308669934
 20
47.99132316729894
 30
0.0
 11
67.38226308669934
 21
47.76604811629893
 31
0.0
  0
LINE
  5
13F
330
1F
100
AcDbEntity
  8
0
  6
Continuous
 62
     7
370
    15
100
AcDbLine
 10
72.49249920619934
 20
47.10086497429894
 30
0.0
 11
72.49249920619934
 21
22.23541755529894
 31
0.0
  0
LINE
  5
140
330
1F
100
AcDbEntity
  8
0
  6
Continuous
 62
     7
370
    15
100
AcDbLine
 10
72.49249920619934
 20
51.76297602379894
 30
0.0
 11
72.49249920619934
 21
47.76367097079893
 31
0.0
  0
LINE
  5
141
330
1F
100
AcDbEntity
  8
0
  6
Continuous
 62
     7
370
    15
100
AcDbLine
 10
73.27990076369935
 20
47.76367097079893
 30
0.0
 11
73.27990076369935
 21
51.76297602379894
 31
0.0
  0
LINE
  5
142
330
1F
100
AcDbEntity
  8
0
  6
Continuous
 62
     7
370
    15
100
AcDbLine
 10
73.27990076369935
 20
22.23541755529894
 30
0.0
 11
73.27990076369935
 21
47.10086497429894
 31
0.0
  0
ARC
  5
143
330
1F
100
AcDbEntity
  8
0
  6
Continuous
 62
     7
370
    15
100
AcDbCircle
 10
67.21690864619933
 20
47.72754349729892
 30
0.0
 40
0.0393700787401575
100
AcDbArc
 50
90.0
 51
180.0
  0
ARC
  5
144
330
1F
100
AcDbEntity
  8
0
  6
Continuous
 62
     7
370
    15
100
AcDbCircle
 10
67.21690864619933
 20
47.13699231629894
 30
0.0
 40
0.0393700787401575
100
AcDbArc
 50
180.0
 51
270.0
  0
ARC
  5
145
330
1F
100
AcDbEntity
  8
0
  6
Continuous
 62
     7
370
    15
100
AcDbCircle
 10
78.55549132369936
 20
47.72754349729892
 30
0.0
 40
0.0393700787401575
100
AcDbArc
 50
0.0
 51
90.0
  0
ARC
  5
146
330
1F
100
AcDbEntity
  8
0
  6
Continuous
 62
     7
370
    15
100
AcDbCircle
 10
78.55549132369936
 20
47.13699231629894
 30
0.0
 40
0.0393700787401575
100
AcDbArc
 50
270.0
 51
0.0
  0
LINE
  5
147
330
1F
100
AcDbEntity
  8
0
  6
Continuous
 62
     7
370
    15
100
AcDbLine
 10
73.27714833869933
 20
47.09762191829894
 30
0.0
 11
78.55549107969932
 21
47.09762191829894
 31
0.0
  0
LINE
  5
148
330
1F
100
AcDbEntity
  8
0
  6
Continuous
 62
     7
370
    15
100
AcDbLine
 10
78.16697028769934
 20
47.76691402629893
 30
0.0
 11
73.27714833869933
 21
47.76691402629893
 31
0.0
  0
LINE
  5
149
330
1F
100
AcDbEntity
  8
0
  6
Continuous
 62
     7
370
    15
100
AcDbLine
 10
78.55549107969932
 20
47.76691402629893
 30
0.0
 11
78.39283141169932
 21
47.76691402629893
 31
0.0
  0
LINE
  5
14A
330
1F
100
AcDbEntity
  8
0
  6
Continuous
 62
     7
370
    15
100
AcDbLine
 10
67.21690889019933
 20
47.09762191829894
 30
0.0
 11
72.49525163119935
 21
47.09762191829894
 31
0.0
  0
LINE
  5
14B
330
1F
100
AcDbEntity
  8
0
  6
Continuous
 62
     7
370
    15
100
AcDbLine
 10
67.37956855819937
 20
47.76691402629893
 30
0.0
 11
67.21690889019933
 21
47.76691402629893
 31
0.0
  0
LINE
  5
14C
330
1F
100
AcDbEntity
  8
0
  6
Continuous
 62
     7
370
    15
100
AcDbLine
 10
72.49525163119935
 20
47.76691402629893
 30
0.0
 11
67.60542968219934
 21
47.76691402629893
 31
0.0
  0
LINE
  5
14D
330
1F
100
AcDbEntity
  8
0
  6
Continuous
 62
     7
370
    15
100
AcDbLine
 10
73.47675115269933
 20
20.66061436729894
 30
0.0
 11
73.34210049819933
 21
22.19947921029894
 31
0.0
  0
LINE
  5
14E
330
1F
100
AcDbEntity
  8
0
  6
Continuous
 62
     7
370
    15
100
AcDbLine
 10
72.43029947169936
 20
22.19947921029894
 30
0.0
 11
72.29564881719935
 21
20.66061436729894
 31
0.0
  0
ARC
  5
14F
330
1F
100
AcDbEntity
  8
0
  6
Continuous
 62
     7
370
    15
100
AcDbCircle
 10
72.46951970269932
 20
22.19604743429894
 30
0.0
 40
0.0393700787401575
100
AcDbArc
 50
90.0
 51
174.9993554024
  0
ARC
  5
150
330
1F
100
AcDbEntity
  8
0
  6
Continuous
 62
     7
370
    15
100
AcDbCircle
 10
73.30288026719935
 20
22.19604743429894
 30
0.0
 40
0.0393700787401575
100
AcDbArc
 50
5.00064459760001
 51
90.0
  0
ARC
  5
151
330
1F
100
AcDbEntity
  8
0
  6
Continuous
 62
     7
370
    15
100
AcDbCircle
 10
67.80745982769935
 20
20.62124428479894
 30
0.0
 40
0.0393700787401575
100
AcDbArc
 50
90.0
 51
180.0
  0
ARC
  5
152
330
1F
100
AcDbEntity
  8
0
  6
Continuous
 62
     7
370
    15
100
AcDbCircle
 10
77.96494014219934
 20
20.62124428479894
 30
0.0
 40
0.0393700787401575
100
AcDbArc
 50
0.0
 51
90.0
  0
ARC
  5
153
330
1F
100
AcDbEntity
  8
0
  6
Continuous
 62
     7
370
    15
100
AcDbCircle
 10
77.96494014219934
 20
20.22754349729894
 30
0.0
 40
0.0393700787401575
100
AcDbArc
 50
270.0
 51
0.0
  0
ARC
  5
154
330
1F
100
AcDbEntity
  8
0
  6
Continuous
 62
     7
370
    15
100
AcDbCircle
 10
67.80745982769935
 20
20.22754349729894
 30
0.0
 40
0.0393700787401575
100
AcDbArc
 50
180.0
 51
270.0
  0
LINE
  5
155
330
1F
100
AcDbEntity
  8
0
  6
Continuous
 62
     7
370
    15
100
AcDbLine
 10
67.76808993669937
 20
20.62124428229893
 30
0.0
 11
67.76808993669937
 21
20.22754349929894
 31
0.0
  0
LINE
  5
156
330
1F
100
AcDbEntity
  8
0
  6
Continuous
 62
     7
370
    15
100
AcDbLine
 10
78.00431003319932
 20
20.22754349929894
 30
0.0
 11
78.00431003319932
 21
20.62124428229893
 31
0.0
  0
ARC
  5
157
330
1F
100
AcDbEntity
  8
0
  6
Continuous
 62
     7
370
    15
100
AcDbCircle
 10
77.57123935519934
 20
20.10943326079894
 30
0.0
 40
0.0393700787401665
100
AcDbArc
 50
270.0
 51
0.0
  0
ARC
  5
158
330
1F
100
AcDbEntity
  8
0
  6
Continuous
 62
     7
370
    15
100
AcDbCircle
 10
68.20116061469931
 20
20.10943326079894
 30
0.0
 40
0.0393700787401575
100
AcDbArc
 50
180.0
 51
270.0
  0
LINE
  5
159
330
1F
100
AcDbEntity
  8
0
  6
Continuous
 62
     7
370
    15
100
AcDbLine
 10
68.16179064169933
 20
20.18817341829894
 30
0.0
 11
68.16179064169933
 21
20.10943325729894
 31
0.0
  0
LINE
  5
15A
330
1F
100
AcDbEntity
  8
0
  6
Continuous
 62
     7
370
    15
100
AcDbLine
 10
77.61060932819936
 20
20.10943325729894
 30
0.0
 11
77.61060932819936
 21
20.18817341829894
 31
0.0
  0
LINE
  5
15B
330
1F
100
AcDbEntity
  8
0
  6
Continuous
 62
     7
370
    15
100
AcDbLine
 10
75.99399525669935
 20
20.03069309579894
 30
0.0
 11
77.02005812369932
 21
20.03069309579894
 31
0.0
  0
LINE
  5
15C
330
1F
100
AcDbEntity
  8
0
  6
Continuous
 62
     7
370
    15
100
AcDbLine
 10
68.75234184619936
 20
20.03069309579894
 30
0.0
 11
69.82807720619934
 21
20.03069309579894
 31
0.0
  0
LINE
  5
15D
330
1F
100
AcDbEntity
  8
0
  6
Continuous
 62
     7
370
    15
100
AcDbLine
 10
72.42267351619933
 20
20.03069309579894
 30
0.0
 11
73.60377588869934
 21
20.03069309579894
 31
0.0
  0
LINE
  5
15E
330
1F
100
AcDbEntity
  8
0
  6
Continuous
 62
     7
370
    15
100
AcDbLine
 10
74.62762096119934
 20
20.03069309579894
 30
0.0
 11
74.81289284769935
 21
20.03069309579894
 31
0.0
  0
LINE
  5
15F
330
1F
100
AcDbEntity
  8
0
  6
Continuous
 62
     7
370
    15
100
AcDbLine
 10
71.00917946869936
 20
20.03069309579894
 30
0.0
 11
71.05755954969933
 21
20.03069309579894
 31
0.0
  0
LINE
  5
160
330
1F
100
AcDbEntity
  8
0
  6
Continuous
 62
     7
370
    15
100
AcDbLine
 10
69.82807720619934
 20
20.03069309579894
 30
0.0
 11
71.00917946869936
 21
20.03069309579894
 31
0.0
  0
LINE
  5
161
330
1F
100
AcDbEntity
  8
0
  6
Continuous
 62
     7
370
    15
100
AcDbLine
 10
74.81289284769935
 20
20.03069309579894
 30
0.0
 11
75.99399525669935
 21
20.03069309579894
 31
0.0
  0
LINE
  5
162
330
1F
100
AcDbEntity
  8
0
  6
Continuous
 62
     7
370
    15
100
AcDbLine
 10
72.29564881719935
 20
20.03069309579894
 30
0.0
 11
72.42267351619933
 21
20.03069309579894
 31
0.0
  0
LINE
  5
163
330
1F
100
AcDbEntity
  8
0
  6
Continuous
 62
     7
370
    15
100
AcDbLine
 10
68.37832592719934
 20
51.76297602379894
 30
0.0
 11
68.37832592719934
 21
52.15667643579894
 31
0.0
  0
LINE
  5
164
330
1F
100
AcDbEntity
  8
0
  6
Continuous
 62
     7
370
    15
100
AcDbLine
 10
69.55942833619935
 20
52.15667643579894
 30
0.0
 11
69.55942833619935
 21
51.76297602379894
 31
0.0
  0
LINE
  5
165
330
1F
100
AcDbEntity
  8
0
  6
Continuous
 62
     7
370
    15
100
AcDbLine
 10
69.55942833619935
 20
51.76297602379894
 30
0.0
 11
68.37832592719934
 21
51.76297602379894
 31
0.0
  0
ARC
  5
166
330
1F
100
AcDbEntity
  8
0
  6
Continuous
 62
     7
370
    15
100
AcDbCircle
 10
68.96887715019932
 20
52.07793719779893
 30
0.0
 40
0.027559055118118
100
AcDbArc
 50
0.0
 51
180.0
  0
LINE
  5
167
330
1F
100
AcDbEntity
  8
0
  6
Continuous
 62
     7
370
    15
100
AcDbLine
 10
68.94131819669934
 20
52.07793729179894
 30
0.0
 11
68.94131819669934
 21
51.84171751379894
 31
0.0
  0
ARC
  5
168
330
1F
100
AcDbEntity
  8
0
  6
Continuous
 62
     7
370
    15
100
AcDbCircle
 10
68.96887715019932
 20
51.84171672529894
 30
0.0
 40
0.027559055118118
100
AcDbArc
 50
180.0
 51
0.0
  0
LINE
  5
169
330
1F
100
AcDbEntity
  8
0
  6
Continuous
 62
     7
370
    15
100
AcDbLine
 10
68.99643606669934
 20
51.84171751379894
 30
0.0
 11
68.99643606669934
 21
52.07793729179894
 31
0.0
  0
LINE
  5
16A
330
1F
100
AcDbEntity
  8
0
  6
Continuous
 62
     7
370
    15
100
AcDbLine
 10
68.37832592719934
 20
52.15667643579894
 30
0.0
 11
69.55942833619935
 21
52.15667643579894
 31
0.0
  0
LINE
  5
16B
330
1F
100
AcDbEntity
  8
0
  6
Continuous
 62
     7
370
    15
100
AcDbLine
 10
71.98068817219933
 20
51.76297602379894
 30
0.0
 11
71.98068817219933
 21
52.15667643579894
 31
0.0
  0
LINE
  5
16C
330
1F
100
AcDbEntity
  8
0
  6
Continuous
 62
     7
370
    15
100
AcDbLine
 10
71.98068817219933
 20
52.15667643579894
 30
0.0
 11
73.16179054469936
 21
52.15667643579894
 31
0.0
  0
LINE
  5
16D
330
1F
100
AcDbEntity
  8
0
  6
Continuous
 62
     7
370
    15
100
AcDbLine
 10
73.16179054469936
 20
52.15667643579894
 30
0.0
 11
73.16179054469936
 21
51.76297602379894
 31
0.0
  0
LINE
  5
16E
330
1F
100
AcDbEntity
  8
0
  6
Continuous
 62
     7
370
    15
100
AcDbLine
 10
73.16179054469936
 20
51.76297602379894
 30
0.0
 11
71.98068817219933
 21
51.76297602379894
 31
0.0
  0
ARC
  5
16F
330
1F
100
AcDbEntity
  8
0
  6
Continuous
 62
     7
370
    15
100
AcDbCircle
 10
72.57123935519934
 20
52.07793719779893
 30
0.0
 40
0.0275590551181095
100
AcDbArc
 50
0.0
 51
180.0
  0
LINE
  5
170
330
1F
100
AcDbEntity
  8
0
  6
Continuous
 62
     7
370
    15
100
AcDbLine
 10
72.54368029519935
 20
52.07793729179894
 30
0.0
 11
72.54368029519935
 21
51.84171751379894
 31
0.0
  0
ARC
  5
171
330
1F
100
AcDbEntity
  8
0
  6
Continuous
 62
     7
370
    15
100
AcDbCircle
 10
72.57123935519934
 20
51.84171672529894
 30
0.0
 40
0.0275590551181095
100
AcDbArc
 50
180.0
 51
0.0
  0
LINE
  5
172
330
1F
100
AcDbEntity
  8
0
  6
Continuous
 62
     7
370
    15
100
AcDbLine
 10
72.59879840319934
 20
51.84171751379894
 30
0.0
 11
72.59879840319934
 21
52.07793729179894
 31
0.0
  0
LINE
  5
173
330
1F
100
AcDbEntity
  8
0
  6
Continuous
 62
     7
370
    15
100
AcDbLine
 10
70.77990075719935
 20
51.76297602379894
 30
0.0
 11
70.77990075719935
 21
52.15667643579894
 31
0.0
  0
LINE
  5
174
330
1F
100
AcDbEntity
  8
0
  6
Continuous
 62
     7
370
    15
100
AcDbLine
 10
70.77990075719935
 20
52.15667643579894
 30
0.0
 11
71.96100316619933
 21
52.15667643579894
 31
0.0
  0
LINE
  5
175
330
1F
100
AcDbEntity
  8
0
  6
Continuous
 62
     7
370
    15
100
AcDbLine
 10
71.96100316619933
 20
52.15667643579894
 30
0.0
 11
71.96100316619933
 21
51.76297602379894
 31
0.0
  0
LINE
  5
176
330
1F
100
AcDbEntity
  8
0
  6
Continuous
 62
     7
370
    15
100
AcDbLine
 10
71.96100316619933
 20
51.76297602379894
 30
0.0
 11
70.77990075719935
 21
51.76297602379894
 31
0.0
  0
ARC
  5
177
330
1F
100
AcDbEntity
  8
0
  6
Continuous
 62
     7
370
    15
100
AcDbCircle
 10
71.37045195369933
 20
52.07793719779893
 30
0.0
 40
0.0275590551181095
100
AcDbArc
 50
0.0
 51
180.0
  0
LINE
  5
178
330
1F
100
AcDbEntity
  8
0
  6
Continuous
 62
     7
370
    15
100
AcDbLine
 10
71.34289288019932
 20
52.07793729179894
 30
0.0
 11
71.34289288019932
 21
51.84171751379894
 31
0.0
  0
ARC
  5
179
330
1F
100
AcDbEntity
  8
0
  6
Continuous
 62
     7
370
    15
100
AcDbCircle
 10
71.37045195369933
 20
51.84171672529894
 30
0.0
 40
0.0275590551181095
100
AcDbArc
 50
180.0
 51
0.0
  0
LINE
  5
17A
330
1F
100
AcDbEntity
  8
0
  6
Continuous
 62
     7
370
    15
100
AcDbLine
 10
71.39801104319935
 20
51.84171751379894
 30
0.0
 11
71.39801104319935
 21
52.07793729179894
 31
0.0
  0
LINE
  5
17B
330
1F
100
AcDbEntity
  8
0
  6
Continuous
 62
     7
370
    15
100
AcDbLine
 10
69.57911341519931
 20
51.76297602379894
 30
0.0
 11
69.57911341519931
 21
52.15667643579894
 31
0.0
  0
LINE
  5
17C
330
1F
100
AcDbEntity
  8
0
  6
Continuous
 62
     7
370
    15
100
AcDbLine
 10
69.57911341519931
 20
52.15667643579894
 30
0.0
 11
70.76021567769931
 21
52.15667643579894
 31
0.0
  0
LINE
  5
17D
330
1F
100
AcDbEntity
  8
0
  6
Continuous
 62
     7
370
    15
100
AcDbLine
 10
70.76021567769931
 20
52.15667643579894
 30
0.0
 11
70.76021567769931
 21
51.76297602379894
 31
0.0
  0
LINE
  5
17E
330
1F
100
AcDbEntity
  8
0
  6
Continuous
 62
     7
370
    15
100
AcDbLine
 10
70.76021567769931
 20
51.76297602379894
 30
0.0
 11
69.57911341519931
 21
51.76297602379894
 31
0.0
  0
ARC
  5
17F
330
1F
100
AcDbEntity
  8
0
  6
Continuous
 62
     7
370
    15
100
AcDbCircle
 10
70.16966455169932
 20
51.84171672529894
 30
0.0
 40
0.0275590551181095
100
AcDbArc
 50
180.0
 51
0.0
  0
LINE
  5
180
330
1F
100
AcDbEntity
  8
0
  6
Continuous
 62
     7
370
    15
100
AcDbLine
 10
70.19722355469935
 20
51.84171751379894
 30
0.0
 11
70.19722355469935
 21
52.07793729179894
 31
0.0
  0
ARC
  5
181
330
1F
100
AcDbEntity
  8
0
  6
Continuous
 62
     7
370
    15
100
AcDbCircle
 10
70.16966455169932
 20
52.07793719779893
 30
0.0
 40
0.0275590551181095
100
AcDbArc
 50
0.0
 51
180.0
  0
LINE
  5
182
330
1F
100
AcDbEntity
  8
0
  6
Continuous
 62
     7
370
    15
100
AcDbLine
 10
70.14210539169934
 20
52.07793729179894
 30
0.0
 11
70.14210539169934
 21
51.84171751379894
 31
0.0
  0
ARC
  5
183
330
1F
100
AcDbEntity
  8
0
  6
Continuous
 62
     7
370
    15
100
AcDbCircle
 10
67.88619998519934
 20
51.95982696179894
 30
0.0
 40
0.0275590551181095
100
AcDbArc
 50
270.0
 51
90.0
  0
ARC
  5
184
330
1F
100
AcDbEntity
  8
0
  6
Continuous
 62
     7
370
    15
100
AcDbCircle
 10
67.64997951269933
 20
51.95982696179894
 30
0.0
 40
0.0275590551181095
100
AcDbArc
 50
90.0
 51
270.0
  0
LINE
  5
185
330
1F
100
AcDbEntity
  8
0
  6
Continuous
 62
     7
370
    15
100
AcDbLine
 10
67.64997946069934
 20
51.93226729479893
 30
0.0
 11
67.88619982519932
 21
51.93226729479893
 31
0.0
  0
LINE
  5
186
330
1F
100
AcDbEntity
  8
0
  6
Continuous
 62
     7
370
    15
100
AcDbLine
 10
67.88619982519932
 20
51.98738516479895
 30
0.0
 11
67.64997946069934
 21
51.98738516479895
 31
0.0
  0
LINE
  5
187
330
1F
100
AcDbEntity
  8
0
  6
Continuous
 62
     7
370
    15
100
AcDbLine
 10
68.35864084769935
 20
51.76297602379894
 30
0.0
 11
67.17753873169934
 21
51.76297602379894
 31
0.0
  0
LINE
  5
188
330
1F
100
AcDbEntity
  8
0
  6
Continuous
 62
     7
370
    15
100
AcDbLine
 10
67.17753873169934
 20
52.15667643579894
 30
0.0
 11
68.35864084769935
 21
52.15667643579894
 31
0.0
  0
LINE
  5
189
330
1F
100
AcDbEntity
  8
0
  6
Continuous
 62
     7
370
    15
100
AcDbLine
 10
68.35864084769935
 20
52.15667643579894
 30
0.0
 11
68.35864084769935
 21
51.76297602379894
 31
0.0
  0
LINE
  5
18A
330
1F
100
AcDbEntity
  8
0
  6
Continuous
 62
     7
370
    15
100
AcDbLine
 10
67.17753873169934
 20
51.76297602379894
 30
0.0
 11
67.17753873169934
 21
52.15667643579894
 31
0.0
  0
LINE
  5
18B
330
1F
100
AcDbEntity
  8
0
  6
Continuous
 62
     7
370
    15
100
AcDbLine
 10
74.38226292919932
 20
51.76297602379894
 30
0.0
 11
74.38226292919932
 21
52.15667643579894
 31
0.0
  0
LINE
  5
18C
330
1F
100
AcDbEntity
  8
0
  6
Continuous
 62
     7
370
    15
100
AcDbLine
 10
74.38226292919932
 20
52.15667643579894
 30
0.0
 11
78.59486123819934
 21
52.15667643579894
 31
0.0
  0
LINE
  5
18D
330
1F
100
AcDbEntity
  8
0
  6
Continuous
 62
     7
370
    15
100
AcDbLine
 10
78.59486123819934
 20
51.76297602379894
 30
0.0
 11
74.38226292919932
 21
51.76297602379894
 31
0.0
  0
LINE
  5
18E
330
1F
100
AcDbEntity
  8
0
  6
Continuous
 62
     7
370
    15
100
AcDbLine
 10
78.59486123819934
 20
52.15667643579894
 30
0.0
 11
78.59486123819934
 21
51.76297602379894
 31
0.0
  0
ARC
  5
18F
330
1F
100
AcDbEntity
  8
0
  6
Continuous
 62
     7
370
    15
100
AcDbCircle
 10
73.77202675669932
 20
51.84171672529894
 30
0.0
 40
0.027559055118118
100
AcDbArc
 50
180.0
 51
0.0
  0
LINE
  5
190
330
1F
100
AcDbEntity
  8
0
  6
Continuous
 62
     7
370
    15
100
AcDbLine
 10
73.74446771019933
 20
52.07793729179894
 30
0.0
 11
73.74446771019933
 21
51.84171751379894
 31
0.0
  0
ARC
  5
191
330
1F
100
AcDbEntity
  8
0
  6
Continuous
 62
     7
370
    15
100
AcDbCircle
 10
73.77202675669932
 20
52.07793719779893
 30
0.0
 40
0.027559055118118
100
AcDbArc
 50
0.0
 51
180.0
  0
LINE
  5
192
330
1F
100
AcDbEntity
  8
0
  6
Continuous
 62
     7
370
    15
100
AcDbLine
 10
73.18147556869934
 20
52.15667643579894
 30
0.0
 11
74.36257799619935
 21
52.15667643579894
 31
0.0
  0
LINE
  5
193
330
1F
100
AcDbEntity
  8
0
  6
Continuous
 62
     7
370
    15
100
AcDbLine
 10
74.36257799619935
 20
52.15667643579894
 30
0.0
 11
74.36257799619935
 21
51.76297602379894
 31
0.0
  0
LINE
  5
194
330
1F
100
AcDbEntity
  8
0
  6
Continuous
 62
     7
370
    15
100
AcDbLine
 10
73.18147556869934
 20
51.76297602379894
 30
0.0
 11
73.18147556869934
 21
52.15667643579894
 31
0.0
  0
LINE
  5
195
330
1F
100
AcDbEntity
  8
0
  6
Continuous
 62
     7
370
    15
100
AcDbLine
 10
73.79958580019934
 20
51.84171751379894
 30
0.0
 11
73.79958580019934
 21
52.07793729179894
 31
0.0
  0
LINE
  5
196
330
1F
100
AcDbEntity
  8
0
  6
Continuous
 62
     7
370
    15
100
AcDbLine
 10
74.36257799619935
 20
51.76297602379894
 30
0.0
 11
73.18147556869934
 21
51.76297602379894
 31
0.0
  0
LINE
  5
197
330
1F
100
AcDbEntity
  8
0
  6
Continuous
 62
     7
370
    15
100
AcDbLine
 10
78.59486123819934
 20
52.17636239479894
 30
0.0
 11
67.17753873169934
 21
52.17636239479894
 31
0.0
  0
LINE
  5
198
330
1F
100
AcDbEntity
  8
0
  6
Continuous
 62
     7
370
    15
100
AcDbLine
 10
78.59486123819934
 20
53.33778001779894
 30
0.0
 11
78.59486123819934
 21
52.17636239479894
 31
0.0
  0
LINE
  5
199
330
1F
100
AcDbEntity
  8
0
  6
Continuous
 62
     7
370
    15
100
AcDbLine
 10
67.17753873169934
 20
52.17636239479894
 30
0.0
 11
67.17753873169934
 21
53.33778001779894
 31
0.0
  0
LINE
  5
19A
330
1F
100
AcDbEntity
  8
0
  6
Continuous
 62
     7
370
    15
100
AcDbLine
 10
67.17753873169934
 20
53.33778001779894
 30
0.0
 11
78.59486123819934
 21
53.33778001779894
 31
0.0
  0
LINE
  5
19B
330
1F
100
AcDbEntity
  8
0
  6
Continuous
 62
     7
370
    15
100
AcDbLine
 10
67.17753873169934
 20
53.45589108029894
 30
0.0
 11
68.35864084769935
 21
53.45589108029894
 31
0.0
  0
LINE
  5
19C
330
1F
100
AcDbEntity
  8
0
  6
Continuous
 62
     7
370
    15
100
AcDbLine
 10
68.35864084769935
 20
53.45589108029894
 30
0.0
 11
68.35864084769935
 21
53.33778001779894
 31
0.0
  0
LINE
  5
19D
330
1F
100
AcDbEntity
  8
0
  6
Continuous
 62
     7
370
    15
100
AcDbLine
 10
67.17753873169934
 20
53.45589108029894
 30
0.0
 11
67.17753873169934
 21
53.33778001779894
 31
0.0
  0
LINE
  5
19E
330
1F
100
AcDbEntity
  8
0
  6
Continuous
 62
     7
370
    15
100
AcDbLine
 10
73.18147556869934
 20
53.45589108029894
 30
0.0
 11
73.18147556869934
 21
53.33778001779894
 31
0.0
  0
LINE
  5
19F
330
1F
100
AcDbEntity
  8
0
  6
Continuous
 62
     7
370
    15
100
AcDbLine
 10
73.18147556869934
 20
53.45589108029894
 30
0.0
 11
74.36257799619935
 21
53.45589108029894
 31
0.0
  0
LINE
  5
1A0
330
1F
100
AcDbEntity
  8
0
  6
Continuous
 62
     7
370
    15
100
AcDbLine
 10
74.36257799619935
 20
53.45589108029894
 30
0.0
 11
74.36257799619935
 21
53.33778001779894
 31
0.0
  0
LINE
  5
1A1
330
1F
100
AcDbEntity
  8
0
  6
Continuous
 62
     7
370
    15
100
AcDbLine
 10
74.38226292919932
 20
53.45589108029894
 30
0.0
 11
74.38226292919932
 21
53.33778001779894
 31
0.0
  0
LINE
  5
1A2
330
1F
100
AcDbEntity
  8
0
  6
Continuous
 62
     7
370
    15
100
AcDbLine
 10
74.38226292919932
 20
53.45589108029894
 30
0.0
 11
78.59486123819934
 21
53.45589108029894
 31
0.0
  0
LINE
  5
1A3
330
1F
100
AcDbEntity
  8
0
  6
Continuous
 62
     7
370
    15
100
AcDbLine
 10
78.59486123819934
 20
53.45589108029894
 30
0.0
 11
78.59486123819934
 21
53.33778001779894
 31
0.0
  0
LINE
  5
1A4
330
1F
100
AcDbEntity
  8
0
  6
Continuous
 62
     7
370
    15
100
AcDbLine
 10
68.37832592719934
 20
53.45589108029894
 30
0.0
 11
68.37832592719934
 21
53.33778001779894
 31
0.0
  0
LINE
  5
1A5
330
1F
100
AcDbEntity
  8
0
  6
Continuous
 62
     7
370
    15
100
AcDbLine
 10
68.37832592719934
 20
53.45589108029894
 30
0.0
 11
69.55942833619935
 21
53.45589108029894
 31
0.0
  0
LINE
  5
1A6
330
1F
100
AcDbEntity
  8
0
  6
Continuous
 62
     7
370
    15
100
AcDbLine
 10
69.55942833619935
 20
53.45589108029894
 30
0.0
 11
69.55942833619935
 21
53.33778001779894
 31
0.0
  0
LINE
  5
1A7
330
1F
100
AcDbEntity
  8
0
  6
Continuous
 62
     7
370
    15
100
AcDbLine
 10
71.98068817219933
 20
53.45589108029894
 30
0.0
 11
71.98068817219933
 21
53.33778001779894
 31
0.0
  0
LINE
  5
1A8
330
1F
100
AcDbEntity
  8
0
  6
Continuous
 62
     7
370
    15
100
AcDbLine
 10
73.16179054469936
 20
53.45589108029894
 30
0.0
 11
73.16179054469936
 21
53.33778001779894
 31
0.0
  0
LINE
  5
1A9
330
1F
100
AcDbEntity
  8
0
  6
Continuous
 62
     7
370
    15
100
AcDbLine
 10
71.98068817219933
 20
53.45589108029894
 30
0.0
 11
73.16179054469936
 21
53.45589108029894
 31
0.0
  0
LINE
  5
1AA
330
1F
100
AcDbEntity
  8
0
  6
Continuous
 62
     7
370
    15
100
AcDbLine
 10
70.77990075719935
 20
53.45589108029894
 30
0.0
 11
70.77990075719935
 21
53.33778001779894
 31
0.0
  0
LINE
  5
1AB
330
1F
100
AcDbEntity
  8
0
  6
Continuous
 62
     7
370
    15
100
AcDbLine
 10
71.96100316619933
 20
53.45589108029894
 30
0.0
 11
71.96100316619933
 21
53.33778001779894
 31
0.0
  0
LINE
  5
1AC
330
1F
100
AcDbEntity
  8
0
  6
Continuous
 62
     7
370
    15
100
AcDbLine
 10
70.77990075719935
 20
53.45589108029894
 30
0.0
 11
71.96100316619933
 21
53.45589108029894
 31
0.0
  0
LINE
  5
1AD
330
1F
100
AcDbEntity
  8
0
  6
Continuous
 62
     7
370
    15
100
AcDbLine
 10
69.57911341519931
 20
53.45589108029894
 30
0.0
 11
69.57911341519931
 21
53.33778001779894
 31
0.0
  0
LINE
  5
1AE
330
1F
100
AcDbEntity
  8
0
  6
Continuous
 62
     7
370
    15
100
AcDbLine
 10
70.76021567769931
 20
53.45589108029894
 30
0.0
 11
70.76021567769931
 21
53.33778001779894
 31
0.0
  0
LINE
  5
1AF
330
1F
100
AcDbEntity
  8
0
  6
Continuous
 62
     7
370
    15
100
AcDbLine
 10
69.57911341519931
 20
53.45589108029894
 30
0.0
 11
70.76021567769931
 21
53.45589108029894
 31
0.0
  0
LINE
  5
1B0
330
1F
100
AcDbEntity
  8
0
  6
Continuous
 62
     7
370
    15
100
AcDbLine
 10
69.55942833619935
 20
51.76297602379894
 30
0.0
 11
69.57911341519931
 21
51.76297602379894
 31
0.0
  0
LINE
  5
1B1
330
1F
100
AcDbEntity
  8
0
  6
Continuous
 62
     7
370
    15
100
AcDbLine
 10
70.76021567769931
 20
51.76297602379894
 30
0.0
 11
70.77990075719935
 21
51.76297602379894
 31
0.0
  0
LINE
  5
1B2
330
1F
100
AcDbEntity
  8
0
  6
Continuous
 62
     7
370
    15
100
AcDbLine
 10
71.96100316619933
 20
51.76297602379894
 30
0.0
 11
71.98068817219933
 21
51.76297602379894
 31
0.0
  0
LINE
  5
1B3
330
1F
100
AcDbEntity
  8
0
  6
Continuous
 62
     7
370
    15
100
AcDbLine
 10
73.16179054469936
 20
51.76297602379894
 30
0.0
 11
73.18147556869934
 21
51.76297602379894
 31
0.0
  0
LINE
  5
1B4
330
1F
100
AcDbEntity
  8
0
  6
Continuous
 62
     7
370
    15
100
AcDbLine
 10
74.36257799619935
 20
51.76297602379894
 30
0.0
 11
74.38226292919932
 21
51.76297602379894
 31
0.0
  0
LINE
  5
1B5
330
1F
100
AcDbEntity
  8
0
  6
Continuous
 62
     7
370
    15
100
AcDbLine
 10
68.35864084769935
 20
51.76297602379894
 30
0.0
 11
68.37832592719934
 21
51.76297602379894
 31
0.0
  0
LINE
  5
1B6
330
1F
100
AcDbEntity
  8
0
  6
Continuous
 62
     7
370
    15
100
AcDbLine
 10
78.59486123819934
 20
52.15667643579894
 30
0.0
 11
78.59486123819934
 21
52.17636239479894
 31
0.0
  0
LINE
  5
1B7
330
1F
100
AcDbEntity
  8
0
  6
Continuous
 62
     7
370
    15
100
AcDbLine
 10
67.17753873169934
 20
52.17636239479894
 30
0.0
 11
67.17753873169934
 21
52.15667643579894
 31
0.0
  0
SPLINE
  5
1B8
330
1F
100
AcDbEntity
  8
0
  6
Continuous
 62
     7
370
    15
100
AcDbSpline
210
0.0
220
0.0
230
1.0
 70
     8
 71
     3
 72
    20
 73
    16
 74
     0
 42
0.0000000001
 43
0.0000000001
 40
0.0
 40
0.0
 40
0.0
 40
0.0
 40
0.0414645084554438
 40
0.1181482103162039
 40
0.2009969049085311
 40
0.3249704287323216
 40
0.4206160035890285
 40
0.4817421736425215
 40
0.5001593139903906
 40
0.5609483151885076
 40
0.6469915705994339
 40
0.7758563799675377
 40
0.8763257231941736
 40
0.9587500669541867
 40
1.0
 40
1.0
 40
1.0
 40
1.0
 10
73.27714833868085
 20
47.10086497408084
 30
0.0
 10
73.2776779652498
 20
47.10023981686314
 30
0.0
 10
73.27918707348695
 20
47.09845850534668
 30
0.0
 10
73.25961144745761
 20
47.12155940284129
 30
0.0
 10
73.21948931248468
 20
47.17053509866613
 30
0.0
 10
73.16235628321479
 20
47.24586585350098
 30
0.0
 10
73.11247062319274
 20
47.33181500891694
 30
0.0
 10
73.09509163126986
 20
47.39555965489358
 30
0.0
 10
73.09242299212184
 20
47.44813632239464
 30
0.0
 10
73.10340313055679
 20
47.51025855970555
 30
0.0
 10
73.14872966161985
 20
47.59899670763452
 30
0.0
 10
73.20968040923531
 20
47.68179421841314
 30
0.0
 10
73.25670080307489
 20
47.73955800262974
 30
0.0
 10
73.27924448679687
 20
47.76614236794078
 30
0.0
 10
73.27767261567766
 20
47.76428910287868
 30
0.0
 10
73.27714833868085
 20
47.76367097062272
 30
0.0
  0
SPLINE
  5
1B9
330
1F
100
AcDbEntity
  8
0
  6
Continuous
 62
     7
370
    15
100
AcDbSpline
210
0.0
220
0.0
230
1.0
 70
     8
 71
     3
 72
    13
 73
     9
 74
     0
 42
0.0000000001
 43
0.0000000001
 40
0.0
 40
0.0
 40
0.0
 40
0.0
 40
0.1216131458937501
 40
0.2937552126527337
 40
0.5515680361121175
 40
0.7525715930597614
 40
0.9174734998778967
 40
1.0
 40
1.0
 40
1.0
 40
1.0
 10
72.67880522745821
 20
47.43226679903203
 30
0.0
 10
72.67638910096519
 20
47.40943934588368
 30
0.0
 10
72.67055297406838
 20
47.35429988456458
 30
0.0
 10
72.62292374219251
 20
47.26552812820929
 30
0.0
 10
72.56289834549796
 20
47.18274438659834
 30
0.0
 10
72.51566422567299
 20
47.12497742215153
 30
0.0
 10
72.49315902499808
 20
47.09839362946603
 30
0.0
 10
72.49472824010098
 20
47.10024685500674
 30
0.0
 10
72.49525163121837
 20
47.10086497408084
 30
0.0
  0
SPLINE
  5
1BA
330
1F
100
AcDbEntity
  8
0
  6
Continuous
 62
     7
370
    15
100
AcDbSpline
210
0.0
220
0.0
230
1.0
 70
     8
 71
     3
 72
    14
 73
    10
 74
     0
 42
0.0000000001
 43
0.0000000001
 40
0.0
 40
0.0
 40
0.0
 40
0.0
 40
0.0829022562685381
 40
0.2362201693486405
 40
0.4018640890875523
 40
0.6497311258714947
 40
0.8409605472028196
 40
0.9631734372925276
 40
1.0
 40
1.0
 40
1.0
 40
1.0
 10
72.49525163121837
 20
47.76367097062272
 30
0.0
 10
72.49472189091591
 20
47.76429612614874
 30
0.0
 10
72.49321245860866
 20
47.76607743284493
 30
0.0
 10
72.51279224605693
 20
47.74297659724773
 30
0.0
 10
72.55289259265023
 20
47.69400057734048
 30
0.0
 10
72.61013821172316
 20
47.61867149717693
 30
0.0
 10
72.6597068709402
 20
47.53271762666114
 30
0.0
 10
72.67767320703796
 20
47.46898095525263
 30
0.0
 10
72.67859238593548
 20
47.43916976365723
 30
0.0
 10
72.67880522745821
 20
47.43226679903203
 30
0.0
  0
LINE
  5
1BB
330
1F
100
AcDbEntity
  8
0
  6
Continuous
 62
     7
370
    15
100
AcDbLine
 10
72.88619998519934
 20
22.23541755529894
 30
0.0
 11
73.27990076369935
 21
22.23541755529894
 31
0.0
  0
LINE
  5
1BC
330
1F
100
AcDbEntity
  8
0
  6
Continuous
 62
     7
370
    15
100
AcDbLine
 10
72.49249920619934
 20
22.23541755529894
 30
0.0
 11
72.88619998519934
 21
22.23541755529894
 31
0.0
  0
SPLINE
  5
1BD
330
1F
100
AcDbEntity
  8
0
  6
Continuous
 62
     7
370
    15
100
AcDbSpline
210
0.0
220
0.0
230
1.0
 70
    24
 71
     3
 72
    13
 73
     9
 74
     0
 42
0.0000000001
 43
0.0000000001
 40
0.0
 40
0.0
 40
0.0
 40
0.0
 40
0.2394571726640099
 40
0.3683572606927269
 40
0.4999980375185296
 40
0.6316383445716549
 40
0.7605423397379245
 40
1.0
 40
1.0
 40
1.0
 40
1.0
 10
67.17753873189156
 20
47.43226679903203
 30
0.0
 10
67.17753873189156
 20
47.39512209767394
 30
0.0
 10
67.17753873189156
 20
47.33798235828223
 30
0.0
 10
67.17753873189156
 20
47.26923886836018
 30
0.0
 10
67.17753873189156
 20
47.22193350338399
 30
0.0
 10
67.17753873189156
 20
47.18382412962029
 30
0.0
 10
67.17753873189156
 20
47.14700425830598
 30
0.0
 10
67.17753873189156
 20
47.14093613940153
 30
0.0
 10
67.17753873189156
 20
47.13699149007759
 30
0.0
  0
SPLINE
  5
1BE
330
1F
100
AcDbEntity
  8
0
  6
Continuous
 62
     7
370
    15
100
AcDbSpline
210
0.0
220
0.0
230
1.0
 70
    24
 71
     3
 72
    13
 73
     9
 74
     0
 42
0.0000000001
 43
0.0000000001
 40
0.0
 40
0.0
 40
0.0
 40
0.0
 40
0.2394564657409683
 40
0.3683598178768882
 40
0.4999994682497255
 40
0.6316395883928965
 40
0.7605390334107543
 40
1.0
 40
1.0
 40
1.0
 40
1.0
 10
67.17753873189156
 20
47.72754445462598
 30
0.0
 10
67.17753873189156
 20
47.72359980529013
 30
0.0
 10
67.17753873189156
 20
47.71753168636734
 30
0.0
 10
67.17753873189156
 20
47.68071181514299
 30
0.0
 10
67.17753873189156
 20
47.64260244108564
 30
0.0
 10
67.17753873189156
 20
47.59529707720983
 30
0.0
 10
67.17753873189156
 20
47.52655289626743
 30
0.0
 10
67.17753873189156
 20
47.46941231709018
 30
0.0
 10
67.17753873189156
 20
47.43226679903203
 30
0.0
  0
SPLINE
  5
1BF
330
1F
100
AcDbEntity
  8
0
  6
Continuous
 62
     7
370
    15
100
AcDbSpline
210
0.0
220
0.0
230
1.0
 70
    24
 71
     3
 72
    13
 73
     9
 74
     0
 42
0.0000000001
 43
0.0000000001
 40
0.0
 40
0.0
 40
0.0
 40
0.0
 40
0.2394609665892455
 40
0.3683604116071034
 40
0.5000005317502745
 40
0.6316401821231117
 40
0.7605435342590316
 40
1.0
 40
1.0
 40
1.0
 40
1.0
 10
78.5948612380077
 20
47.43226679903203
 30
0.0
 10
78.5948612380077
 20
47.46941231709018
 30
0.0
 10
78.5948612380077
 20
47.52655289626743
 30
0.0
 10
78.5948612380077
 20
47.59529707720983
 30
0.0
 10
78.5948612380077
 20
47.64260244108564
 30
0.0
 10
78.5948612380077
 20
47.68071181514299
 30
0.0
 10
78.5948612380077
 20
47.71753168636734
 30
0.0
 10
78.5948612380077
 20
47.72359980529013
 30
0.0
 10
78.5948612380077
 20
47.72754445462598
 30
0.0
  0
SPLINE
  5
1C0
330
1F
100
AcDbEntity
  8
0
  6
Continuous
 62
     7
370
    15
100
AcDbSpline
210
0.0
220
0.0
230
1.0
 70
    24
 71
     3
 72
    13
 73
     9
 74
     0
 42
0.0000000001
 43
0.0000000001
 40
0.0
 40
0.0
 40
0.0
 40
0.0
 40
0.2394576602620754
 40
0.368361655428345
 40
0.5000019624814703
 40
0.631642739307273
 40
0.7605428273359899
 40
1.0
 40
1.0
 40
1.0
 40
1.0
 10
78.5948612380077
 20
47.13699149007759
 30
0.0
 10
78.5948612380077
 20
47.14093613940153
 30
0.0
 10
78.5948612380077
 20
47.14700425830598
 30
0.0
 10
78.5948612380077
 20
47.18382412962034
 30
0.0
 10
78.5948612380077
 20
47.22193350338399
 30
0.0
 10
78.5948612380077
 20
47.26923886836018
 30
0.0
 10
78.5948612380077
 20
47.33798235828223
 30
0.0
 10
78.5948612380077
 20
47.39512209767399
 30
0.0
 10
78.5948612380077
 20
47.43226679903203
 30
0.0
  0
SPLINE
  5
1C1
330
1F
100
AcDbEntity
  8
0
  6
Continuous
 62
     7
370
    15
100
AcDbSpline
210
0.0
220
0.0
230
1.0
 70
     8
 71
     3
 72
    12
 73
     8
 74
     0
 42
0.0000000001
 43
0.0000000001
 40
0.0
 40
0.0
 40
0.0
 40
0.0
 40
0.2062032139006759
 40
0.4121051559178279
 40
0.6257067207059849
 40
0.845057602116751
 40
1.0
 40
1.0
 40
1.0
 40
1.0
 10
78.27990055646035
 20
47.74683383179349
 30
0.0
 10
78.26749114501968
 20
47.74727608730264
 30
0.0
 10
78.24269045282932
 20
47.74815995216644
 30
0.0
 10
78.20930422717461
 20
47.75427799492518
 30
0.0
 10
78.18332983075663
 20
47.76108557643953
 30
0.0
 10
78.16758194767925
 20
47.76627470585959
 30
0.0
 10
78.16714936116506
 20
47.76642978250349
 30
0.0
 10
78.16697028770716
 20
47.76649397801113
 30
0.0
  0
SPLINE
  5
1C2
330
1F
100
AcDbEntity
  8
0
  6
Continuous
 62
     7
370
    15
100
AcDbSpline
210
0.0
220
0.0
230
1.0
 70
     8
 71
     3
 72
    13
 73
     9
 74
     0
 42
0.0000000001
 43
0.0000000001
 40
0.0
 40
0.0
 40
0.0
 40
0.0
 40
0.0563150489439417
 40
0.2587973115894331
 40
0.4640906745048907
 40
0.6794760230912877
 40
0.8980777276052547
 40
1.0
 40
1.0
 40
1.0
 40
1.0
 10
78.39283141187348
 20
47.76649397801113
 30
0.0
 10
78.39320303261283
 20
47.76661961858734
 30
0.0
 10
78.39491082564643
 20
47.76719700321104
 30
0.0
 10
78.38581233881524
 20
47.76408906782924
 30
0.0
 10
78.36631048244126
 20
47.75819685942553
 30
0.0
 10
78.33608552101336
 20
47.75124003307822
 30
0.0
 10
78.30526806521828
 20
47.74728365632169
 30
0.0
 10
78.28602089518241
 20
47.74694235953673
 30
0.0
 10
78.27990055646035
 20
47.74683383179349
 30
0.0
  0
SPLINE
  5
1C3
330
1F
100
AcDbEntity
  8
0
  6
Continuous
 62
     7
370
    15
100
AcDbSpline
210
0.0
220
0.0
230
1.0
 70
     8
 71
     3
 72
    12
 73
     8
 74
     0
 42
0.0000000001
 43
0.0000000001
 40
0.0
 40
0.0
 40
0.0
 40
0.0
 40
0.2062059498228979
 40
0.4121074139073512
 40
0.6257062761425184
 40
0.8450579617638606
 40
1.0
 40
1.0
 40
1.0
 40
1.0
 10
67.49249941343888
 20
47.74683383179349
 30
0.0
 10
67.48008981329673
 20
47.74727608052308
 30
0.0
 10
67.45528893715041
 20
47.74815992495353
 30
0.0
 10
67.42190244768528
 20
47.75427794775994
 30
0.0
 10
67.39592887331238
 20
47.76108564580519
 30
0.0
 10
67.38018009462684
 20
47.76627469195104
 30
0.0
 10
67.37974759492047
 20
47.76642977859085
 30
0.0
 10
67.37956855802576
 20
47.76649397801113
 30
0.0
  0
SPLINE
  5
1C4
330
1F
100
AcDbEntity
  8
0
  6
Continuous
 62
     7
370
    15
100
AcDbSpline
210
0.0
220
0.0
230
1.0
 70
     8
 71
     3
 72
    13
 73
     9
 74
     0
 42
0.0000000001
 43
0.0000000001
 40
0.0
 40
0.0
 40
0.0
 40
0.0
 40
0.0563151880451769
 40
0.2587979508328744
 40
0.4640900861058086
 40
0.6794784788236104
 40
0.898080723295682
 40
1.0
 40
1.0
 40
1.0
 40
1.0
 10
67.60542968219209
 20
47.76649397801113
 30
0.0
 10
67.60580130461957
 20
47.76661961832298
 30
0.0
 10
67.60750910541094
 20
47.76719700173202
 30
0.0
 10
67.59841047470669
 20
47.76408910581973
 30
0.0
 10
67.57890942342283
 20
47.75819677236249
 30
0.0
 10
67.54868378615421
 20
47.75124008686314
 30
0.0
 10
67.51786653829879
 20
47.74728367897963
 30
0.0
 10
67.49861955863025
 20
47.74694236321389
 30
0.0
 10
67.49249941343888
 20
47.74683383179349
 30
0.0
  0
SPLINE
  5
1C5
330
1F
100
AcDbEntity
  8
0
  6
Continuous
 62
     7
370
    15
100
AcDbSpline
210
0.0
220
0.0
230
1.0
 70
    24
 71
     3
 72
    14
 73
    10
 74
     0
 42
0.0000000001
 43
0.0000000001
 40
0.0
 40
0.0
 40
0.0
 40
0.0
 40
0.0572814403817652
 40
0.216838290670341
 40
0.3797811564494187
 40
0.5427240645453661
 40
0.7022808794469795
 40
0.8554691376224303
 40
1.0
 40
1.0
 40
1.0
 40
1.0
 10
73.30104677260414
 20
22.23541755518461
 30
0.0
 10
73.30152144961329
 20
22.23541755518461
 30
0.0
 10
73.30331833444373
 20
22.23541755518461
 30
0.0
 10
73.28921747069182
 20
22.23541755518461
 30
0.0
 10
73.25841150031905
 20
22.23541755518461
 30
0.0
 10
73.21084784417206
 20
22.23541755518461
 30
0.0
 10
73.15118636630171
 20
22.23541755518461
 30
0.0
 10
73.08403061758571
 20
22.23541755518461
 30
0.0
 10
73.03492332028037
 20
22.23541755518461
 30
0.0
 10
73.01108366894931
 20
22.23541755518461
 30
0.0
  0
SPLINE
  5
1C6
330
1F
100
AcDbEntity
  8
0
  6
Continuous
 62
     7
370
    15
100
AcDbSpline
210
0.0
220
0.0
230
1.0
 70
    24
 71
     3
 72
    17
 73
    13
 74
     0
 42
0.0000000001
 43
0.0000000001
 40
0.0
 40
0.0
 40
0.0
 40
0.0
 40
0.0975982756848969
 40
0.2010426454930251
 40
0.3087876063025982
 40
0.4188190631520774
 40
0.5288505485771361
 40
0.6365954854907319
 40
0.7400398869297748
 40
0.8376381540958696
 40
0.9352364297807666
 40
1.0
 40
1.0
 40
1.0
 40
1.0
 10
73.01108366894931
 20
22.23541755518461
 30
0.0
 10
72.98643277697661
 20
22.23541755518461
 30
0.0
 10
72.93565441535927
 20
22.23541755518461
 30
0.0
 10
72.85461772843382
 20
22.23541755518461
 30
0.0
 10
72.77185222591052
 20
22.23541755518461
 30
0.0
 10
72.69203769894954
 20
22.23541755518461
 30
0.0
 10
72.62041846277793
 20
22.23541755518461
 30
0.0
 10
72.56116802631897
 20
22.23541755518461
 30
0.0
 10
72.51645520260052
 20
22.23541755518461
 30
0.0
 10
72.48682649348123
 20
22.23541755518461
 30
0.0
 10
72.47087985484094
 20
22.23541755518461
 30
0.0
 10
72.4712182262831
 20
22.23541755518461
 30
0.0
 10
72.47135319729508
 20
22.23541755518461
 30
0.0
  0
SPLINE
  5
1C7
330
1F
100
AcDbEntity
  8
0
  6
Continuous
 62
     7
370
    15
100
AcDbSpline
210
0.0
220
0.0
230
1.0
 70
    24
 71
     3
 72
    43
 73
    39
 74
     0
 42
0.0000000001
 43
0.0000000001
 40
0.0
 40
0.0
 40
0.0
 40
0.0
 40
0.0057320733142048
 40
0.0114623413230926
 40
0.0171912676411996
 40
0.022919316208842
 40
0.0286469511796298
 40
0.0343746368077231
 40
0.0401028373349651
 40
0.0458320168780302
 40
0.0515626393157249
 40
0.0572951681765765
 40
0.086903908634142
 40
0.1165152215933873
 40
0.1470041252463094
 40
0.1774955819696727
 40
0.2087589107939219
 40
0.2400247618699215
 40
0.3038306982835036
 40
0.3686441078880286
 40
0.4341470057970404
 40
0.5000001709709196
 40
0.5658533361447987
 40
0.6313562340538104
 40
0.6961696436583354
 40
0.7599755800719176
 40
0.7912389089327143
 40
0.8225047600418292
 40
0.8529936636172099
 40
0.8834851202808108
 40
0.9130938607831263
 40
0.9427051737847628
 40
0.9522571774310472
 40
0.9618051698555632
 40
0.9713512991835083
 40
0.9808977147977763
 40
0.9904465658879376
 40
1.0
 40
1.0
 40
1.0
 40
1.0
 10
72.88619998494962
 20
20.6606143633388
 30
0.0
 10
72.90143890724374
 20
20.6606143633388
 30
0.0
 10
72.93191195236312
 20
20.6606143633388
 30
0.0
 10
72.9776118603479
 20
20.6606143633388
 30
0.0
 10
73.02329367678575
 20
20.6606143633388
 30
0.0
 10
73.06895740062174
 20
20.6606143633388
 30
0.0
 10
73.11460303196151
 20
20.6606143633388
 30
0.0
 10
73.16023056603839
 20
20.6606143633388
 30
0.0
 10
73.2058400164164
 20
20.6606143633388
 30
0.0
 10
73.25143132820603
 20
20.6606143633388
 30
0.0
 10
73.29700470209548
 20
20.6606143633388
 30
0.0
 10
73.40579709570869
 20
20.6606143633388
 30
0.0
 10
73.57744150907831
 20
20.6606143633388
 30
0.0
 10
73.81297869202644
 20
20.6606143633388
 30
0.0
 10
74.04877528529062
 20
20.6606143633388
 30
0.0
 10
74.28617559304985
 20
20.6606143633388
 30
0.0
 10
74.52228826459521
 20
20.6606143633388
 30
0.0
 10
74.83761331576286
 20
20.6606143633388
 30
0.0
 10
75.22520489764793
 20
20.6606143633388
 30
0.0
 10
75.67172394535766
 20
20.6606143633388
 30
0.0
 10
76.09373005665685
 20
20.6606143633388
 30
0.0
 10
76.48382392352278
 20
20.6606143633388
 30
0.0
 10
76.83551200367031
 20
20.6606143633388
 30
0.0
 10
77.14351134530969
 20
20.6606143633388
 30
0.0
 10
77.40401088007047
 20
20.6606143633388
 30
0.0
 10
77.58038380352044
 20
20.6606143633388
 30
0.0
 10
77.69635545525034
 20
20.6606143633388
 30
0.0
 10
77.77023829803039
 20
20.6606143633388
 30
0.0
 10
77.83208663853935
 20
20.6606143633388
 30
0.0
 10
77.88157621137202
 20
20.6606143633388
 30
0.0
 10
77.91953308397407
 20
20.6606143633388
 30
0.0
 10
77.94019114919447
 20
20.6606143633388
 30
0.0
 10
77.95086249879616
 20
20.6606143633388
 30
0.0
 10
77.95599789006849
 20
20.6606143633388
 30
0.0
 10
77.9599976151878
 20
20.6606143633388
 30
0.0
 10
77.96283395174365
 20
20.6606143633388
 30
0.0
 10
77.96461063234184
 20
20.6606143633388
 30
0.0
 10
77.96483028816727
 20
20.6606143633388
 30
0.0
 10
77.96494014242992
 20
20.6606143633388
 30
0.0
  0
SPLINE
  5
1C8
330
1F
100
AcDbEntity
  8
0
  6
Continuous
 62
     7
370
    15
100
AcDbSpline
210
0.0
220
0.0
230
1.0
 70
    24
 71
     3
 72
    43
 73
    39
 74
     0
 42
0.0000000001
 43
0.0000000001
 40
0.0
 40
0.0
 40
0.0
 40
0.0
 40
0.0057318380767252
 40
0.0114619229852418
 40
0.0171907184268161
 40
0.0229186884160054
 40
0.0286462971679851
 40
0.0343740089857627
 40
0.0401022881472844
 40
0.0458315987925706
 40
0.0515624048110208
 40
0.0572951697290237
 40
0.0869039100759286
 40
0.116515222940237
 40
0.147004126487716
 40
0.17749558310484
 40
0.2087589118298637
 40
0.2400247627880036
 40
0.3038306989800704
 40
0.3686441083595826
 40
0.4341470060411878
 40
0.5000001709864447
 40
0.5658533359317018
 40
0.6313562336133071
 40
0.6961696429928189
 40
0.7599755791848858
 40
0.7912389079467862
 40
0.8225047589377043
 40
0.8529936624079578
 40
0.88348511896497
 40
0.9130938593617011
 40
0.9427051722633308
 40
0.9522575402128506
 40
0.9618057511569388
 40
0.9713519532698839
 40
0.980898296082092
 40
0.9904469290289476
 40
1.0
 40
1.0
 40
1.0
 40
1.0
 10
67.8074598274693
 20
20.6606143633388
 30
0.0
 10
67.80749929123939
 20
20.6606143633388
 30
0.0
 10
67.80757820670903
 20
20.6606143633388
 30
0.0
 10
67.80821761508573
 20
20.6606143633388
 30
0.0
 10
67.80923849536998
 20
20.6606143633388
 30
0.0
 10
67.81067822202371
 20
20.6606143633388
 30
0.0
 10
67.81252678386775
 20
20.6606143633388
 30
0.0
 10
67.81478686183397
 20
20.6606143633388
 30
0.0
 10
67.81745774146926
 20
20.6606143633388
 30
0.0
 10
67.82053959943829
 20
20.6606143633388
 30
0.0
 10
67.82403244302779
 20
20.6606143633388
 30
0.0
 10
67.83335467435694
 20
20.6606143633388
 30
0.0
 10
67.8528663029511
 20
20.6606143633388
 30
0.0
 10
67.89082118592088
 20
20.6606143633388
 30
0.0
 10
67.94031176366991
 20
20.6606143633388
 30
0.0
 10
68.00215795242468
 20
20.6606143633388
 30
0.0
 10
68.07604236740539
 20
20.6606143633388
 30
0.0
 10
68.19201337553562
 20
20.6606143633388
 30
0.0
 10
68.36838909277912
 20
20.6606143633388
 30
0.0
 10
68.62888862378778
 20
20.6606143633388
 30
0.0
 10
68.93688796643357
 20
20.6606143633388
 30
0.0
 10
69.28857604636823
 20
20.6606143633388
 30
0.0
 10
69.67866991307073
 20
20.6606143633388
 30
0.0
 10
70.10067602522912
 20
20.6606143633388
 30
0.0
 10
70.54719506971759
 20
20.6606143633388
 30
0.0
 10
70.93478054713739
 20
20.6606143633388
 30
0.0
 10
71.25010533831943
 20
20.6606143633388
 30
0.0
 10
71.48621139907664
 20
20.6606143633388
 30
0.0
 10
71.7236181004883
 20
20.6606143633388
 30
0.0
 10
71.95940776872186
 20
20.6606143633388
 30
0.0
 10
72.19495207537017
 20
20.6606143633388
 30
0.0
 10
72.37668932036178
 20
20.6606143633388
 30
0.0
 10
72.50575375327798
 20
20.6606143633388
 30
0.0
 10
72.58174172058983
 20
20.6606143633388
 30
0.0
 10
72.6577818372437
 20
20.6606143633388
 30
0.0
 10
72.73387456992705
 20
20.6606143633388
 30
0.0
 10
72.8100197800181
 20
20.6606143633388
 30
0.0
 10
72.86080265039996
 20
20.6606143633388
 30
0.0
 10
72.88619998494962
 20
20.6606143633388
 30
0.0
  0
SPLINE
  5
1C9
330
1F
100
AcDbEntity
  8
0
  6
Continuous
 62
     7
370
    15
100
AcDbSpline
210
0.0
220
0.0
230
1.0
 70
    24
 71
     3
 72
    10
 73
     6
 74
     0
 42
0.0000000001
 43
0.0000000001
 40
0.0
 40
0.0
 40
0.0
 40
0.0
 40
0.5
 40
0.5
 40
1.0
 40
1.0
 40
1.0
 40
1.0
 10
72.88619998494962
 20
20.18817341845691
 30
0.0
 10
74.233127502115
 20
20.18817341845691
 30
0.0
 10
75.52499000903407
 20
20.18817341845691
 30
0.0
 10
77.42983317134281
 20
20.18817341845691
 30
0.0
 10
77.96494014242992
 20
20.18817341845691
 30
0.0
 10
77.96494014242992
 20
20.18817341845691
 30
0.0
  0
SPLINE
  5
1CA
330
1F
100
AcDbEntity
  8
0
  6
Continuous
 62
     7
370
    15
100
AcDbSpline
210
0.0
220
0.0
230
1.0
 70
    24
 71
     3
 72
    10
 73
     6
 74
     0
 42
0.0000000001
 43
0.0000000001
 40
0.0
 40
0.0
 40
0.0
 40
0.0
 40
0.5
 40
0.5
 40
1.0
 40
1.0
 40
1.0
 40
1.0
 10
67.8074598274693
 20
20.18817341845691
 30
0.0
 10
67.80745982746933
 20
20.18817341845691
 30
0.0
 10
68.3425667985565
 20
20.18817341845691
 30
0.0
 10
70.2474099608653
 20
20.18817341845691
 30
0.0
 10
71.53927246778426
 20
20.18817341845691
 30
0.0
 10
72.88619998494962
 20
20.18817341845691
 30
0.0
  0
SPLINE
  5
1CB
330
1F
100
AcDbEntity
  8
0
  6
Continuous
 62
     7
370
    15
100
AcDbSpline
210
0.0
220
0.0
230
1.0
 70
    24
 71
     3
 72
    10
 73
     6
 74
     0
 42
0.0000000001
 43
0.0000000001
 40
0.0
 40
0.0
 40
0.0
 40
0.0
 40
0.5
 40
0.5
 40
1.0
 40
1.0
 40
1.0
 40
1.0
 10
72.88619998494962
 20
20.07006318223644
 30
0.0
 10
74.1287145162882
 20
20.07006318223644
 30
0.0
 10
75.32043264282595
 20
20.07006318223644
 30
0.0
 10
77.07761354449065
 20
20.07006318223644
 30
0.0
 10
77.57123935502841
 20
20.07006318223644
 30
0.0
 10
77.57123935502832
 20
20.07006318223644
 30
0.0
  0
SPLINE
  5
1CC
330
1F
100
AcDbEntity
  8
0
  6
Continuous
 62
     7
370
    15
100
AcDbSpline
210
0.0
220
0.0
230
1.0
 70
    24
 71
     3
 72
    10
 73
     6
 74
     0
 42
0.0000000001
 43
0.0000000001
 40
0.0
 40
0.0
 40
0.0
 40
0.0
 40
0.5
 40
0.5
 40
1.0
 40
1.0
 40
1.0
 40
1.0
 10
68.2011606148709
 20
20.07006318223644
 30
0.0
 10
68.2011606148709
 20
20.07006318223644
 30
0.0
 10
68.69478642540866
 20
20.07006318223644
 30
0.0
 10
70.45196732707336
 20
20.07006318223644
 30
0.0
 10
71.64368545361106
 20
20.07006318223644
 30
0.0
 10
72.88619998494962
 20
20.07006318223644
 30
0.0
  0
LINE
  5
1CD
330
1F
100
AcDbEntity
  8
0
  6
Continuous
 62
     8
370
    15
100
AcDbLine
 10
78.39013688319934
 20
47.99132316729894
 30
0.0
 11
78.16966481669934
 21
47.99132316729894
 31
0.0
  0
LINE
  5
1CE
330
1F
100
AcDbEntity
  8
0
  6
Continuous
 62
     8
370
    15
100
AcDbLine
 10
67.60273515319934
 20
47.99132316729894
 30
0.0
 11
67.38226308669934
 21
47.99132316729894
 31
0.0
  0
LINE
  5
1CF
330
1F
100
AcDbEntity
  8
0
  6
Continuous
 62
     8
370
    15
100
AcDbLine
 10
67.21690889019933
 20
47.43226679879894
 30
0.0
 11
67.21690889019933
 21
47.09762191829894
 31
0.0
  0
LINE
  5
1D0
330
1F
100
AcDbEntity
  8
0
  6
Continuous
 62
     8
370
    15
100
AcDbLine
 10
67.21690889019933
 20
47.76691402629893
 30
0.0
 11
67.21690889019933
 21
47.43226679879894
 31
0.0
  0
LINE
  5
1D1
330
1F
100
AcDbEntity
  8
0
  6
Continuous
 62
     8
370
    15
100
AcDbLine
 10
78.55549107969932
 20
47.43226679879894
 30
0.0
 11
78.55549107969932
 21
47.76691402629893
 31
0.0
  0
LINE
  5
1D2
330
1F
100
AcDbEntity
  8
0
  6
Continuous
 62
     8
370
    15
100
AcDbLine
 10
78.55549107969932
 20
47.09762191829894
 30
0.0
 11
78.55549107969932
 21
47.43226679879894
 31
0.0
  0
LINE
  5
1D3
330
1F
100
AcDbEntity
  8
0
  6
Continuous
 62
     8
370
    15
100
AcDbLine
 10
73.34210049819933
 20
22.19947921029894
 30
0.0
 11
72.43029947169936
 21
22.19947921029894
 31
0.0
  0
LINE
  5
1D4
330
1F
100
AcDbEntity
  8
0
  6
Continuous
 62
     8
370
    15
100
AcDbLine
 10
72.88619998519934
 20
20.62124428229893
 30
0.0
 11
78.00431003319932
 21
20.62124428229893
 31
0.0
  0
LINE
  5
1D5
330
1F
100
AcDbEntity
  8
0
  6
Continuous
 62
     8
370
    15
100
AcDbLine
 10
67.76808993669937
 20
20.62124428229893
 30
0.0
 11
72.88619998519934
 21
20.62124428229893
 31
0.0
  0
LINE
  5
1D6
330
1F
100
AcDbEntity
  8
0
  6
Continuous
 62
     8
370
    15
100
AcDbLine
 10
72.88619998519934
 20
20.22754349929894
 30
0.0
 11
78.00431003319932
 21
20.22754349929894
 31
0.0
  0
LINE
  5
1D7
330
1F
100
AcDbEntity
  8
0
  6
Continuous
 62
     8
370
    15
100
AcDbLine
 10
67.76808993669937
 20
20.22754349929894
 30
0.0
 11
72.88619998519934
 21
20.22754349929894
 31
0.0
  0
LINE
  5
1D8
330
1F
100
AcDbEntity
  8
0
  6
Continuous
 62
     8
370
    15
100
AcDbLine
 10
72.88619998519934
 20
20.10943325729894
 30
0.0
 11
77.61060932819936
 21
20.10943325729894
 31
0.0
  0
LINE
  5
1D9
330
1F
100
AcDbEntity
  8
0
  6
Continuous
 62
     8
370
    15
100
AcDbLine
 10
68.16179064169933
 20
20.10943325729894
 30
0.0
 11
72.88619998519934
 21
20.10943325729894
 31
0.0
  0
ARC
  5
1DA
330
1F
100
AcDbEntity
  8
0
  6
Continuous
 62
     7
370
    15
100
AcDbCircle
 10
78.55549132369936
 20
68.39733488029892
 30
0.0
 40
0.0393700787401665
100
AcDbArc
 50
0.0
 51
90.0
  0
ARC
  5
1DB
330
1F
100
AcDbEntity
  8
0
  6
Continuous
 62
     7
370
    15
100
AcDbCircle
 10
78.55549132369936
 20
67.80678369929894
 30
0.0
 40
0.0393700787401575
100
AcDbArc
 50
270.0
 51
0.0
  0
ARC
  5
1DC
330
1F
100
AcDbEntity
  8
0
  6
Continuous
 62
     7
370
    15
100
AcDbCircle
 10
67.21690864619933
 20
68.39733488029892
 30
0.0
 40
0.0393700787401665
100
AcDbArc
 50
90.0
 51
180.0
  0
ARC
  5
1DD
330
1F
100
AcDbEntity
  8
0
  6
Continuous
 62
     7
370
    15
100
AcDbCircle
 10
67.21690864619933
 20
67.80678369929894
 30
0.0
 40
0.0393700787401575
100
AcDbArc
 50
180.0
 51
270.0
  0
LINE
  5
1DE
330
1F
100
AcDbEntity
  8
0
  6
Continuous
 62
     7
370
    15
100
AcDbLine
 10
73.27990076369935
 20
67.76741360229895
 30
0.0
 11
78.55549107969932
 21
67.76741360229895
 31
0.0
  0
LINE
  5
1DF
330
1F
100
AcDbEntity
  8
0
  6
Continuous
 62
     7
370
    15
100
AcDbLine
 10
78.55549107969932
 20
68.43670497729894
 30
0.0
 11
73.09359474219935
 21
68.43670497729894
 31
0.0
  0
LINE
  5
1E0
330
1F
100
AcDbEntity
  8
0
  6
Continuous
 62
     7
370
    15
100
AcDbLine
 10
67.21690889019933
 20
67.76741360229895
 30
0.0
 11
72.49249920619934
 21
67.76741360229895
 31
0.0
  0
LINE
  5
1E1
330
1F
100
AcDbEntity
  8
0
  6
Continuous
 62
     7
370
    15
100
AcDbLine
 10
72.67880522769934
 20
68.43670497729894
 30
0.0
 11
67.21690889019933
 21
68.43670497729894
 31
0.0
  0
SPLINE
  5
1E2
330
1F
100
AcDbEntity
  8
0
  6
Continuous
 62
     7
370
    15
100
AcDbSpline
210
0.0
220
0.0
230
1.0
 70
     8
 71
     3
 72
    19
 73
    15
 74
     0
 42
0.0000000001
 43
0.0000000001
 40
0.0
 40
0.0
 40
0.0
 40
0.0
 40
0.1197284272521957
 40
0.1841803281729925
 40
0.25
 40
0.3158196718270075
 40
0.3802715727478044
 40
0.5
 40
0.6197284272521957
 40
0.6841803281729926
 40
0.7500000000000001
 40
0.8158196718270074
 40
0.8802715727478044
 40
1.0
 40
1.0
 40
1.0
 40
1.0
 10
72.88619998494962
 20
67.91701992227264
 30
0.0
 10
72.86292438070382
 20
67.91949168118867
 30
0.0
 10
72.82711911267518
 20
67.92329403104635
 30
0.0
 10
72.78402637808397
 20
67.9463679671625
 30
0.0
 10
72.75442289144251
 20
67.97024950052429
 30
0.0
 10
72.73038758583061
 20
67.9998940299507
 30
0.0
 10
72.7080358695822
 20
68.04297418825933
 30
0.0
 10
72.69669128510864
 20
68.10205928968208
 30
0.0
 10
72.7080358695822
 20
68.16114439110478
 30
0.0
 10
72.73038758583061
 20
68.2042245494135
 30
0.0
 10
72.75442289144251
 20
68.23386907883989
 30
0.0
 10
72.78402637808397
 20
68.25775061220169
 30
0.0
 10
72.82711911267518
 20
68.28082454831783
 30
0.0
 10
72.86292438070382
 20
68.28462689817548
 30
0.0
 10
72.88619998494962
 20
68.28709865709149
 30
0.0
  0
SPLINE
  5
1E3
330
1F
100
AcDbEntity
  8
0
  6
Continuous
 62
     7
370
    15
100
AcDbSpline
210
0.0
220
0.0
230
1.0
 70
     8
 71
     3
 72
    19
 73
    15
 74
     0
 42
0.0000000001
 43
0.0000000001
 40
0.0
 40
0.0
 40
0.0
 40
0.0
 40
0.1197284272521957
 40
0.1841803281729925
 40
0.25
 40
0.3158196718270075
 40
0.3802715727478044
 40
0.5000000000000001
 40
0.6197284272521957
 40
0.6841803281729926
 40
0.7500000000000001
 40
0.8158196718270074
 40
0.8802715727478044
 40
1.0
 40
1.0
 40
1.0
 40
1.0
 10
72.88619998494962
 20
68.28709865709149
 30
0.0
 10
72.9094755891954
 20
68.28462689817548
 30
0.0
 10
72.94528085722408
 20
68.28082454831783
 30
0.0
 10
72.98837359181522
 20
68.25775061220169
 30
0.0
 10
73.01797707845674
 20
68.23386907883989
 30
0.0
 10
73.04201238406861
 20
68.2042245494135
 30
0.0
 10
73.06436410031705
 20
68.16114439110478
 30
0.0
 10
73.07570868479058
 20
68.10205928968208
 30
0.0
 10
73.06436410031705
 20
68.04297418825933
 30
0.0
 10
73.04201238406861
 20
67.9998940299507
 30
0.0
 10
73.01797707845674
 20
67.97024950052429
 30
0.0
 10
72.98837359181522
 20
67.9463679671625
 30
0.0
 10
72.94528085722408
 20
67.92329403104635
 30
0.0
 10
72.9094755891954
 20
67.91949168118867
 30
0.0
 10
72.88619998494962
 20
67.91701992227264
 30
0.0
  0
SPLINE
  5
1E4
330
1F
100
AcDbEntity
  8
0
  6
Continuous
 62
     7
370
    15
100
AcDbSpline
210
0.0
220
0.0
230
1.0
 70
     8
 71
     3
 72
    19
 73
    15
 74
     0
 42
0.0000000001
 43
0.0000000001
 40
0.0
 40
0.0
 40
0.0
 40
0.0
 40
0.1197214694176746
 40
0.1848338707028272
 40
0.249999976607085
 40
0.3151123907094184
 40
0.3802785305823253
 40
0.5
 40
0.6197214694176747
 40
0.6848338707028274
 40
0.7499999766070851
 40
0.8151123907094184
 40
0.8802785305823253
 40
1.0
 40
1.0
 40
1.0
 40
1.0
 10
72.88619998494962
 20
67.97659663653735
 30
0.0
 10
72.90197620297854
 20
67.97828172191564
 30
0.0
 10
72.92633256493698
 20
67.98088326743993
 30
0.0
 10
72.95557992601641
 20
67.99650343431179
 30
0.0
 10
72.97551349494819
 20
68.01271391098393
 30
0.0
 10
72.99183403181896
 20
68.0326788898192
 30
0.0
 10
73.0069599717674
 20
68.06191683005909
 30
0.0
 10
73.01470778459708
 20
68.10205925583048
 30
0.0
 10
73.00696134306571
 20
68.14219477197482
 30
0.0
 10
72.99183794091437
 20
68.17143348931333
 30
0.0
 10
72.97552341603247
 20
68.19139476375873
 30
0.0
 10
72.95558612711644
 20
68.20761127409193
 30
0.0
 10
72.9263395509798
 20
68.22323435031823
 30
0.0
 10
72.90197616551293
 20
68.22583677678522
 30
0.0
 10
72.88619998494962
 20
68.22752194282678
 30
0.0
  0
SPLINE
  5
1E5
330
1F
100
AcDbEntity
  8
0
  6
Continuous
 62
     7
370
    15
100
AcDbSpline
210
0.0
220
0.0
230
1.0
 70
     8
 71
     3
 72
    19
 73
    15
 74
     0
 42
0.0000000001
 43
0.0000000001
 40
0.0
 40
0.0
 40
0.0
 40
0.0
 40
0.1197214694176746
 40
0.1848338707028273
 40
0.249999976607085
 40
0.3151123907094184
 40
0.3802785305823253
 40
0.5
 40
0.6197214694176747
 40
0.6848338707028274
 40
0.7499999766070851
 40
0.8151123907094184
 40
0.8802785305823253
 40
1.0
 40
1.0
 40
1.0
 40
1.0
 10
72.88619998494962
 20
68.22752194282678
 30
0.0
 10
72.8704237669207
 20
68.22583685744854
 30
0.0
 10
72.84606740496224
 20
68.22323531192418
 30
0.0
 10
72.81682004388284
 20
68.20761514505234
 30
0.0
 10
72.79688647495103
 20
68.19140466838018
 30
0.0
 10
72.78056593808026
 20
68.171439689545
 30
0.0
 10
72.76543999813182
 20
68.14220174930504
 30
0.0
 10
72.75769218530214
 20
68.10205932353362
 30
0.0
 10
72.76543862683354
 20
68.06192380738934
 30
0.0
 10
72.78056202898489
 20
68.03268509005078
 30
0.0
 10
72.79687655386675
 20
68.01272381560536
 30
0.0
 10
72.81681384278278
 20
67.99650730527218
 30
0.0
 10
72.84606041891945
 20
67.98088422904593
 30
0.0
 10
72.87042380438632
 20
67.97828180257893
 30
0.0
 10
72.88619998494962
 20
67.97659663653735
 30
0.0
  0
ARC
  5
1E6
330
1F
100
AcDbEntity
  8
0
  6
Continuous
 62
     7
370
    15
100
AcDbCircle
 10
72.88619998519934
 20
68.10205928979894
 30
0.0
 40
0.1136516277932305
100
AcDbArc
 50
60.0
 51
120.0
  0
ARC
  5
1E7
330
1F
100
AcDbEntity
  8
0
  6
Continuous
 62
     7
370
    15
100
AcDbCircle
 10
72.88619998519934
 20
68.10205928979894
 30
0.0
 40
0.1136516277932385
100
AcDbArc
 50
120.0
 51
180.0
  0
ARC
  5
1E8
330
1F
100
AcDbEntity
  8
0
  6
Continuous
 62
     7
370
    15
100
AcDbCircle
 10
72.88619998519934
 20
68.10205928979894
 30
0.0
 40
0.1136516277932385
100
AcDbArc
 50
180.0
 51
240.0
  0
ARC
  5
1E9
330
1F
100
AcDbEntity
  8
0
  6
Continuous
 62
     7
370
    15
100
AcDbCircle
 10
72.88619998519934
 20
68.10205928979894
 30
0.0
 40
0.1136516277932305
100
AcDbArc
 50
240.0
 51
300.0
  0
ARC
  5
1EA
330
1F
100
AcDbEntity
  8
0
  6
Continuous
 62
     7
370
    15
100
AcDbCircle
 10
72.88619998519934
 20
68.10205928979894
 30
0.0
 40
0.1136516277932305
100
AcDbArc
 50
300.0
 51
0.0
  0
ARC
  5
1EB
330
1F
100
AcDbEntity
  8
0
  6
Continuous
 62
     7
370
    15
100
AcDbCircle
 10
72.88619998519934
 20
68.10205928979894
 30
0.0
 40
0.1136516277932305
100
AcDbArc
 50
0.0
 51
60.0
  0
CIRCLE
  5
1EC
330
1F
100
AcDbEntity
  8
0
  6
Continuous
 62
     7
370
    15
100
AcDbCircle
 10
72.88619998519934
 20
68.10205928979894
 30
0.0
 40
0.196850393700796
  0
LINE
  5
1ED
330
1F
100
AcDbEntity
  8
0
  6
Continuous
 62
     7
370
    15
100
AcDbLine
 10
72.82937416919932
 20
68.00363409479892
 30
0.0
 11
72.77254835369934
 21
68.10205928979894
 31
0.0
  0
LINE
  5
1EE
330
1F
100
AcDbEntity
  8
0
  6
Continuous
 62
     7
370
    15
100
AcDbLine
 10
72.99985161619935
 20
68.10205928979894
 30
0.0
 11
72.94302580069936
 21
68.00363409479892
 31
0.0
  0
LINE
  5
1EF
330
1F
100
AcDbEntity
  8
0
  6
Continuous
 62
     7
370
    15
100
AcDbLine
 10
72.94302580069936
 20
68.00363409479892
 30
0.0
 11
72.82937416919932
 21
68.00363409479892
 31
0.0
  0
LINE
  5
1F0
330
1F
100
AcDbEntity
  8
0
  6
Continuous
 62
     7
370
    15
100
AcDbLine
 10
72.94302580069936
 20
68.20048448429893
 30
0.0
 11
72.99985161619935
 21
68.10205928979894
 31
0.0
  0
LINE
  5
1F1
330
1F
100
AcDbEntity
  8
0
  6
Continuous
 62
     7
370
    15
100
AcDbLine
 10
72.82937416919932
 20
68.20048448429893
 30
0.0
 11
72.94302580069936
 21
68.20048448429893
 31
0.0
  0
LINE
  5
1F2
330
1F
100
AcDbEntity
  8
0
  6
Continuous
 62
     7
370
    15
100
AcDbLine
 10
72.77254835369934
 20
68.10205928979894
 30
0.0
 11
72.82937416919932
 21
68.20048448429893
 31
0.0
  0
LINE
  5
1F3
330
1F
100
AcDbEntity
  8
0
  6
Continuous
 62
     7
370
    15
100
AcDbLine
 10
70.77990075719935
 20
66.87318025229894
 30
0.0
 11
70.77990075719935
 21
66.75506999679893
 31
0.0
  0
LINE
  5
1F4
330
1F
100
AcDbEntity
  8
0
  6
Continuous
 62
     7
370
    15
100
AcDbLine
 10
71.96100316619933
 20
66.75506999679893
 30
0.0
 11
71.96100316619933
 21
66.87318025229894
 31
0.0
  0
LINE
  5
1F5
330
1F
100
AcDbEntity
  8
0
  6
Continuous
 62
     7
370
    15
100
AcDbLine
 10
71.96100316619933
 20
66.87318025229894
 30
0.0
 11
70.77990075719935
 21
66.87318025229894
 31
0.0
  0
LINE
  5
1F6
330
1F
100
AcDbEntity
  8
0
  6
Continuous
 62
     7
370
    15
100
AcDbLine
 10
70.77990075719935
 20
66.75506999679893
 30
0.0
 11
71.96100316619933
 21
66.75506999679893
 31
0.0
  0
LINE
  5
1F7
330
1F
100
AcDbEntity
  8
0
  6
Continuous
 62
     7
370
    15
100
AcDbLine
 10
71.98068817219933
 20
66.75506999679893
 30
0.0
 11
73.16179054469936
 21
66.75506999679893
 31
0.0
  0
LINE
  5
1F8
330
1F
100
AcDbEntity
  8
0
  6
Continuous
 62
     7
370
    15
100
AcDbLine
 10
73.16179054469936
 20
66.87318025229894
 30
0.0
 11
71.98068817219933
 21
66.87318025229894
 31
0.0
  0
LINE
  5
1F9
330
1F
100
AcDbEntity
  8
0
  6
Continuous
 62
     7
370
    15
100
AcDbLine
 10
73.16179054469936
 20
66.75506999679893
 30
0.0
 11
73.16179054469936
 21
66.87318025229894
 31
0.0
  0
LINE
  5
1FA
330
1F
100
AcDbEntity
  8
0
  6
Continuous
 62
     7
370
    15
100
AcDbLine
 10
71.98068817219933
 20
66.87318025229894
 30
0.0
 11
71.98068817219933
 21
66.75506999679893
 31
0.0
  0
LINE
  5
1FB
330
1F
100
AcDbEntity
  8
0
  6
Continuous
 62
     7
370
    15
100
AcDbLine
 10
78.59486123819934
 20
66.75506999679893
 30
0.0
 11
78.59486123819934
 21
66.87318025229894
 31
0.0
  0
LINE
  5
1FC
330
1F
100
AcDbEntity
  8
0
  6
Continuous
 62
     7
370
    15
100
AcDbLine
 10
78.59486123819934
 20
66.87318025229894
 30
0.0
 11
74.38226292919932
 21
66.87318025229894
 31
0.0
  0
LINE
  5
1FD
330
1F
100
AcDbEntity
  8
0
  6
Continuous
 62
     7
370
    15
100
AcDbLine
 10
74.38226292919932
 20
66.75506999679893
 30
0.0
 11
78.59486123819934
 21
66.75506999679893
 31
0.0
  0
LINE
  5
1FE
330
1F
100
AcDbEntity
  8
0
  6
Continuous
 62
     7
370
    15
100
AcDbLine
 10
74.38226292919932
 20
66.87318025229894
 30
0.0
 11
74.38226292919932
 21
66.75506999679893
 31
0.0
  0
LINE
  5
1FF
330
1F
100
AcDbEntity
  8
0
  6
Continuous
 62
     7
370
    15
100
AcDbLine
 10
69.57911341519931
 20
66.87318025229894
 30
0.0
 11
69.57911341519931
 21
66.75506999679893
 31
0.0
  0
LINE
  5
200
330
1F
100
AcDbEntity
  8
0
  6
Continuous
 62
     7
370
    15
100
AcDbLine
 10
70.76021567769931
 20
66.87318025229894
 30
0.0
 11
69.57911341519931
 21
66.87318025229894
 31
0.0
  0
LINE
  5
201
330
1F
100
AcDbEntity
  8
0
  6
Continuous
 62
     7
370
    15
100
AcDbLine
 10
70.76021567769931
 20
66.75506999679893
 30
0.0
 11
70.76021567769931
 21
66.87318025229894
 31
0.0
  0
LINE
  5
202
330
1F
100
AcDbEntity
  8
0
  6
Continuous
 62
     7
370
    15
100
AcDbLine
 10
69.57911341519931
 20
66.75506999679893
 30
0.0
 11
70.76021567769931
 21
66.75506999679893
 31
0.0
  0
LINE
  5
203
330
1F
100
AcDbEntity
  8
0
  6
Continuous
 62
     7
370
    15
100
AcDbLine
 10
68.35864084769935
 20
66.75506999679893
 30
0.0
 11
68.35864084769935
 21
66.87318025229894
 31
0.0
  0
LINE
  5
204
330
1F
100
AcDbEntity
  8
0
  6
Continuous
 62
     7
370
    15
100
AcDbLine
 10
67.17753873169934
 20
66.75506999679893
 30
0.0
 11
68.35864084769935
 21
66.75506999679893
 31
0.0
  0
LINE
  5
205
330
1F
100
AcDbEntity
  8
0
  6
Continuous
 62
     7
370
    15
100
AcDbLine
 10
67.17753873169934
 20
66.87318025229894
 30
0.0
 11
67.17753873169934
 21
66.75506999679893
 31
0.0
  0
LINE
  5
206
330
1F
100
AcDbEntity
  8
0
  6
Continuous
 62
     7
370
    15
100
AcDbLine
 10
68.35864084769935
 20
66.87318025229894
 30
0.0
 11
67.17753873169934
 21
66.87318025229894
 31
0.0
  0
LINE
  5
207
330
1F
100
AcDbEntity
  8
0
  6
Continuous
 62
     7
370
    15
100
AcDbLine
 10
69.55942833619935
 20
66.87318025229894
 30
0.0
 11
68.37832592719934
 21
66.87318025229894
 31
0.0
  0
LINE
  5
208
330
1F
100
AcDbEntity
  8
0
  6
Continuous
 62
     7
370
    15
100
AcDbLine
 10
69.55942833619935
 20
66.75506999679893
 30
0.0
 11
69.55942833619935
 21
66.87318025229894
 31
0.0
  0
LINE
  5
209
330
1F
100
AcDbEntity
  8
0
  6
Continuous
 62
     7
370
    15
100
AcDbLine
 10
68.37832592719934
 20
66.75506999679893
 30
0.0
 11
69.55942833619935
 21
66.75506999679893
 31
0.0
  0
LINE
  5
20A
330
1F
100
AcDbEntity
  8
0
  6
Continuous
 62
     7
370
    15
100
AcDbLine
 10
68.37832592719934
 20
66.87318025229894
 30
0.0
 11
68.37832592719934
 21
66.75506999679893
 31
0.0
  0
LINE
  5
20B
330
1F
100
AcDbEntity
  8
0
  6
Continuous
 62
     7
370
    15
100
AcDbLine
 10
74.36257799619935
 20
66.75506999679893
 30
0.0
 11
74.36257799619935
 21
66.87318025229894
 31
0.0
  0
LINE
  5
20C
330
1F
100
AcDbEntity
  8
0
  6
Continuous
 62
     7
370
    15
100
AcDbLine
 10
74.36257799619935
 20
66.87318025229894
 30
0.0
 11
73.18147556869934
 21
66.87318025229894
 31
0.0
  0
LINE
  5
20D
330
1F
100
AcDbEntity
  8
0
  6
Continuous
 62
     7
370
    15
100
AcDbLine
 10
73.18147556869934
 20
66.75506999679893
 30
0.0
 11
74.36257799619935
 21
66.75506999679893
 31
0.0
  0
LINE
  5
20E
330
1F
100
AcDbEntity
  8
0
  6
Continuous
 62
     7
370
    15
100
AcDbLine
 10
73.18147556869934
 20
66.87318025229894
 30
0.0
 11
73.18147556869934
 21
66.75506999679893
 31
0.0
  0
LINE
  5
20F
330
1F
100
AcDbEntity
  8
0
  6
Continuous
 62
     7
370
    15
100
AcDbLine
 10
67.17753873169934
 20
66.64536635729894
 30
0.0
 11
78.59486123819934
 21
66.64536635729894
 31
0.0
  0
LINE
  5
210
330
1F
100
AcDbEntity
  8
0
  6
Continuous
 62
     7
370
    15
100
AcDbLine
 10
67.17753873169934
 20
67.43276791479893
 30
0.0
 11
78.59486123819934
 21
67.43276791479893
 31
0.0
  0
LINE
  5
211
330
1F
100
AcDbEntity
  8
0
  6
Continuous
 62
     7
370
    15
100
AcDbLine
 10
78.59486123819934
 20
66.64536635729894
 30
0.0
 11
78.59486123819934
 21
66.75506999679893
 31
0.0
  0
LINE
  5
212
330
1F
100
AcDbEntity
  8
0
  6
Continuous
 62
     7
370
    15
100
AcDbLine
 10
78.59486123819934
 20
66.87318025229894
 30
0.0
 11
78.59486123819934
 21
67.43276791479893
 31
0.0
  0
LINE
  5
213
330
1F
100
AcDbEntity
  8
0
  6
Continuous
 62
     7
370
    15
100
AcDbLine
 10
67.17753873169934
 20
66.87318025229894
 30
0.0
 11
67.17753873169934
 21
67.43276791479893
 31
0.0
  0
LINE
  5
214
330
1F
100
AcDbEntity
  8
0
  6
Continuous
 62
     7
370
    15
100
AcDbLine
 10
67.17753873169934
 20
66.64536635729894
 30
0.0
 11
67.17753873169934
 21
66.75506999679893
 31
0.0
  0
LINE
  5
215
330
1F
100
AcDbEntity
  8
0
  6
Continuous
 62
     7
370
    15
100
AcDbLine
 10
67.68934961919933
 20
67.66898842579895
 30
0.0
 11
78.08305035069932
 21
67.66898842579895
 31
0.0
  0
LINE
  5
216
330
1F
100
AcDbEntity
  8
0
  6
Continuous
 62
     7
370
    15
100
AcDbLine
 10
67.57123914369936
 20
67.47213799979895
 30
0.0
 11
78.20116082619932
 21
67.47213799979895
 31
0.0
  0
LINE
  5
217
330
1F
100
AcDbEntity
  8
0
  6
Continuous
 62
     7
370
    15
100
AcDbLine
 10
67.68934961919933
 20
67.66898842579895
 30
0.0
 11
67.57123914369936
 21
67.47213799979895
 31
0.0
  0
LINE
  5
218
330
1F
100
AcDbEntity
  8
0
  6
Continuous
 62
     7
370
    15
100
AcDbLine
 10
78.20116082619932
 20
67.47213799979895
 30
0.0
 11
78.08305035069932
 21
67.66898842579895
 31
0.0
  0
LINE
  5
219
330
1F
100
AcDbEntity
  8
0
  6
Continuous
 62
     7
370
    15
100
AcDbLine
 10
67.57123914369936
 20
67.43276791479893
 30
0.0
 11
67.57123914369936
 21
67.47213799979895
 31
0.0
  0
LINE
  5
21A
330
1F
100
AcDbEntity
  8
0
  6
Continuous
 62
     7
370
    15
100
AcDbLine
 10
78.20116082619932
 20
67.43276791479893
 30
0.0
 11
78.20116082619932
 21
67.47213799979895
 31
0.0
  0
CIRCLE
  5
21B
330
1F
100
AcDbEntity
  8
0
  6
Continuous
 62
     7
370
    15
100
AcDbCircle
 10
72.88619998519934
 20
68.10205928979894
 30
0.0
 40
0.216535433072451
  0
LINE
  5
21C
330
1F
100
AcDbEntity
  8
0
  6
Continuous
 62
     7
370
    15
100
AcDbLine
 10
72.49249920619934
 20
68.10205928979894
 30
0.0
 11
72.49249920619934
 21
67.66898842579895
 31
0.0
  0
ARC
  5
21D
330
1F
100
AcDbEntity
  8
0
  6
Continuous
 62
     7
370
    15
100
AcDbCircle
 10
72.88619998519934
 20
68.10205928979894
 30
0.0
 40
0.3937007874015741
100
AcDbArc
 50
0.0
 51
180.0
  0
LINE
  5
21E
330
1F
100
AcDbEntity
  8
0
  6
Continuous
 62
     7
370
    15
100
AcDbLine
 10
73.27990076369935
 20
67.66898842579895
 30
0.0
 11
73.27990076369935
 21
68.10205928979894
 31
0.0
  0
SPLINE
  5
21F
330
1F
100
AcDbEntity
  8
0
  6
Continuous
 62
     7
370
    15
100
AcDbSpline
210
0.0
220
0.0
230
1.0
 70
     8
 71
     3
 72
    19
 73
    15
 74
     0
 42
0.0000000001
 43
0.0000000001
 40
0.0
 40
0.0
 40
0.0
 40
0.0
 40
0.1197196890285578
 40
0.1848182230181316
 40
0.2499996605492189
 40
0.3150963089632758
 40
0.3802786333232736
 40
0.4999999807850324
 40
0.6197213282467903
 40
0.6848177187698836
 40
0.7500003417001051
 40
0.8150967872452527
 40
0.8802803109714421
 40
1.0
 40
1.0
 40
1.0
 40
1.0
 10
78.27990055646035
 20
68.02331912846179
 30
0.0
 10
78.2699996313664
 20
68.02437677677961
 30
0.0
 10
78.25471499943202
 20
68.02600952978998
 30
0.0
 10
78.23635902288853
 20
68.03581164920274
 30
0.0
 10
78.22384953296893
 20
68.04598452847848
 30
0.0
 10
78.21360567779027
 20
68.05851511064694
 30
0.0
 10
78.20411196849057
 20
68.07686458623557
 30
0.0
 10
78.19924999134292
 20
68.1020592748342
 30
0.0
 10
78.20411069062657
 20
68.12724693162202
 30
0.0
 10
78.21360156442222
 20
68.14559736238942
 30
0.0
 10
78.22383963858524
 20
68.15812415559751
 30
0.0
 10
78.23635293657736
 20
68.16830296780904
 30
0.0
 10
78.25470803340067
 20
68.17810815730233
 30
0.0
 10
78.26999965600641
 20
68.17974174699698
 30
0.0
 10
78.27990055646035
 20
68.18079945090232
 30
0.0
  0
SPLINE
  5
220
330
1F
100
AcDbEntity
  8
0
  6
Continuous
 62
     7
370
    15
100
AcDbSpline
210
0.0
220
0.0
230
1.0
 70
     8
 71
     3
 72
    19
 73
    15
 74
     0
 42
0.0000000001
 43
0.0000000001
 40
0.0
 40
0.0
 40
0.0
 40
0.0
 40
0.1197217040511802
 40
0.1848179486658762
 40
0.2500010547041847
 40
0.3150975273932928
 40
0.3802785807240888
 40
0.5000000509940082
 40
0.6197215212639282
 40
0.6848177360627689
 40
0.749998678361348
 40
0.8150949481820942
 40
0.8802782959488196
 40
1.0
 40
1.0
 40
1.0
 40
1.0
 10
78.27990055646035
 20
68.18079945090232
 30
0.0
 10
78.28980173692139
 20
68.17974192835658
 30
0.0
 10
78.30508648313079
 20
68.17810939940848
 30
0.0
 10
78.323442250374
 20
68.16830657571053
 30
0.0
 10
78.33595210713165
 20
68.15813426106689
 30
0.0
 10
78.34619612986847
 20
68.14560359601827
 30
0.0
 10
78.35568873757671
 20
68.12725370407102
 30
0.0
 10
78.36055225233526
 20
68.10205937214732
 30
0.0
 10
78.35569034737713
 20
68.07687163736829
 30
0.0
 10
78.34619951677137
 20
68.05852142391538
 30
0.0
 10
78.33596209006436
 20
68.04599423601823
 30
0.0
 10
78.3234487303653
 20
68.03581564059143
 30
0.0
 10
78.30509351005509
 20
68.02601031374402
 30
0.0
 10
78.28980166749648
 20
68.02437679421735
 30
0.0
 10
78.27990055646035
 20
68.02331912846179
 30
0.0
  0
CIRCLE
  5
221
330
1F
100
AcDbEntity
  8
0
  6
Continuous
 62
     7
370
    15
100
AcDbCircle
 10
78.27990077219934
 20
68.10205928979894
 30
0.0
 40
0.110236220472437
  0
SPLINE
  5
222
330
1F
100
AcDbEntity
  8
0
  6
Continuous
 62
     7
370
    15
100
AcDbSpline
210
0.0
220
0.0
230
1.0
 70
     8
 71
     3
 72
    19
 73
    15
 74
     0
 42
0.0000000001
 43
0.0000000001
 40
0.0
 40
0.0
 40
0.0
 40
0.0
 40
0.1197217040511802
 40
0.1848179486658762
 40
0.2500010547041847
 40
0.3150975273932928
 40
0.3802785807240888
 40
0.5000000509940085
 40
0.6197215212639282
 40
0.6848177360627689
 40
0.749998678361348
 40
0.8150949481820942
 40
0.8802782959488196
 40
1.0
 40
1.0
 40
1.0
 40
1.0
 10
67.49249941343888
 20
68.02331912846179
 30
0.0
 10
67.48259823297783
 20
68.0243766510076
 30
0.0
 10
67.46731348676846
 20
68.02600917995568
 30
0.0
 10
67.44895771952522
 20
68.03581200365357
 30
0.0
 10
67.43644786276758
 20
68.0459843182973
 30
0.0
 10
67.42620384003078
 20
68.05851498334589
 30
0.0
 10
67.41671123232254
 20
68.07686487529314
 30
0.0
 10
67.411847717564
 20
68.10205920721678
 30
0.0
 10
67.41670962252209
 20
68.12724694199591
 30
0.0
 10
67.42620045312785
 20
68.14559715544874
 30
0.0
 10
67.4364378798349
 20
68.15812434334595
 30
0.0
 10
67.44895123953395
 20
68.16830293877274
 30
0.0
 10
67.46730645984413
 20
68.17810826562014
 30
0.0
 10
67.48259830240272
 20
68.17974178514679
 30
0.0
 10
67.49249941343888
 20
68.18079945090232
 30
0.0
  0
SPLINE
  5
223
330
1F
100
AcDbEntity
  8
0
  6
Continuous
 62
     7
370
    15
100
AcDbSpline
210
0.0
220
0.0
230
1.0
 70
     8
 71
     3
 72
    19
 73
    15
 74
     0
 42
0.0000000001
 43
0.0000000001
 40
0.0
 40
0.0
 40
0.0
 40
0.0
 40
0.1197196890285578
 40
0.1848182230181316
 40
0.2499996605492188
 40
0.3150963089632758
 40
0.3802786333232735
 40
0.4999999807850319
 40
0.6197213282467903
 40
0.6848177187698836
 40
0.7500003417001051
 40
0.8150967872452527
 40
0.8802803109714421
 40
1.0
 40
1.0
 40
1.0
 40
1.0
 10
67.49249941343888
 20
68.18079945090232
 30
0.0
 10
67.50240033853282
 20
68.17974180258459
 30
0.0
 10
67.51768497046715
 20
68.17810904957415
 30
0.0
 10
67.53604094701064
 20
68.16830693016138
 30
0.0
 10
67.54855043693033
 20
68.15813405088569
 30
0.0
 10
67.55879429210899
 20
68.14560346871724
 30
0.0
 10
67.56828800140869
 20
68.12725399312859
 30
0.0
 10
67.57314997855633
 20
68.10205930452993
 30
0.0
 10
67.56828927927262
 20
68.07687164774211
 30
0.0
 10
67.55879840547698
 20
68.05852121697474
 30
0.0
 10
67.54856033131398
 20
68.0459944237667
 30
0.0
 10
67.53604703332186
 20
68.03581561155514
 30
0.0
 10
67.51769193649852
 20
68.0260104220618
 30
0.0
 10
67.50240031389282
 20
68.02437683236712
 30
0.0
 10
67.49249941343888
 20
68.02331912846179
 30
0.0
  0
CIRCLE
  5
224
330
1F
100
AcDbEntity
  8
0
  6
Continuous
 62
     7
370
    15
100
AcDbCircle
 10
67.49249919769934
 20
68.10205928979894
 30
0.0
 40
0.110236220472437
  0
SPLINE
  5
225
330
1F
100
AcDbEntity
  8
0
  6
Continuous
 62
     7
370
    15
100
AcDbSpline
210
0.0
220
0.0
230
1.0
 70
    24
 71
     3
 72
    19
 73
    15
 74
     0
 42
0.0000000001
 43
0.0000000001
 40
0.0
 40
0.0
 40
0.0
 40
0.0
 40
0.1197304832946228
 40
0.1841802058035517
 40
0.2500002658751372
 40
0.3158200910615558
 40
0.3802717671295159
 40
0.5
 40
0.6197282328704842
 40
0.6841799089384442
 40
0.7499997341248627
 40
0.8158197941964481
 40
0.8802695167053771
 40
1.0
 40
1.0
 40
1.0
 40
1.0
 10
78.5948612380077
 20
67.80678370573084
 30
0.0
 10
78.5948612380077
 20
67.81072757946484
 30
0.0
 10
78.5948612380077
 20
67.81679440101274
 30
0.0
 10
78.5948612380077
 20
67.85361654832374
 30
0.0
 10
78.5948612380077
 20
67.89172433991764
 30
0.0
 10
78.5948612380077
 20
67.93902948104667
 30
0.0
 10
78.5948612380077
 20
68.00777465606138
 30
0.0
 10
78.5948612380077
 20
68.10205928968208
 30
0.0
 10
78.5948612380077
 20
68.19634392330275
 30
0.0
 10
78.5948612380077
 20
68.26508909831743
 30
0.0
 10
78.5948612380077
 20
68.31239423944649
 30
0.0
 10
78.5948612380077
 20
68.35050203104045
 30
0.0
 10
78.5948612380077
 20
68.38732417835139
 30
0.0
 10
78.5948612380077
 20
68.39339099989934
 30
0.0
 10
78.5948612380077
 20
68.39733487363332
 30
0.0
  0
SPLINE
  5
226
330
1F
100
AcDbEntity
  8
0
  6
Continuous
 62
     7
370
    15
100
AcDbSpline
210
0.0
220
0.0
230
1.0
 70
    24
 71
     3
 72
    19
 73
    15
 74
     0
 42
0.0000000001
 43
0.0000000001
 40
0.0
 40
0.0
 40
0.0
 40
0.0
 40
0.1197304832946228
 40
0.1841802058035517
 40
0.2500002658751373
 40
0.3158200910615559
 40
0.3802717671295159
 40
0.5000000000000001
 40
0.6197282328704842
 40
0.6841799089384442
 40
0.7499997341248627
 40
0.8158197941964481
 40
0.8802695167053771
 40
1.0
 40
1.0
 40
1.0
 40
1.0
 10
67.17753873189156
 20
68.39733487363332
 30
0.0
 10
67.17753873189156
 20
68.39339099989934
 30
0.0
 10
67.17753873189156
 20
68.38732417835139
 30
0.0
 10
67.17753873189156
 20
68.35050203104045
 30
0.0
 10
67.17753873189156
 20
68.31239423944649
 30
0.0
 10
67.17753873189156
 20
68.26508909831743
 30
0.0
 10
67.17753873189156
 20
68.19634392330275
 30
0.0
 10
67.17753873189156
 20
68.10205928968208
 30
0.0
 10
67.17753873189156
 20
68.00777465606138
 30
0.0
 10
67.17753873189156
 20
67.93902948104667
 30
0.0
 10
67.17753873189156
 20
67.89172433991764
 30
0.0
 10
67.17753873189156
 20
67.85361654832374
 30
0.0
 10
67.17753873189156
 20
67.81679440101274
 30
0.0
 10
67.17753873189156
 20
67.81072757946484
 30
0.0
 10
67.17753873189156
 20
67.80678370573084
 30
0.0
  0
SPLINE
  5
227
330
1F
100
AcDbEntity
  8
0
  6
Continuous
 62
     7
370
    15
100
AcDbSpline
210
0.0
220
0.0
230
1.0
 70
     9
 71
     3
 72
    27
 73
    23
 74
     0
 42
0.0000000001
 43
0.0000000001
 40
0.0
 40
0.0
 40
0.0
 40
0.0
 40
0.0515220854809309
 40
0.1029688949492222
 40
0.1563395377810891
 40
0.211146709059257
 40
0.2639473359078936
 40
0.314596105193704
 40
0.3659476071807264
 40
0.4198245735921522
 40
0.4745054486117962
 40
0.4999994010870796
 40
0.5515222897607385
 40
0.6029690992290298
 40
0.6563391906799052
 40
0.7111466901160484
 40
0.763947316964685
 40
0.8145960862504953
 40
0.8659480221601501
 40
0.9198243601937482
 40
0.9745052352133921
 40
1.0
 40
1.0
 40
1.0
 40
1.0
 10
78.27990055646035
 20
67.98788606278759
 30
0.0
 10
78.26748533784075
 20
67.98907271099828
 30
0.0
 10
78.24267303977703
 20
67.99144427367493
 30
0.0
 10
78.20937484392368
 20
68.00984136949003
 30
0.0
 10
78.18305077460689
 20
68.03751201837204
 30
0.0
 10
78.16712688009636
 20
68.07324739555719
 30
0.0
 10
78.16407566283425
 20
68.11186512179521
 30
0.0
 10
78.17339705114207
 20
68.14838672159528
 30
0.0
 10
78.19365980935828
 20
68.17997691561709
 30
0.0
 10
78.22366550977455
 20
68.20397415266228
 30
0.0
 10
78.25454688775915
 20
68.21468580445489
 30
0.0
 10
78.28612876378625
 20
68.21723505035203
 30
0.0
 10
78.31714337687142
 20
68.21213018223028
 30
0.0
 10
78.35042274295483
 20
68.19442912085239
 30
0.0
 10
78.3767513229123
 20
68.16656349433654
 30
0.0
 10
78.39267470131315
 20
68.13088298145505
 30
0.0
 10
78.3957260725453
 20
68.09224874905638
 30
0.0
 10
78.38640458536236
 20
68.05573930873719
 30
0.0
 10
78.36614195985089
 20
68.02411505327865
 30
0.0
 10
78.33613328341375
 20
68.00025035729544
 30
0.0
 10
78.30526314111534
 20
67.9891217336388
 30
0.0
 10
78.28601970715962
 20
67.98818418919134
 30
0.0
 10
78.27990055646035
 20
67.98788606278759
 30
0.0
  0
SPLINE
  5
228
330
1F
100
AcDbEntity
  8
0
  6
Continuous
 62
     7
370
    15
100
AcDbSpline
210
0.0
220
0.0
230
1.0
 70
     9
 71
     3
 72
    27
 73
    23
 74
     0
 42
0.0000000001
 43
0.0000000001
 40
0.0
 40
0.0
 40
0.0
 40
0.0
 40
0.0515228886736588
 40
0.1029696981419501
 40
0.1563397895928256
 40
0.2111472890289687
 40
0.2639479158776054
 40
0.3145966851634158
 40
0.3659486210730705
 40
0.4198249591066686
 40
0.4745058341263125
 40
0.5000005989129204
 40
0.5515226843938513
 40
0.6029694938621426
 40
0.6563401366940095
 40
0.7111473079721775
 40
0.7639479348208142
 40
0.8145967041066244
 40
0.8659482060936468
 40
0.9198251725050727
 40
0.9745060475247163
 40
1.0
 40
1.0
 40
1.0
 40
1.0
 10
67.49249941343888
 20
67.98788606278759
 30
0.0
 10
67.48008400596742
 20
67.98907269463427
 30
0.0
 10
67.45527152373765
 20
67.99144420613544
 30
0.0
 10
67.42197306429978
 20
68.00984117759694
 30
0.0
 10
67.39564981880997
 20
68.03751237472083
 30
0.0
 10
67.37972494955681
 20
68.07324722572585
 30
0.0
 10
67.37667402671019
 20
68.11186511586824
 30
0.0
 10
67.38599517442759
 20
68.14838692753699
 30
0.0
 10
67.40625875080255
 20
68.17997653152139
 30
0.0
 10
67.43626377417218
 20
68.20397435246099
 30
0.0
 10
67.46714536266342
 20
68.21468585449103
 30
0.0
 10
67.49872722773847
 20
68.21723503717073
 30
0.0
 10
67.52974186296768
 20
68.21213012364094
 30
0.0
 10
67.56302096265847
 20
68.19442892928404
 30
0.0
 10
67.58935036728707
 20
68.16656385119367
 30
0.0
 10
67.60527277073157
 20
68.13088281147604
 30
0.0
 10
67.60832443642337
 20
68.09224874319068
 30
0.0
 10
67.59900270867951
 20
68.05573951451099
 30
0.0
 10
67.57874090116203
 20
68.0241146697968
 30
0.0
 10
67.54873154829053
 20
68.00025055653979
 30
0.0
 10
67.51786161443115
 20
67.98912179197353
 30
0.0
 10
67.49861837068386
 20
67.98818419834993
 30
0.0
 10
67.49249941343888
 20
67.98788606278759
 30
0.0
  0
ARC
  5
229
330
1F
100
AcDbEntity
  8
0
  6
Continuous
 62
     7
370
    15
100
AcDbCircle
 10
72.88619998519934
 20
68.10205928979894
 30
0.0
 40
0.5905511811023675
100
AcDbArc
 50
107.440248678
 51
145.4818921588999
  0
LWPOLYLINE
  5
22A
330
1F
100
AcDbEntity
  8
0
  6
Continuous
 62
     7
370
    15
100
AcDbPolyline
 90
        3
 70
   128
 43
0.0
 10
72.39961701269933
 20
67.76741360229895
 10
72.44449517419934
 20
67.71008024779894
 10
72.48470238619933
 20
67.66898842579895
  0
LWPOLYLINE
  5
22B
330
1F
100
AcDbEntity
  8
0
  6
Continuous
 62
     7
370
    15
100
AcDbPolyline
 90
        3
 70
   128
 43
0.0
 10
73.28769758369936
 20
67.66898842579895
 10
73.32624898469936
 20
67.70822233279893
 10
73.37278295719935
 20
67.76741360229895
  0
ARC
  5
22C
330
1F
100
AcDbEntity
  8
0
  6
Continuous
 62
     7
370
    15
100
AcDbCircle
 10
72.88619998519934
 20
68.10205928979894
 30
0.0
 40
0.5905511811023675
100
AcDbArc
 50
34.51810784110008
 51
107.440248678
  0
ARC
  5
22D
330
1F
100
AcDbEntity
  8
0
  6
Continuous
 62
     7
370
    15
100
AcDbCircle
 10
72.88619998519934
 20
68.10205928979894
 30
0.0
 40
5.118110236220464
100
AcDbArc
 50
270.0
 51
343.4641403460999
  0
LINE
  5
22E
330
1F
100
AcDbEntity
  8
0
  6
Continuous
 62
     7
370
    15
100
AcDbLine
 10
77.98595520569932
 20
67.66898842579895
 30
0.0
 11
77.99335826669937
 21
67.76741360229895
 31
0.0
  0
ARC
  5
22F
330
1F
100
AcDbEntity
  8
0
  6
Continuous
 62
     7
370
    15
100
AcDbCircle
 10
72.88619998519934
 20
68.10205928979894
 30
0.0
 40
5.118110236220474
100
AcDbArc
 50
3.748936959400017
 51
176.2510630406
  0
LINE
  5
230
330
1F
100
AcDbEntity
  8
0
  6
Continuous
 62
     7
370
    15
100
AcDbLine
 10
67.77904170319931
 20
67.76741360229895
 30
0.0
 11
67.7864447641993
 21
67.66898842579895
 31
0.0
  0
ARC
  5
231
330
1F
100
AcDbEntity
  8
0
  6
Continuous
 62
     7
370
    15
100
AcDbCircle
 10
72.88619998519934
 20
68.10205928979894
 30
0.0
 40
5.118110236220471
100
AcDbArc
 50
196.5358596539
 51
270.0
  0
LINE
  5
232
330
1F
100
AcDbEntity
  8
0
  6
Continuous
 62
     8
370
    15
100
AcDbLine
 10
78.55549107969932
 20
67.76741360229895
 30
0.0
 11
78.55549107969932
 21
68.43670497729894
 31
0.0
  0
LINE
  5
233
330
1F
100
AcDbEntity
  8
0
  6
Continuous
 62
     8
370
    15
100
AcDbLine
 10
67.21690889019933
 20
68.43670497729894
 30
0.0
 11
67.21690889019933
 21
67.76741360229895
 31
0.0
  0
SPLINE
  5
234
330
1F
100
AcDbEntity
  8
0
  6
Continuous
 62
     8
370
    15
100
AcDbSpline
210
0.0
220
0.0
230
1.0
 70
     8
 71
     3
 72
     9
 73
     5
 74
     0
 42
0.0000000001
 43
0.0000000001
 40
0.0
 40
0.0
 40
0.0
 40
0.0
 40
0.4438301384360177
 40
1.0
 40
1.0
 40
1.0
 40
1.0
 10
72.64038868458271
 20
68.43670497715989
 30
0.0
 10
72.65688302440946
 20
68.44862428903468
 30
0.0
 10
72.69404665616471
 20
68.47547986021523
 30
0.0
 10
72.73727435671768
 20
68.49096977414664
 30
0.0
 10
72.76131630094991
 20
68.49958479743349
 30
0.0
  0
SPLINE
  5
235
330
1F
100
AcDbEntity
  8
0
  6
Continuous
 62
     8
370
    15
100
AcDbSpline
210
0.0
220
0.0
230
1.0
 70
     8
 71
     3
 72
    12
 73
     8
 74
     0
 42
0.0000000001
 43
0.0000000001
 40
0.0
 40
0.0
 40
0.0
 40
0.0
 40
0.1953559387969057
 40
0.4024136130776039
 40
0.6180794926423918
 40
0.8383220983562505
 40
1.0
 40
1.0
 40
1.0
 40
1.0
 10
72.76131630094991
 20
68.49958479743349
 30
0.0
 10
72.78596311109717
 20
68.50590624470818
 30
0.0
 10
72.83673306456404
 20
68.51892779119073
 30
0.0
 10
72.91783664386864
 20
68.52018009426638
 30
0.0
 10
73.00033274883228
 20
68.50550850095989
 30
0.0
 10
73.07396640573625
 20
68.47793255039055
 30
0.0
 10
73.11442312946991
 20
68.44896694742954
 30
0.0
 10
73.13154962064968
 20
68.43670497715989
 30
0.0
  0
ARC
  5
236
330
1F
100
AcDbEntity
  8
0
  6
Continuous
 62
     8
370
    15
100
AcDbCircle
 10
72.88619998519934
 20
68.10205928979894
 30
0.0
 40
0.4559005075531736
100
AcDbArc
 50
47.22550451179988
 51
107.440248678
  0
ARC
  5
237
330
1F
100
AcDbEntity
  8
0
  6
Continuous
 62
     8
370
    15
100
AcDbCircle
 10
72.88619998519934
 20
68.10205928979894
 30
0.0
 40
0.4559005075531736
100
AcDbArc
 50
107.440248678
 51
132.7744954882001
  0
SPLINE
  5
238
330
1F
100
AcDbEntity
  8
0
  6
Continuous
 62
     8
370
    15
100
AcDbSpline
210
0.0
220
0.0
230
1.0
 70
     8
 71
     3
 72
    27
 73
    23
 74
     0
 42
0.0000000001
 43
0.0000000001
 40
0.0
 40
0.0
 40
0.0
 40
0.0
 40
0.0478321000183925
 40
0.0968773797625704
 40
0.1470636557561295
 40
0.1983064701798231
 40
0.2505115266255343
 40
0.2949195542517524
 40
0.3396922124512845
 40
0.3848040822203633
 40
0.4531800437619413
 40
0.5219216222890788
 40
0.5677549212100203
 40
0.6134811083946861
 40
0.6590730289391546
 40
0.7041824561818305
 40
0.7489551520376516
 40
0.7933655845228172
 40
0.8586177118200206
 40
0.9222544844859957
 40
0.9840552899250823
 40
1.0
 40
1.0
 40
1.0
 40
1.0
 10
72.88619998494962
 20
73.18079917964547
 30
0.0
 10
72.76435424017541
 20
73.17826201656878
 30
0.0
 10
72.51757234089843
 20
73.17312333959652
 30
0.0
 10
72.14490689763275
 20
73.13084825627388
 30
0.0
 10
71.76775290629279
 20
73.06126875837609
 30
0.0
 10
71.38923831488995
 20
72.96051802730544
 30
0.0
 10
71.03356676046002
 20
72.83565774469574
 30
0.0
 10
70.70314142293168
 20
72.6918975645302
 30
0.0
 10
70.39913523149391
 20
72.53460974023458
 30
0.0
 10
70.05424524279664
 20
72.32547552117788
 30
0.0
 10
69.67866736968989
 20
72.05137629205293
 30
0.0
 10
69.33196419503634
 20
71.73878972342089
 30
0.0
 10
69.05320226864791
 20
71.44011158172609
 30
0.0
 10
68.83283457824354
 20
71.16873490919132
 30
0.0
 10
68.63268988264309
 20
70.88438005185658
 30
0.0
 10
68.45366006020737
 20
70.58913136089024
 30
0.0
 10
68.29634096192155
 20
70.28512867207429
 30
0.0
 10
68.13945324806553
 20
69.92421337561194
 30
0.0
 10
67.99636599641428
 20
69.50568705483883
 30
0.0
 10
67.88782510701546
 20
69.03206117718039
 30
0.0
 10
67.83129456691793
 20
68.67521495524044
 30
0.0
 10
67.82401739787172
 20
68.47729589714714
 30
0.0
 10
67.82252493428924
 20
68.43670497715989
 30
0.0
  0
SPLINE
  5
239
330
1F
100
AcDbEntity
  8
0
  6
Continuous
 62
     8
370
    15
100
AcDbSpline
210
0.0
220
0.0
230
1.0
 70
     8
 71
     3
 72
     9
 73
     5
 74
     0
 42
0.0000000001
 43
0.0000000001
 40
0.0
 40
0.0
 40
0.0
 40
0.0
 40
0.3094961492655582
 40
1.0
 40
1.0
 40
1.0
 40
1.0
 10
67.81950715581754
 20
67.7674136022043
 30
0.0
 10
67.81975932509784
 20
67.75721408256979
 30
0.0
 10
67.82057409866095
 20
67.72425884335683
 30
0.0
 10
67.82498083146404
 20
67.69156420178838
 30
0.0
 10
67.82802369743373
 20
67.66898842588699
 30
0.0
  0
SPLINE
  5
23A
330
1F
100
AcDbEntity
  8
0
  6
Continuous
 62
     8
370
    15
100
AcDbSpline
210
0.0
220
0.0
230
1.0
 70
     8
 71
     3
 72
    24
 73
    20
 74
     0
 42
0.0000000001
 43
0.0000000001
 40
0.0
 40
0.0
 40
0.0
 40
0.0
 40
0.0057995909171427
 40
0.0671834043782269
 40
0.1193993058554562
 40
0.1720439477003506
 40
0.2250874417087428
 40
0.3054853486213653
 40
0.3863131557461087
 40
0.4402049214641461
 40
0.4939707429291421
 40
0.5475786908286821
 40
0.6006193128626853
 40
0.6532639989846438
 40
0.7054827281460683
 40
0.7822075644483865
 40
0.8570330324881696
 40
0.92969973129277
 40
1.0
 40
1.0
 40
1.0
 40
1.0
 10
68.02221692076369
 20
66.64536635752313
 30
0.0
 10
68.02540794956747
 20
66.63321562906777
 30
0.0
 10
68.06237334619081
 20
66.49245961455434
 30
0.0
 10
68.15423942729276
 20
66.24987871300717
 30
0.0
 10
68.29594989190195
 20
65.91888691785314
 30
0.0
 10
68.45375968200156
 20
65.61502497697023
 30
0.0
 10
68.66273674108819
 20
65.27009155314835
 30
0.0
 10
68.93689798578652
 20
64.89453083309477
 30
0.0
 10
69.2494669815002
 20
64.54782275017308
 30
0.0
 10
69.54814826609046
 20
64.26906182542854
 30
0.0
 10
69.81952418870566
 20
64.04869348132269
 30
0.0
 10
70.10387935750742
 20
63.84855053249118
 30
0.0
 10
70.39912755478875
 20
63.66951445651278
 30
0.0
 10
70.70313189076003
 20
63.51221836750989
 30
0.0
 10
71.06404020001974
 20
63.35523232163573
 30
0.0
 10
71.48260450816732
 20
63.21267994434059
 30
0.0
 10
71.95608376114307
 20
63.10207446001598
 30
0.0
 10
72.424111861607
 20
63.03535894993934
 30
0.0
 10
72.73387973260648
 20
63.02728805252549
 30
0.0
 10
72.88619998494962
 20
63.02331939971868
 30
0.0
  0
SPLINE
  5
23B
330
1F
100
AcDbEntity
  8
0
  6
Continuous
 62
     8
370
    15
100
AcDbSpline
210
0.0
220
0.0
230
1.0
 70
     8
 71
     3
 72
    24
 73
    20
 74
     0
 42
0.0000000001
 43
0.0000000001
 40
0.0
 40
0.0
 40
0.0
 40
0.0
 40
0.0562446989115943
 40
0.11391594878742
 40
0.1729288706885391
 40
0.2331841525501992
 40
0.2945709133305697
 40
0.3467893219334531
 40
0.399436491489799
 40
0.4524825323603701
 40
0.5328842995463817
 40
0.6137159875860011
 40
0.6676103408956447
 40
0.7213787439050839
 40
0.7749892657688309
 40
0.8280324345271164
 40
0.8806796483626522
 40
0.9329008847855009
 40
1.0
 40
1.0
 40
1.0
 40
1.0
 10
72.88619998494962
 20
63.02331939971868
 30
0.0
 10
73.00804572972243
 20
63.02585656279578
 30
0.0
 10
73.25482762899651
 20
63.03099523976888
 30
0.0
 10
73.62749307228438
 20
63.07327032308498
 30
0.0
 10
74.00464706353694
 20
63.1428498210085
 30
0.0
 10
74.38316165527678
 20
63.24360055198024
 30
0.0
 10
74.73883320848526
 20
63.36846083494833
 30
0.0
 10
75.06925854994967
 20
63.51222101395888
 30
0.0
 10
75.37326472707744
 20
63.66950884245383
 30
0.0
 10
75.71815477904033
 20
63.87864304294493
 30
0.0
 10
76.09373229170225
 20
64.15274237784403
 30
0.0
 10
76.44043675593775
 20
64.46532856804234
 30
0.0
 10
76.71919537144444
 20
64.76400768133068
 30
0.0
 10
76.93957416944761
 20
65.03538109428929
 30
0.0
 10
77.13967754771966
 20
65.31974807638474
 30
0.0
 10
77.3188595612589
 20
65.61495210616929
 30
0.0
 10
77.47561752352467
 20
65.91911946294039
 30
0.0
 10
77.62645731004468
 20
66.26023027189799
 30
0.0
 10
77.70473082839103
 20
66.5067419369139
 30
0.0
 10
77.74874749238589
 20
66.64536635752313
 30
0.0
  0
LINE
  5
23C
330
1F
100
AcDbEntity
  8
0
  6
Continuous
 62
     8
370
    15
100
AcDbLine
 10
77.94544399369934
 20
67.66898842579895
 30
0.0
 11
77.94987503569934
 21
67.76741360229895
 31
0.0
  0
SPLINE
  5
23D
330
1F
100
AcDbEntity
  8
0
  6
Continuous
 62
     8
370
    15
100
AcDbSpline
210
0.0
220
0.0
230
1.0
 70
     8
 71
     3
 72
    27
 73
    23
 74
     0
 42
0.0000000001
 43
0.0000000001
 40
0.0
 40
0.0
 40
0.0
 40
0.0
 40
0.0040040671271518
 40
0.0530489970493707
 40
0.103234470870605
 40
0.1544764662343712
 40
0.2066806882397764
 40
0.2510880060526031
 40
0.2958599486105259
 40
0.3409710973160722
 40
0.4093459659432439
 40
0.4780864457119905
 40
0.5239190120381494
 40
0.5696444683400955
 40
0.6152356601479491
 40
0.6603443663661334
 40
0.7051163465797435
 40
0.7495260692130785
 40
0.8147771535269241
 40
0.8784129090292053
 40
0.9402127266505113
 40
1.0
 40
1.0
 40
1.0
 40
1.0
 10
77.9528928140817
 20
68.43670497715989
 30
0.0
 10
77.95255106276357
 20
68.4468976028396
 30
0.0
 10
77.94802327536856
 20
68.58193743919546
 30
0.0
 10
77.91348389858661
 20
68.84326575534749
 30
0.0
 10
77.8458261468578
 20
69.22053004624108
 30
0.0
 10
77.74454312497923
 20
69.59901439110993
 30
0.0
 10
77.61982450507443
 20
69.95469399523968
 30
0.0
 10
77.47603170622838
 20
70.28511747942599
 30
0.0
 10
77.31875218833167
 20
70.58912414227688
 30
0.0
 10
77.10961546845528
 20
70.93401399145249
 30
0.0
 10
76.83551722516546
 20
71.30959190585969
 30
0.0
 10
76.52293038069666
 20
71.65629511749654
 30
0.0
 10
76.22425227922363
 20
71.93505691097795
 30
0.0
 10
75.95287562761075
 20
72.15542505612558
 30
0.0
 10
75.66852065301739
 20
72.35556805796054
 30
0.0
 10
75.37327240437076
 20
72.53460411992029
 30
0.0
 10
75.06926808194586
 20
72.69190021262028
 30
0.0
 10
74.70835976872931
 20
72.84888625741453
 30
0.0
 10
74.28979546207881
 20
72.99143863511822
 30
0.0
 10
73.81631620866745
 20
73.102044119324
 30
0.0
 10
73.34828810831334
 20
73.16875962943058
 30
0.0
 10
73.03852023729968
 20
73.17683052684055
 30
0.0
 10
72.88619998494962
 20
73.18079917964547
 30
0.0
  0
LINE
  5
23E
330
1F
100
AcDbEntity
  8
0
  6
Continuous
 62
     7
370
    15
100
AcDbLine
 10
95.05826018569933
 20
20.03069309579894
 30
0.0
 11
95.05826018569933
 21
20.07006318129894
 31
0.0
  0
LINE
  5
23F
330
1F
100
AcDbEntity
  8
0
  6
Continuous
 62
     7
370
    15
100
AcDbLine
 10
93.87715785019933
 20
20.07006318129894
 30
0.0
 11
93.87715785019933
 21
20.03069309579894
 31
0.0
  0
LINE
  5
240
330
1F
100
AcDbEntity
  8
0
  6
Continuous
 62
     7
370
    15
100
AcDbLine
 10
91.51495299519934
 20
20.03069309579894
 30
0.0
 11
91.51495299519934
 21
20.07006318129894
 31
0.0
  0
LINE
  5
241
330
1F
100
AcDbEntity
  8
0
  6
Continuous
 62
     7
370
    15
100
AcDbLine
 10
90.33385087919933
 20
20.07006318129894
 30
0.0
 11
90.33385087919933
 21
20.03069309579894
 31
0.0
  0
LINE
  5
242
330
1F
100
AcDbEntity
  8
0
  6
Continuous
 62
     7
370
    15
100
AcDbLine
 10
97.37775532069935
 20
20.03069309579894
 30
0.0
 11
97.37775532069935
 21
20.07006318129894
 31
0.0
  0
LINE
  5
243
330
1F
100
AcDbEntity
  8
0
  6
Continuous
 62
     7
370
    15
100
AcDbLine
 10
96.19665291169935
 20
20.07006318129894
 30
0.0
 11
96.19665291169935
 21
20.03069309579894
 31
0.0
  0
LINE
  5
244
330
1F
100
AcDbEntity
  8
0
  6
Continuous
 62
     7
370
    15
100
AcDbLine
 10
91.55852686519933
 20
20.07006318129894
 30
0.0
 11
91.55852686519933
 21
20.03069309579894
 31
0.0
  0
LINE
  5
245
330
1F
100
AcDbEntity
  8
0
  6
Continuous
 62
     7
370
    15
100
AcDbLine
 10
92.85310088319937
 20
20.03069309579894
 30
0.0
 11
92.85310088319937
 21
20.07006318129894
 31
0.0
  0
LINE
  5
246
330
1F
100
AcDbEntity
  8
0
  6
Continuous
 62
     7
370
    15
100
AcDbLine
 10
91.67199862069933
 20
20.07006318129894
 30
0.0
 11
91.67199862069933
 21
20.03069309579894
 31
0.0
  0
LINE
  5
247
330
1F
100
AcDbEntity
  8
0
  6
Continuous
 62
     7
370
    15
100
AcDbLine
 10
98.60156715669933
 20
20.03069309579894
 30
0.0
 11
98.60156715669933
 21
20.07006318129894
 31
0.0
  0
LINE
  5
248
330
1F
100
AcDbEntity
  8
0
  6
Continuous
 62
     7
370
    15
100
AcDbLine
 10
97.42046504069932
 20
20.07006318129894
 30
0.0
 11
97.42046504069932
 21
20.03069309579894
 31
0.0
  0
LINE
  5
249
330
1F
100
AcDbEntity
  8
0
  6
Continuous
 62
     7
370
    15
100
AcDbLine
 10
94.86140979669935
 20
51.76297602379894
 30
0.0
 11
94.86140979669935
 21
52.07793729179894
 31
0.0
  0
ARC
  5
24A
330
1F
100
AcDbEntity
  8
0
  6
Continuous
 62
     7
370
    15
100
AcDbCircle
 10
94.54644917519932
 20
47.99132302479894
 30
0.0
 40
0.0314960629921315
100
AcDbArc
 50
0.0
 51
90.0
  0
ARC
  5
24B
330
1F
100
AcDbEntity
  8
0
  6
Continuous
 62
     7
370
    15
100
AcDbCircle
 10
94.38896886019932
 20
47.99132302479894
 30
0.0
 40
0.0314960629921315
100
AcDbArc
 50
90.0
 51
180.0
  0
LINE
  5
24C
330
1F
100
AcDbEntity
  8
0
  6
Continuous
 62
     7
370
    15
100
AcDbLine
 10
94.57794523419934
 20
47.74823477579893
 30
0.0
 11
94.57794523419934
 21
47.99132316729894
 31
0.0
  0
LINE
  5
24D
330
1F
100
AcDbEntity
  8
0
  6
Continuous
 62
     7
370
    15
100
AcDbLine
 10
94.35747280119935
 20
47.99132316729894
 30
0.0
 11
94.35747280119935
 21
47.74823477579893
 31
0.0
  0
LINE
  5
24E
330
1F
100
AcDbEntity
  8
0
  6
Continuous
 62
     7
370
    15
100
AcDbLine
 10
94.07400823919932
 20
51.76297602379894
 30
0.0
 11
94.07400823919932
 21
22.23541755529894
 31
0.0
  0
LINE
  5
24F
330
1F
100
AcDbEntity
  8
0
  6
Continuous
 62
     7
370
    15
100
AcDbLine
 10
94.86140979669935
 20
22.23541755529894
 30
0.0
 11
94.86140979669935
 21
51.76297602379894
 31
0.0
  0
LINE
  5
250
330
1F
100
AcDbEntity
  8
0
  6
Continuous
 62
     7
370
    15
100
AcDbLine
 10
95.05826018569933
 20
20.66061436729894
 30
0.0
 11
94.92360953119931
 21
22.19947921029894
 31
0.0
  0
LINE
  5
251
330
1F
100
AcDbEntity
  8
0
  6
Continuous
 62
     7
370
    15
100
AcDbLine
 10
94.01180850469932
 20
22.19947921029894
 30
0.0
 11
93.87715785019933
 21
20.66061436729894
 31
0.0
  0
ARC
  5
252
330
1F
100
AcDbEntity
  8
0
  6
Continuous
 62
     7
370
    15
100
AcDbCircle
 10
94.05102873519934
 20
22.19604743429894
 30
0.0
 40
0.0393700787401575
100
AcDbArc
 50
90.0
 51
174.9993554024
  0
ARC
  5
253
330
1F
100
AcDbEntity
  8
0
  6
Continuous
 62
     7
370
    15
100
AcDbCircle
 10
94.88438930019936
 20
22.19604743429894
 30
0.0
 40
0.0393700787401575
100
AcDbArc
 50
5.00064459760001
 51
90.0
  0
ARC
  5
254
330
1F
100
AcDbEntity
  8
0
  6
Continuous
 62
     7
370
    15
100
AcDbCircle
 10
89.38896886019932
 20
20.62124428479894
 30
0.0
 40
0.0393700787401665
100
AcDbArc
 50
90.0
 51
180.0
  0
ARC
  5
255
330
1F
100
AcDbEntity
  8
0
  6
Continuous
 62
     7
370
    15
100
AcDbCircle
 10
99.54644917519932
 20
20.62124428479894
 30
0.0
 40
0.0393700787401665
100
AcDbArc
 50
0.0
 51
90.0
  0
ARC
  5
256
330
1F
100
AcDbEntity
  8
0
  6
Continuous
 62
     7
370
    15
100
AcDbCircle
 10
99.54644917519932
 20
20.22754349729894
 30
0.0
 40
0.0393700787401665
100
AcDbArc
 50
270.0
 51
0.0
  0
ARC
  5
257
330
1F
100
AcDbEntity
  8
0
  6
Continuous
 62
     7
370
    15
100
AcDbCircle
 10
89.38896886019932
 20
20.22754349729894
 30
0.0
 40
0.0393700787401665
100
AcDbArc
 50
180.0
 51
270.0
  0
LINE
  5
258
330
1F
100
AcDbEntity
  8
0
  6
Continuous
 62
     7
370
    15
100
AcDbLine
 10
89.34959896919934
 20
20.62124428229893
 30
0.0
 11
89.34959896919934
 21
20.22754349929894
 31
0.0
  0
LINE
  5
259
330
1F
100
AcDbEntity
  8
0
  6
Continuous
 62
     7
370
    15
100
AcDbLine
 10
99.58581906619935
 20
20.22754349929894
 30
0.0
 11
99.58581906619935
 21
20.62124428229893
 31
0.0
  0
ARC
  5
25A
330
1F
100
AcDbEntity
  8
0
  6
Continuous
 62
     7
370
    15
100
AcDbCircle
 10
99.15274838819934
 20
20.10943326079894
 30
0.0
 40
0.0393700787401575
100
AcDbArc
 50
270.0
 51
0.0
  0
ARC
  5
25B
330
1F
100
AcDbEntity
  8
0
  6
Continuous
 62
     7
370
    15
100
AcDbCircle
 10
89.78266964769932
 20
20.10943326079894
 30
0.0
 40
0.0393700787401575
100
AcDbArc
 50
180.0
 51
270.0
  0
LINE
  5
25C
330
1F
100
AcDbEntity
  8
0
  6
Continuous
 62
     7
370
    15
100
AcDbLine
 10
89.74329967469936
 20
20.18817341829894
 30
0.0
 11
89.74329967469936
 21
20.10943325729894
 31
0.0
  0
LINE
  5
25D
330
1F
100
AcDbEntity
  8
0
  6
Continuous
 62
     7
370
    15
100
AcDbLine
 10
99.19211836119934
 20
20.10943325729894
 30
0.0
 11
99.19211836119934
 21
20.18817341829894
 31
0.0
  0
LINE
  5
25E
330
1F
100
AcDbEntity
  8
0
  6
Continuous
 62
     7
370
    15
100
AcDbLine
 10
93.87715785019933
 20
20.03069309579894
 30
0.0
 11
95.05826018569933
 21
20.03069309579894
 31
0.0
  0
LINE
  5
25F
330
1F
100
AcDbEntity
  8
0
  6
Continuous
 62
     7
370
    15
100
AcDbLine
 10
90.33385087919933
 20
20.03069309579894
 30
0.0
 11
91.51495299519934
 21
20.03069309579894
 31
0.0
  0
LINE
  5
260
330
1F
100
AcDbEntity
  8
0
  6
Continuous
 62
     7
370
    15
100
AcDbLine
 10
96.19665291169935
 20
20.03069309579894
 30
0.0
 11
97.37775532069935
 21
20.03069309579894
 31
0.0
  0
LINE
  5
261
330
1F
100
AcDbEntity
  8
0
  6
Continuous
 62
     7
370
    15
100
AcDbLine
 10
97.37775532069935
 20
20.03069309579894
 30
0.0
 11
97.42046504069932
 21
20.03069309579894
 31
0.0
  0
LINE
  5
262
330
1F
100
AcDbEntity
  8
0
  6
Continuous
 62
     7
370
    15
100
AcDbLine
 10
91.55852686519933
 20
20.03069309579894
 30
0.0
 11
91.67199862069933
 21
20.03069309579894
 31
0.0
  0
LINE
  5
263
330
1F
100
AcDbEntity
  8
0
  6
Continuous
 62
     7
370
    15
100
AcDbLine
 10
91.67199862069933
 20
20.03069309579894
 30
0.0
 11
92.85310088319937
 21
20.03069309579894
 31
0.0
  0
LINE
  5
264
330
1F
100
AcDbEntity
  8
0
  6
Continuous
 62
     7
370
    15
100
AcDbLine
 10
97.42046504069932
 20
20.03069309579894
 30
0.0
 11
98.60156715669933
 21
20.03069309579894
 31
0.0
  0
LINE
  5
265
330
1F
100
AcDbEntity
  8
0
  6
Continuous
 62
     7
370
    15
100
AcDbLine
 10
93.01101608569934
 20
53.33778001779894
 30
0.0
 11
93.12071972519936
 21
53.33778001779894
 31
0.0
  0
LINE
  5
266
330
1F
100
AcDbEntity
  8
0
  6
Continuous
 62
     7
370
    15
100
AcDbLine
 10
93.12071972519936
 20
53.45589108029894
 30
0.0
 11
93.12071972519936
 21
53.33778001779894
 31
0.0
  0
LINE
  5
267
330
1F
100
AcDbEntity
  8
0
  6
Continuous
 62
     7
370
    15
100
AcDbLine
 10
93.12071972519936
 20
53.45589108029894
 30
0.0
 11
93.23882998069933
 21
53.45589108029894
 31
0.0
  0
LINE
  5
268
330
1F
100
AcDbEntity
  8
0
  6
Continuous
 62
     7
370
    15
100
AcDbLine
 10
93.23882998069933
 20
53.45589108029894
 30
0.0
 11
93.23882998069933
 21
53.33778001779894
 31
0.0
  0
LINE
  5
269
330
1F
100
AcDbEntity
  8
0
  6
Continuous
 62
     7
370
    15
100
AcDbLine
 10
93.23882998069933
 20
53.33778001779894
 30
0.0
 11
93.79841764269935
 21
53.33778001779894
 31
0.0
  0
LINE
  5
26A
330
1F
100
AcDbEntity
  8
0
  6
Continuous
 62
     7
370
    15
100
AcDbLine
 10
93.79841764269935
 20
53.33778001779894
 30
0.0
 11
93.79841764269935
 21
51.76297602379894
 31
0.0
  0
LINE
  5
26B
330
1F
100
AcDbEntity
  8
0
  6
Continuous
 62
     7
370
    15
100
AcDbLine
 10
93.01101608569934
 20
51.76297602379894
 30
0.0
 11
93.79841764269935
 21
51.76297602379894
 31
0.0
  0
LINE
  5
26C
330
1F
100
AcDbEntity
  8
0
  6
Continuous
 62
     7
370
    15
100
AcDbLine
 10
93.01101608569934
 20
52.15667643579894
 30
0.0
 11
93.01101608569934
 21
51.76297602379894
 31
0.0
  0
LINE
  5
26D
330
1F
100
AcDbEntity
  8
0
  6
Continuous
 62
     7
370
    15
100
AcDbLine
 10
93.20786643819934
 20
52.15667643579894
 30
0.0
 11
93.01101608569934
 21
52.15667643579894
 31
0.0
  0
LINE
  5
26E
330
1F
100
AcDbEntity
  8
0
  6
Continuous
 62
     7
370
    15
100
AcDbLine
 10
93.20786643819934
 20
52.15667643579894
 30
0.0
 11
93.20786643819934
 21
52.17636239479894
 31
0.0
  0
LINE
  5
26F
330
1F
100
AcDbEntity
  8
0
  6
Continuous
 62
     7
370
    15
100
AcDbLine
 10
93.20786643819934
 20
52.17636239479894
 30
0.0
 11
93.01101608569934
 21
52.17636239479894
 31
0.0
  0
LINE
  5
270
330
1F
100
AcDbEntity
  8
0
  6
Continuous
 62
     7
370
    15
100
AcDbLine
 10
93.01101608569934
 20
53.33778001779894
 30
0.0
 11
93.01101608569934
 21
52.17636239479894
 31
0.0
  0
LINE
  5
271
330
1F
100
AcDbEntity
  8
0
  6
Continuous
 62
     7
370
    15
100
AcDbLine
 10
94.03463815419934
 20
52.62911833779894
 30
0.0
 11
94.03463815419934
 21
51.88108708579894
 31
0.0
  0
LINE
  5
272
330
1F
100
AcDbEntity
  8
0
  6
Continuous
 62
     7
370
    15
100
AcDbLine
 10
93.83778772819935
 20
52.74722940029893
 30
0.0
 11
93.83778772819935
 21
51.76297602379894
 31
0.0
  0
LINE
  5
273
330
1F
100
AcDbEntity
  8
0
  6
Continuous
 62
     7
370
    15
100
AcDbLine
 10
93.83778772819935
 20
52.74722940029893
 30
0.0
 11
94.03463815419934
 21
52.62911833779894
 31
0.0
  0
LINE
  5
274
330
1F
100
AcDbEntity
  8
0
  6
Continuous
 62
     7
370
    15
100
AcDbLine
 10
93.83778772819935
 20
51.76297602379894
 30
0.0
 11
94.03463815419934
 21
51.88108708579894
 31
0.0
  0
LINE
  5
275
330
1F
100
AcDbEntity
  8
0
  6
Continuous
 62
     7
370
    15
100
AcDbLine
 10
93.79841764269935
 20
52.74722940029893
 30
0.0
 11
93.83778772819935
 21
52.74722940029893
 31
0.0
  0
LINE
  5
276
330
1F
100
AcDbEntity
  8
0
  6
Continuous
 62
     7
370
    15
100
AcDbLine
 10
93.79841764269935
 20
51.76297602379894
 30
0.0
 11
93.83778772819935
 21
51.76297602379894
 31
0.0
  0
LINE
  5
277
330
1F
100
AcDbEntity
  8
0
  6
Continuous
 62
     7
370
    15
100
AcDbLine
 10
94.03463815419934
 20
52.07793729179894
 30
0.0
 11
94.46770901769935
 21
52.07793729179894
 31
0.0
  0
LINE
  5
278
330
1F
100
AcDbEntity
  8
0
  6
Continuous
 62
     7
370
    15
100
AcDbLine
 10
94.46770901769935
 20
52.07793729179894
 30
0.0
 11
94.46770901769935
 21
51.76297602379894
 31
0.0
  0
LINE
  5
279
330
1F
100
AcDbEntity
  8
0
  6
Continuous
 62
     7
370
    15
100
AcDbLine
 10
93.83778772819935
 20
51.76297602379894
 30
0.0
 11
94.46770901769935
 21
51.76297602379894
 31
0.0
  0
LINE
  5
27A
330
1F
100
AcDbEntity
  8
0
  6
Continuous
 62
     7
370
    15
100
AcDbLine
 10
94.86140979669935
 20
52.07793729179894
 30
0.0
 11
94.46770901769935
 21
52.07793729179894
 31
0.0
  0
LINE
  5
27B
330
1F
100
AcDbEntity
  8
0
  6
Continuous
 62
     7
370
    15
100
AcDbLine
 10
94.46770901769935
 20
51.76297602379894
 30
0.0
 11
94.86140979669935
 21
51.76297602379894
 31
0.0
  0
SPLINE
  5
27C
330
1F
100
AcDbEntity
  8
0
  6
Continuous
 62
     7
370
    15
100
AcDbSpline
210
0.0
220
0.0
230
1.0
 70
    24
 71
     3
 72
    19
 73
    15
 74
     0
 42
0.0000000001
 43
0.0000000001
 40
0.0
 40
0.0
 40
0.0
 40
0.0
 40
0.1197217040511802
 40
0.1848179486658762
 40
0.2500010547041847
 40
0.3150975273932928
 40
0.3802785807240888
 40
0.5000000509940082
 40
0.6197215212639282
 40
0.6848177360627689
 40
0.749998678361348
 40
0.8150949481820942
 40
0.8802782959488196
 40
1.0
 40
1.0
 40
1.0
 40
1.0
 10
94.54644917911361
 20
48.02281976358044
 30
0.0
 10
94.54539165656781
 20
48.02281976358044
 30
0.0
 10
94.54375912761969
 20
48.02281976358044
 30
0.0
 10
94.53395630392179
 20
48.02281976358044
 30
0.0
 10
94.52378398927811
 20
48.02281976358044
 30
0.0
 10
94.51125332422952
 20
48.02281976358044
 30
0.0
 10
94.49290343228225
 20
48.02281976358044
 30
0.0
 10
94.4677091003586
 20
48.02281976358044
 30
0.0
 10
94.44252136557947
 20
48.02281976358044
 30
0.0
 10
94.42417115212663
 20
48.02281976358044
 30
0.0
 10
94.41164396422946
 20
48.02281976358044
 30
0.0
 10
94.40146536880263
 20
48.02281976358044
 30
0.0
 10
94.39166004195525
 20
48.02281976358044
 30
0.0
 10
94.3900265224286
 20
48.02281976358044
 30
0.0
 10
94.38896885667302
 20
48.02281976358044
 30
0.0
  0
SPLINE
  5
27D
330
1F
100
AcDbEntity
  8
0
  6
Continuous
 62
     7
370
    15
100
AcDbSpline
210
0.0
220
0.0
230
1.0
 70
     8
 71
     3
 72
    19
 73
    15
 74
     0
 42
0.0000000001
 43
0.0000000001
 40
0.0
 40
0.0
 40
0.0
 40
0.0
 40
0.119728586332005
 40
0.1841786303463635
 40
0.2499990187592648
 40
0.3158191722858275
 40
0.3802711698689623
 40
0.5000000000000001
 40
0.6197288301310379
 40
0.6841808277141725
 40
0.7500009812407351
 40
0.8158213696536364
 40
0.8802714136679949
 40
1.0
 40
1.0
 40
1.0
 40
1.0
 10
94.76298460184452
 20
47.43226679903203
 30
0.0
 10
94.75904059756709
 20
47.39512475659604
 30
0.0
 10
94.75297353097799
 20
47.33798910742739
 30
0.0
 10
94.71615176090621
 20
47.26922554771724
 30
0.0
 10
94.67804396721092
 20
47.22198568253714
 30
0.0
 10
94.63073882664273
 20
47.18363090434823
 30
0.0
 10
94.5619936514562
 20
47.14796361320874
 30
0.0
 10
94.4677090178933
 20
47.12985893734204
 30
0.0
 10
94.3734243843304
 20
47.14796361320874
 30
0.0
 10
94.3046792091439
 20
47.18363090434823
 30
0.0
 10
94.25737406857569
 20
47.22198568253714
 30
0.0
 10
94.21926627488039
 20
47.26922554771724
 30
0.0
 10
94.18244450480864
 20
47.33798910742739
 30
0.0
 10
94.1763774382195
 20
47.39512475659604
 30
0.0
 10
94.17243343394202
 20
47.43226679903203
 30
0.0
  0
SPLINE
  5
27E
330
1F
100
AcDbEntity
  8
0
  6
Continuous
 62
     7
370
    15
100
AcDbSpline
210
0.0
220
0.0
230
1.0
 70
     8
 71
     3
 72
    19
 73
    15
 74
     0
 42
0.0000000001
 43
0.0000000001
 40
0.0
 40
0.0
 40
0.0
 40
0.0
 40
0.1197304832946228
 40
0.1841802058035517
 40
0.2500002658751372
 40
0.3158200910615558
 40
0.3802717671295159
 40
0.5
 40
0.6197282328704842
 40
0.6841799089384442
 40
0.7499997341248627
 40
0.8158197941964481
 40
0.8802695167053771
 40
1.0
 40
1.0
 40
1.0
 40
1.0
 10
94.17243343394202
 20
47.43226679903203
 30
0.0
 10
94.17637730767603
 20
47.46940965809504
 30
0.0
 10
94.18244412922394
 20
47.52654614696669
 30
0.0
 10
94.21926627653499
 20
47.59531039784383
 30
0.0
 10
94.2573740681289
 20
47.64255026193473
 30
0.0
 10
94.30467920925792
 20
47.68090504041504
 30
0.0
 10
94.37342438427263
 20
47.71657233146204
 30
0.0
 10
94.4677090178933
 20
47.73467700738288
 30
0.0
 10
94.561993651514
 20
47.71657233146204
 30
0.0
 10
94.63073882652867
 20
47.68090504041504
 30
0.0
 10
94.67804396765775
 20
47.64255026193473
 30
0.0
 10
94.71615175925164
 20
47.59531039784383
 30
0.0
 10
94.75297390656264
 20
47.52654614696669
 30
0.0
 10
94.75904072811051
 20
47.46940965809504
 30
0.0
 10
94.76298460184452
 20
47.43226679903203
 30
0.0
  0
CIRCLE
  5
27F
330
1F
100
AcDbEntity
  8
0
  6
Continuous
 62
     7
370
    15
100
AcDbCircle
 10
94.46770901769935
 20
47.43226790679893
 30
0.0
 40
0.3346456692913335
  0
LINE
  5
280
330
1F
100
AcDbEntity
  8
0
  6
Continuous
 62
     7
370
    15
100
AcDbLine
 10
94.07400823919932
 20
22.23541755529894
 30
0.0
 11
94.86140979669935
 21
22.23541755529894
 31
0.0
  0
SPLINE
  5
281
330
1F
100
AcDbEntity
  8
0
  6
Continuous
 62
     7
370
    15
100
AcDbSpline
210
0.0
220
0.0
230
1.0
 70
    24
 71
     3
 72
    22
 73
    18
 74
     0
 42
0.0000000001
 43
0.0000000001
 40
0.0
 40
0.0
 40
0.0
 40
0.0
 40
0.0255670763636012
 40
0.096783898923851
 40
0.1695120402644427
 40
0.2422402004928038
 40
0.3134570072583885
 40
0.3818312637134618
 40
0.4463413662995131
 40
0.5108514745162873
 40
0.5792257100640881
 40
0.650442532624338
 40
0.7231706739649297
 40
0.7958988341932908
 40
0.8671156409588753
 40
0.9354898974139487
 40
1.0
 40
1.0
 40
1.0
 40
1.0
 10
94.88255580554783
 20
22.23541755518461
 30
0.0
 10
94.88303050081743
 20
22.23541755518461
 30
0.0
 10
94.88482745477268
 20
22.23541755518461
 30
0.0
 10
94.87072533717793
 20
22.23541755518461
 30
0.0
 10
94.83992486845171
 20
22.23541755518461
 30
0.0
 10
94.79234088299
 20
22.23541755518461
 30
0.0
 10
94.73275271835783
 20
22.23541755518461
 30
0.0
 10
94.66533994512923
 20
22.23541755518461
 30
0.0
 10
94.59329222245049
 20
22.23541755518461
 30
0.0
 10
94.51696356908982
 20
22.23541755518461
 30
0.0
 10
94.43618483781646
 20
22.23541755518461
 30
0.0
 10
94.35334227185714
 20
22.23541755518461
 30
0.0
 10
94.27356248749029
 20
22.23541755518461
 30
0.0
 10
94.20188411514709
 20
22.23541755518461
 30
0.0
 10
94.14282876892853
 20
22.23541755518461
 30
0.0
 10
94.09743659286588
 20
22.23541755518461
 30
0.0
 10
94.07909003744675
 20
22.23541755518461
 30
0.0
 10
94.07018351014187
 20
22.23541755518461
 30
0.0
  0
SPLINE
  5
282
330
1F
100
AcDbEntity
  8
0
  6
Continuous
 62
     7
370
    15
100
AcDbSpline
210
0.0
220
0.0
230
1.0
 70
    24
 71
     3
 72
    59
 73
    55
 74
     0
 42
0.0000000001
 43
0.0000000001
 40
0.0
 40
0.0
 40
0.0
 40
0.0
 40
0.0028662412026124
 40
0.005731579688145
 40
0.0085962472804099
 40
0.0114604759661204
 40
0.0143244978386448
 40
0.0171885450416295
 40
0.0200528497125624
 40
0.0229176439263425
 40
0.0257831596389262
 40
0.0286496286311179
 40
0.0434550554295892
 40
0.0582617685706986
 40
0.0735073083749304
 40
0.0887541248054875
 40
0.1043869048302686
 40
0.12002094607093
 40
0.1519261911533099
 40
0.1843352087822224
 40
0.2170889951673442
 40
0.2500179276839715
 40
0.2829468602005988
 40
0.3157006465857207
 40
0.348109664214633
 40
0.3800149092970129
 40
0.4112722964759583
 40
0.4417559029674202
 40
0.4713600298728407
 40
0.5000000850614473
 40
0.5286401402500538
 40
0.5582442671554744
 40
0.5887278736469364
 40
0.6199852608258815
 40
0.6518905059082615
 40
0.6842995235371739
 40
0.7170533099222957
 40
0.749982242438923
 40
0.7829111749555505
 40
0.8156649613406722
 40
0.8480739789695846
 40
0.8799792240519646
 40
0.8956120040969201
 40
0.9112460453522363
 40
0.9264915851169604
 40
0.9417384015183667
 40
0.9565438283389505
 40
0.9713505415015239
 40
0.9761270663637395
 40
0.9809015125746926
 40
0.9856749542981869
 40
0.9904484663761335
 40
0.99522312360293
 40
1.0
 40
1.0
 40
1.0
 40
1.0
 10
89.388968860413
 20
20.6606143633388
 30
0.0
 10
89.38900838283354
 20
20.6606143633388
 30
0.0
 10
89.38908741522714
 20
20.6606143633388
 30
0.0
 10
89.38972695069049
 20
20.6606143633388
 30
0.0
 10
89.39074792387435
 20
20.6606143633388
 30
0.0
 10
89.39218770480573
 20
20.6606143633388
 30
0.0
 10
89.39403628362013
 20
20.6606143633388
 30
0.0
 10
89.39629634091488
 20
20.6606143633388
 30
0.0
 10
89.39896716214972
 20
20.6606143633388
 30
0.0
 10
89.4020489247236
 20
20.6606143633388
 30
0.0
 10
89.40554163307892
 20
20.6606143633388
 30
0.0
 10
89.41486376041599
 20
20.6606143633388
 30
0.0
 10
89.4343753431273
 20
20.6606143633388
 30
0.0
 10
89.47233021686381
 20
20.6606143633388
 30
0.0
 10
89.52182079717136
 20
20.6606143633388
 30
0.0
 10
89.58366698517556
 20
20.6606143633388
 30
0.0
 10
89.65755140051669
 20
20.6606143633388
 30
0.0
 10
89.77352240771379
 20
20.6606143633388
 30
0.0
 10
89.9498981318049
 20
20.6606143633388
 30
0.0
 10
90.21039763407902
 20
20.6606143633388
 30
0.0
 10
90.51839708491888
 20
20.6606143633388
 30
0.0
 10
90.87008475833078
 20
20.6606143633388
 30
0.0
 10
91.26018014098276
 20
20.6606143633388
 30
0.0
 10
91.68218064466964
 20
20.6606143633388
 30
0.0
 10
92.12872027718901
 20
20.6606143633388
 30
0.0
 10
92.59197927465564
 20
20.6606143633388
 30
0.0
 10
93.06410456851882
 20
20.6606143633388
 30
0.0
 10
93.53759500995508
 20
20.6606143633388
 30
0.0
 10
94.0056203648467
 20
20.6606143633388
 30
0.0
 10
94.4677090178933
 20
20.6606143633388
 30
0.0
 10
94.92979767093993
 20
20.6606143633388
 30
0.0
 10
95.39782302583148
 20
20.6606143633388
 30
0.0
 10
95.87131346726783
 20
20.6606143633388
 30
0.0
 10
96.34343876113071
 20
20.6606143633388
 30
0.0
 10
96.80669775859863
 20
20.6606143633388
 30
0.0
 10
97.25323739111281
 20
20.6606143633388
 30
0.0
 10
97.67523789481959
 20
20.6606143633388
 30
0.0
 10
98.06533327739693
 20
20.6606143633388
 30
0.0
 10
98.41702095108724
 20
20.6606143633388
 30
0.0
 10
98.72502040089683
 20
20.6606143633388
 30
0.0
 10
98.98551990695279
 20
20.6606143633388
 30
0.0
 10
99.16189283716647
 20
20.6606143633388
 30
0.0
 10
99.27786448811804
 20
20.6606143633388
 30
0.0
 10
99.35174733078705
 20
20.6606143633388
 30
0.0
 10
99.41359567228875
 20
20.6606143633388
 30
0.0
 10
99.46308524130186
 20
20.6606143633388
 30
0.0
 10
99.50104212781054
 20
20.6606143633388
 30
0.0
 10
99.52170026253401
 20
20.6606143633388
 30
0.0
 10
99.53237176323469
 20
20.6606143633388
 30
0.0
 10
99.53750732411061
 20
20.6606143633388
 30
0.0
 10
99.54150710980664
 20
20.6606143633388
 30
0.0
 10
99.54434340058766
 20
20.6606143633388
 30
0.0
 10
99.54611994135383
 20
20.6606143633388
 30
0.0
 10
99.54633941370317
 20
20.6606143633388
 30
0.0
 10
99.54644917537363
 20
20.6606143633388
 30
0.0
  0
SPLINE
  5
283
330
1F
100
AcDbEntity
  8
0
  6
Continuous
 62
     7
370
    15
100
AcDbSpline
210
0.0
220
0.0
230
1.0
 70
    24
 71
     3
 72
    14
 73
    10
 74
     0
 42
0.0000000001
 43
0.0000000001
 40
0.0
 40
0.0
 40
0.0
 40
0.0
 40
0.25
 40
0.25
 40
0.5
 40
0.5
 40
0.75
 40
0.75
 40
1.0
 40
1.0
 40
1.0
 40
1.0
 10
89.388968860413
 20
20.18817341845691
 30
0.0
 10
89.388968860413
 20
20.18817341845691
 30
0.0
 10
89.92407583150011
 20
20.18817341845691
 30
0.0
 10
91.82891899380894
 20
20.18817341845691
 30
0.0
 10
93.12078150072792
 20
20.18817341845691
 30
0.0
 10
95.81463653505863
 20
20.18817341845691
 30
0.0
 10
97.10649904197772
 20
20.18817341845691
 30
0.0
 10
99.01134220428643
 20
20.18817341845691
 30
0.0
 10
99.54644917537363
 20
20.18817341845691
 30
0.0
 10
99.54644917537363
 20
20.18817341845691
 30
0.0
  0
SPLINE
  5
284
330
1F
100
AcDbEntity
  8
0
  6
Continuous
 62
     7
370
    15
100
AcDbSpline
210
0.0
220
0.0
230
1.0
 70
    24
 71
     3
 72
    14
 73
    10
 74
     0
 42
0.0000000001
 43
0.0000000001
 40
0.0
 40
0.0
 40
0.0
 40
0.0
 40
0.25
 40
0.25
 40
0.5
 40
0.5
 40
0.75
 40
0.75
 40
1.0
 40
1.0
 40
1.0
 40
1.0
 10
89.78266964781452
 20
20.07006318223644
 30
0.0
 10
89.78266964781452
 20
20.07006318223644
 30
0.0
 10
90.27629545835234
 20
20.07006318223644
 30
0.0
 10
92.03347636001703
 20
20.07006318223644
 30
0.0
 10
93.22519448655475
 20
20.07006318223644
 30
0.0
 10
95.71022354923186
 20
20.07006318223644
 30
0.0
 10
96.9019416757696
 20
20.07006318223644
 30
0.0
 10
98.65912257743424
 20
20.07006318223644
 30
0.0
 10
99.15274838797202
 20
20.07006318223644
 30
0.0
 10
99.15274838797202
 20
20.07006318223644
 30
0.0
  0
LINE
  5
285
330
1F
100
AcDbEntity
  8
0
  6
Continuous
 62
     8
370
    15
100
AcDbLine
 10
94.57794523419934
 20
47.99132316729894
 30
0.0
 11
94.35747280119935
 21
47.99132316729894
 31
0.0
  0
LINE
  5
286
330
1F
100
AcDbEntity
  8
0
  6
Continuous
 62
     8
370
    15
100
AcDbLine
 10
94.92360953119931
 20
22.19947921029894
 30
0.0
 11
94.01180850469932
 21
22.19947921029894
 31
0.0
  0
LINE
  5
287
330
1F
100
AcDbEntity
  8
0
  6
Continuous
 62
     8
370
    15
100
AcDbLine
 10
89.34959896919934
 20
20.62124428229893
 30
0.0
 11
99.58581906619935
 21
20.62124428229893
 31
0.0
  0
LINE
  5
288
330
1F
100
AcDbEntity
  8
0
  6
Continuous
 62
     8
370
    15
100
AcDbLine
 10
89.34959896919934
 20
20.22754349929894
 30
0.0
 11
99.58581906619935
 21
20.22754349929894
 31
0.0
  0
LINE
  5
289
330
1F
100
AcDbEntity
  8
0
  6
Continuous
 62
     8
370
    15
100
AcDbLine
 10
89.74329967469936
 20
20.10943325729894
 30
0.0
 11
99.19211836119934
 21
20.10943325729894
 31
0.0
  0
LINE
  5
28A
330
1F
100
AcDbEntity
  8
0
  6
Continuous
 62
     7
370
    15
100
AcDbLine
 10
50.58365869819934
 20
20.03069309579894
 30
0.0
 11
50.58365869819934
 21
20.07006318129894
 31
0.0
  0
LINE
  5
28B
330
1F
100
AcDbEntity
  8
0
  6
Continuous
 62
     7
370
    15
100
AcDbLine
 10
49.40255636219934
 20
20.07006318129894
 30
0.0
 11
49.40255636219934
 21
20.03069309579894
 31
0.0
  0
LINE
  5
28C
330
1F
100
AcDbEntity
  8
0
  6
Continuous
 62
     7
370
    15
100
AcDbLine
 10
54.12696566869934
 20
20.03069309579894
 30
0.0
 11
54.12696566869934
 21
20.07006318129894
 31
0.0
  0
LINE
  5
28D
330
1F
100
AcDbEntity
  8
0
  6
Continuous
 62
     7
370
    15
100
AcDbLine
 10
52.94586355319933
 20
20.07006318129894
 30
0.0
 11
52.94586355319933
 21
20.03069309579894
 31
0.0
  0
LINE
  5
28E
330
1F
100
AcDbEntity
  8
0
  6
Continuous
 62
     7
370
    15
100
AcDbLine
 10
48.26416363619935
 20
20.03069309579894
 30
0.0
 11
48.26416363619935
 21
20.07006318129894
 31
0.0
  0
LINE
  5
28F
330
1F
100
AcDbEntity
  8
0
  6
Continuous
 62
     7
370
    15
100
AcDbLine
 10
48.21434198519935
 20
20.03069309579894
 30
0.0
 11
48.21434198519935
 21
20.07006318129894
 31
0.0
  0
LINE
  5
290
330
1F
100
AcDbEntity
  8
0
  6
Continuous
 62
     7
370
    15
100
AcDbLine
 10
47.0332397226993
 20
20.07006318129894
 30
0.0
 11
47.0332397226993
 21
20.03069309579894
 31
0.0
  0
LINE
  5
291
330
1F
100
AcDbEntity
  8
0
  6
Continuous
 62
     7
370
    15
100
AcDbLine
 10
52.90228968319934
 20
20.03069309579894
 30
0.0
 11
52.90228968319934
 21
20.07006318129894
 31
0.0
  0
LINE
  5
292
330
1F
100
AcDbEntity
  8
0
  6
Continuous
 62
     7
370
    15
100
AcDbLine
 10
51.72118742069935
 20
20.07006318129894
 30
0.0
 11
51.72118742069935
 21
20.03069309579894
 31
0.0
  0
LINE
  5
293
330
1F
100
AcDbEntity
  8
0
  6
Continuous
 62
     7
370
    15
100
AcDbLine
 10
51.60771566469932
 20
20.07006318129894
 30
0.0
 11
51.60771566469932
 21
20.03069309579894
 31
0.0
  0
LINE
  5
294
330
1F
100
AcDbEntity
  8
0
  6
Continuous
 62
     7
370
    15
100
AcDbLine
 10
45.85924939169934
 20
20.07006318129894
 30
0.0
 11
45.85924939169934
 21
20.03069309579894
 31
0.0
  0
LINE
  5
295
330
1F
100
AcDbEntity
  8
0
  6
Continuous
 62
     7
370
    15
100
AcDbLine
 10
49.59940675169931
 20
52.07793729179894
 30
0.0
 11
49.59940675169931
 21
51.76297602379894
 31
0.0
  0
ARC
  5
296
330
1F
100
AcDbEntity
  8
0
  6
Continuous
 62
     7
370
    15
100
AcDbCircle
 10
50.07184768769931
 20
47.99132302479894
 30
0.0
 40
0.0314960629921315
100
AcDbArc
 50
0.0
 51
90.0
  0
ARC
  5
297
330
1F
100
AcDbEntity
  8
0
  6
Continuous
 62
     7
370
    15
100
AcDbCircle
 10
49.91436737269933
 20
47.99132302479894
 30
0.0
 40
0.0314960629921315
100
AcDbArc
 50
90.0
 51
180.0
  0
LINE
  5
298
330
1F
100
AcDbEntity
  8
0
  6
Continuous
 62
     7
370
    15
100
AcDbLine
 10
50.10334374669935
 20
47.74823477579893
 30
0.0
 11
50.10334374669935
 21
47.99132316729894
 31
0.0
  0
LINE
  5
299
330
1F
100
AcDbEntity
  8
0
  6
Continuous
 62
     7
370
    15
100
AcDbLine
 10
49.88287131369935
 20
47.99132316729894
 30
0.0
 11
49.88287131369935
 21
47.74823477579893
 31
0.0
  0
LINE
  5
29A
330
1F
100
AcDbEntity
  8
0
  6
Continuous
 62
     7
370
    15
100
AcDbLine
 10
49.59940675169931
 20
51.76297602379894
 30
0.0
 11
49.59940675169931
 21
22.23541755529894
 31
0.0
  0
LINE
  5
29B
330
1F
100
AcDbEntity
  8
0
  6
Continuous
 62
     7
370
    15
100
AcDbLine
 10
50.38680830869933
 20
22.23541755529894
 30
0.0
 11
50.38680830869933
 21
51.76297602379894
 31
0.0
  0
LINE
  5
29C
330
1F
100
AcDbEntity
  8
0
  6
Continuous
 62
     7
370
    15
100
AcDbLine
 10
50.58365869819934
 20
20.66061436729894
 30
0.0
 11
50.44900804369934
 21
22.19947921029894
 31
0.0
  0
LINE
  5
29D
330
1F
100
AcDbEntity
  8
0
  6
Continuous
 62
     7
370
    15
100
AcDbLine
 10
49.53720701669934
 20
22.19947921029894
 30
0.0
 11
49.40255636219934
 21
20.66061436729894
 31
0.0
  0
ARC
  5
29E
330
1F
100
AcDbEntity
  8
0
  6
Continuous
 62
     7
370
    15
100
AcDbCircle
 10
49.57642724769934
 20
22.19604743429894
 30
0.0
 40
0.0393700787401605
100
AcDbArc
 50
90.0
 51
174.9993554024
  0
ARC
  5
29F
330
1F
100
AcDbEntity
  8
0
  6
Continuous
 62
     7
370
    15
100
AcDbCircle
 10
50.40978781269934
 20
22.19604743429894
 30
0.0
 40
0.0393700787401575
100
AcDbArc
 50
5.00064459760001
 51
90.0
  0
ARC
  5
2A0
330
1F
100
AcDbEntity
  8
0
  6
Continuous
 62
     7
370
    15
100
AcDbCircle
 10
55.07184768769931
 20
20.22754349729894
 30
0.0
 40
0.0393700787401575
100
AcDbArc
 50
270.0
 51
0.0
  0
ARC
  5
2A1
330
1F
100
AcDbEntity
  8
0
  6
Continuous
 62
     7
370
    15
100
AcDbCircle
 10
44.91436737269933
 20
20.22754349729894
 30
0.0
 40
0.039370078740155
100
AcDbArc
 50
180.0
 51
270.0
  0
ARC
  5
2A2
330
1F
100
AcDbEntity
  8
0
  6
Continuous
 62
     7
370
    15
100
AcDbCircle
 10
44.91436737269933
 20
20.62124428479894
 30
0.0
 40
0.0393700787401575
100
AcDbArc
 50
90.0
 51
180.0
  0
ARC
  5
2A3
330
1F
100
AcDbEntity
  8
0
  6
Continuous
 62
     7
370
    15
100
AcDbCircle
 10
55.07184768769931
 20
20.62124428479894
 30
0.0
 40
0.0393700787401575
100
AcDbArc
 50
0.0
 51
90.0
  0
LINE
  5
2A4
330
1F
100
AcDbEntity
  8
0
  6
Continuous
 62
     7
370
    15
100
AcDbLine
 10
44.87499748169935
 20
20.62124428229893
 30
0.0
 11
44.87499748169935
 21
20.22754349929894
 31
0.0
  0
LINE
  5
2A5
330
1F
100
AcDbEntity
  8
0
  6
Continuous
 62
     7
370
    15
100
AcDbLine
 10
55.11121757869933
 20
20.22754349929894
 30
0.0
 11
55.11121757869933
 21
20.62124428229893
 31
0.0
  0
ARC
  5
2A6
330
1F
100
AcDbEntity
  8
0
  6
Continuous
 62
     7
370
    15
100
AcDbCircle
 10
54.67814690019932
 20
20.10943326079894
 30
0.0
 40
0.0393700787401575
100
AcDbArc
 50
270.0
 51
0.0
  0
ARC
  5
2A7
330
1F
100
AcDbEntity
  8
0
  6
Continuous
 62
     7
370
    15
100
AcDbCircle
 10
45.30806816019932
 20
20.10943326079894
 30
0.0
 40
0.0393700787401575
100
AcDbArc
 50
180.0
 51
270.0
  0
LINE
  5
2A8
330
1F
100
AcDbEntity
  8
0
  6
Continuous
 62
     7
370
    15
100
AcDbLine
 10
45.26869818669934
 20
20.18817341829894
 30
0.0
 11
45.26869818669934
 21
20.10943325729894
 31
0.0
  0
LINE
  5
2A9
330
1F
100
AcDbEntity
  8
0
  6
Continuous
 62
     7
370
    15
100
AcDbLine
 10
54.71751687319934
 20
20.10943325729894
 30
0.0
 11
54.71751687319934
 21
20.18817341829894
 31
0.0
  0
LINE
  5
2AA
330
1F
100
AcDbEntity
  8
0
  6
Continuous
 62
     7
370
    15
100
AcDbLine
 10
49.40255636219934
 20
20.03069309579894
 30
0.0
 11
50.58365869819934
 21
20.03069309579894
 31
0.0
  0
LINE
  5
2AB
330
1F
100
AcDbEntity
  8
0
  6
Continuous
 62
     7
370
    15
100
AcDbLine
 10
52.94586355319933
 20
20.03069309579894
 30
0.0
 11
54.12696566869934
 21
20.03069309579894
 31
0.0
  0
LINE
  5
2AC
330
1F
100
AcDbEntity
  8
0
  6
Continuous
 62
     7
370
    15
100
AcDbLine
 10
48.21434198519935
 20
20.03069309579894
 30
0.0
 11
48.26416363619935
 21
20.03069309579894
 31
0.0
  0
LINE
  5
2AD
330
1F
100
AcDbEntity
  8
0
  6
Continuous
 62
     7
370
    15
100
AcDbLine
 10
47.0332397226993
 20
20.03069309579894
 30
0.0
 11
48.21434198519935
 21
20.03069309579894
 31
0.0
  0
LINE
  5
2AE
330
1F
100
AcDbEntity
  8
0
  6
Continuous
 62
     7
370
    15
100
AcDbLine
 10
51.72118742069935
 20
20.03069309579894
 30
0.0
 11
52.90228968319934
 21
20.03069309579894
 31
0.0
  0
LINE
  5
2AF
330
1F
100
AcDbEntity
  8
0
  6
Continuous
 62
     7
370
    15
100
AcDbLine
 10
51.60771566469932
 20
20.03069309579894
 30
0.0
 11
51.72118742069935
 21
20.03069309579894
 31
0.0
  0
LINE
  5
2B0
330
1F
100
AcDbEntity
  8
0
  6
Continuous
 62
     7
370
    15
100
AcDbLine
 10
45.85924939169934
 20
20.03069309579894
 30
0.0
 11
47.0332397226993
 21
20.03069309579894
 31
0.0
  0
LINE
  5
2B1
330
1F
100
AcDbEntity
  8
0
  6
Continuous
 62
     7
370
    15
100
AcDbLine
 10
51.25295010969932
 20
52.17636239479894
 30
0.0
 11
51.25295010969932
 21
52.15667643579894
 31
0.0
  0
LINE
  5
2B2
330
1F
100
AcDbEntity
  8
0
  6
Continuous
 62
     7
370
    15
100
AcDbLine
 10
51.25295010969932
 20
52.15667643579894
 30
0.0
 11
51.44980046219933
 21
52.15667643579894
 31
0.0
  0
LINE
  5
2B3
330
1F
100
AcDbEntity
  8
0
  6
Continuous
 62
     7
370
    15
100
AcDbLine
 10
51.44980046219933
 20
51.76297602379894
 30
0.0
 11
51.44980046219933
 21
52.15667643579894
 31
0.0
  0
LINE
  5
2B4
330
1F
100
AcDbEntity
  8
0
  6
Continuous
 62
     7
370
    15
100
AcDbLine
 10
50.66239890519935
 20
51.76297602379894
 30
0.0
 11
51.44980046219933
 21
51.76297602379894
 31
0.0
  0
LINE
  5
2B5
330
1F
100
AcDbEntity
  8
0
  6
Continuous
 62
     7
370
    15
100
AcDbLine
 10
50.66239890519935
 20
53.33778001779894
 30
0.0
 11
50.66239890519935
 21
51.76297602379894
 31
0.0
  0
LINE
  5
2B6
330
1F
100
AcDbEntity
  8
0
  6
Continuous
 62
     7
370
    15
100
AcDbLine
 10
51.22198656719934
 20
53.45589108029894
 30
0.0
 11
51.22198656719934
 21
53.33778001779894
 31
0.0
  0
LINE
  5
2B7
330
1F
100
AcDbEntity
  8
0
  6
Continuous
 62
     7
370
    15
100
AcDbLine
 10
51.22198656719934
 20
53.45589108029894
 30
0.0
 11
51.34009682269933
 21
53.45589108029894
 31
0.0
  0
LINE
  5
2B8
330
1F
100
AcDbEntity
  8
0
  6
Continuous
 62
     7
370
    15
100
AcDbLine
 10
51.34009682269933
 20
53.45589108029894
 30
0.0
 11
51.34009682269933
 21
53.33778001779894
 31
0.0
  0
LINE
  5
2B9
330
1F
100
AcDbEntity
  8
0
  6
Continuous
 62
     7
370
    15
100
AcDbLine
 10
51.44980046219933
 20
52.17636239479894
 30
0.0
 11
51.44980046219933
 21
53.33778001779894
 31
0.0
  0
LINE
  5
2BA
330
1F
100
AcDbEntity
  8
0
  6
Continuous
 62
     7
370
    15
100
AcDbLine
 10
51.25295010969932
 20
52.17636239479894
 30
0.0
 11
51.44980046219933
 21
52.17636239479894
 31
0.0
  0
LINE
  5
2BB
330
1F
100
AcDbEntity
  8
0
  6
Continuous
 62
     7
370
    15
100
AcDbLine
 10
51.44980046219933
 20
53.33778001779894
 30
0.0
 11
51.34009682269933
 21
53.33778001779894
 31
0.0
  0
LINE
  5
2BC
330
1F
100
AcDbEntity
  8
0
  6
Continuous
 62
     7
370
    15
100
AcDbLine
 10
51.22198656719934
 20
53.33778001779894
 30
0.0
 11
50.66239890519935
 21
53.33778001779894
 31
0.0
  0
LINE
  5
2BD
330
1F
100
AcDbEntity
  8
0
  6
Continuous
 62
     7
370
    15
100
AcDbLine
 10
50.62302881969936
 20
52.74722940029893
 30
0.0
 11
50.62302881969936
 21
51.76297602379894
 31
0.0
  0
LINE
  5
2BE
330
1F
100
AcDbEntity
  8
0
  6
Continuous
 62
     7
370
    15
100
AcDbLine
 10
50.62302881969936
 20
51.76297602379894
 30
0.0
 11
50.42617839369933
 21
51.88108708579894
 31
0.0
  0
LINE
  5
2BF
330
1F
100
AcDbEntity
  8
0
  6
Continuous
 62
     7
370
    15
100
AcDbLine
 10
50.42617839369933
 20
51.88108708579894
 30
0.0
 11
50.42617839369933
 21
52.62911833779894
 31
0.0
  0
LINE
  5
2C0
330
1F
100
AcDbEntity
  8
0
  6
Continuous
 62
     7
370
    15
100
AcDbLine
 10
50.42617839369933
 20
52.62911833779894
 30
0.0
 11
50.62302881969936
 21
52.74722940029893
 31
0.0
  0
LINE
  5
2C1
330
1F
100
AcDbEntity
  8
0
  6
Continuous
 62
     7
370
    15
100
AcDbLine
 10
50.66239890519935
 20
52.74722940029893
 30
0.0
 11
50.62302881969936
 21
52.74722940029893
 31
0.0
  0
LINE
  5
2C2
330
1F
100
AcDbEntity
  8
0
  6
Continuous
 62
     7
370
    15
100
AcDbLine
 10
50.62302881969936
 20
51.76297602379894
 30
0.0
 11
50.66239890519935
 21
51.76297602379894
 31
0.0
  0
LINE
  5
2C3
330
1F
100
AcDbEntity
  8
0
  6
Continuous
 62
     7
370
    15
100
AcDbLine
 10
49.99310753019935
 20
51.76297602379894
 30
0.0
 11
49.99310753019935
 21
52.07793729179894
 31
0.0
  0
LINE
  5
2C4
330
1F
100
AcDbEntity
  8
0
  6
Continuous
 62
     7
370
    15
100
AcDbLine
 10
49.99310753019935
 20
52.07793729179894
 30
0.0
 11
50.42617839369933
 21
52.07793729179894
 31
0.0
  0
LINE
  5
2C5
330
1F
100
AcDbEntity
  8
0
  6
Continuous
 62
     7
370
    15
100
AcDbLine
 10
49.99310753019935
 20
51.76297602379894
 30
0.0
 11
50.62302881969936
 21
51.76297602379894
 31
0.0
  0
LINE
  5
2C6
330
1F
100
AcDbEntity
  8
0
  6
Continuous
 62
     7
370
    15
100
AcDbLine
 10
49.99310753019935
 20
52.07793729179894
 30
0.0
 11
49.59940675169931
 21
52.07793729179894
 31
0.0
  0
LINE
  5
2C7
330
1F
100
AcDbEntity
  8
0
  6
Continuous
 62
     7
370
    15
100
AcDbLine
 10
49.59940675169931
 20
51.76297602379894
 30
0.0
 11
49.99310753019935
 21
51.76297602379894
 31
0.0
  0
SPLINE
  5
2C8
330
1F
100
AcDbEntity
  8
0
  6
Continuous
 62
     7
370
    15
100
AcDbSpline
210
0.0
220
0.0
230
1.0
 70
    24
 71
     3
 72
    19
 73
    15
 74
     0
 42
0.0000000001
 43
0.0000000001
 40
0.0
 40
0.0
 40
0.0
 40
0.0
 40
0.1197217040511802
 40
0.1848179486658762
 40
0.2500010547041847
 40
0.3150975273932928
 40
0.3802785807240888
 40
0.5000000509940085
 40
0.6197215212639282
 40
0.6848177360627689
 40
0.749998678361348
 40
0.8150949481820942
 40
0.8802782959488196
 40
1.0
 40
1.0
 40
1.0
 40
1.0
 10
50.07184769133459
 20
48.02281976358044
 30
0.0
 10
50.07079016878879
 20
48.02281976358044
 30
0.0
 10
50.06915763984074
 20
48.02281976358044
 30
0.0
 10
50.05935481614281
 20
48.02281976358044
 30
0.0
 10
50.04918250149913
 20
48.02281976358044
 30
0.0
 10
50.03665183645054
 20
48.02281976358044
 30
0.0
 10
50.01830194450329
 20
48.02281976358044
 30
0.0
 10
49.99310761257959
 20
48.02281976358044
 30
0.0
 10
49.96791987780054
 20
48.02281976358044
 30
0.0
 10
49.94956966434767
 20
48.02281976358044
 30
0.0
 10
49.93704247645047
 20
48.02281976358044
 30
0.0
 10
49.92686388102367
 20
48.02281976358044
 30
0.0
 10
49.91705855417629
 20
48.02281976358044
 30
0.0
 10
49.91542503464962
 20
48.02281976358044
 30
0.0
 10
49.91436736889406
 20
48.02281976358044
 30
0.0
  0
SPLINE
  5
2C9
330
1F
100
AcDbEntity
  8
0
  6
Continuous
 62
     7
370
    15
100
AcDbSpline
210
0.0
220
0.0
230
1.0
 70
     8
 71
     3
 72
    19
 73
    15
 74
     0
 42
0.0000000001
 43
0.0000000001
 40
0.0
 40
0.0
 40
0.0
 40
0.0
 40
0.1197285863320049
 40
0.1841786303463634
 40
0.2499990187592648
 40
0.3158191722858274
 40
0.3802711698689622
 40
0.5
 40
0.6197288301310378
 40
0.6841808277141727
 40
0.7500009812407353
 40
0.8158213696536364
 40
0.8802714136679949
 40
1.0
 40
1.0
 40
1.0
 40
1.0
 10
50.28838311406559
 20
47.43226679903203
 30
0.0
 10
50.28443910978817
 20
47.39512475659604
 30
0.0
 10
50.27837204319903
 20
47.33798910742739
 30
0.0
 10
50.24155027312724
 20
47.26922554771724
 30
0.0
 10
50.20344247943197
 20
47.22198568253714
 30
0.0
 10
50.15613733886377
 20
47.18363090434823
 30
0.0
 10
50.08739216367724
 20
47.14796361320874
 30
0.0
 10
49.99310753011434
 20
47.12985893734204
 30
0.0
 10
49.89882289655142
 20
47.14796361320874
 30
0.0
 10
49.83007772136488
 20
47.18363090434823
 30
0.0
 10
49.78277258079669
 20
47.22198568253714
 30
0.0
 10
49.74466478710144
 20
47.26922554771724
 30
0.0
 10
49.70784301702969
 20
47.33798910742739
 30
0.0
 10
49.70177595044055
 20
47.39512475659604
 30
0.0
 10
49.69783194616309
 20
47.43226679903203
 30
0.0
  0
SPLINE
  5
2CA
330
1F
100
AcDbEntity
  8
0
  6
Continuous
 62
     7
370
    15
100
AcDbSpline
210
0.0
220
0.0
230
1.0
 70
     8
 71
     3
 72
    19
 73
    15
 74
     0
 42
0.0000000001
 43
0.0000000001
 40
0.0
 40
0.0
 40
0.0
 40
0.0
 40
0.1197304832946228
 40
0.1841802058035517
 40
0.2500002658751373
 40
0.3158200910615559
 40
0.3802717671295159
 40
0.5000000000000001
 40
0.6197282328704842
 40
0.6841799089384442
 40
0.7499997341248627
 40
0.8158197941964481
 40
0.8802695167053771
 40
1.0
 40
1.0
 40
1.0
 40
1.0
 10
49.69783194616309
 20
47.43226679903203
 30
0.0
 10
49.70177581989711
 20
47.46940965809504
 30
0.0
 10
49.70784264144498
 20
47.52654614696669
 30
0.0
 10
49.74466478875598
 20
47.59531039784383
 30
0.0
 10
49.7827725803499
 20
47.64255026193473
 30
0.0
 10
49.83007772147897
 20
47.68090504041504
 30
0.0
 10
49.89882289649367
 20
47.71657233146204
 30
0.0
 10
49.99310753011434
 20
47.73467700738288
 30
0.0
 10
50.08739216373505
 20
47.71657233146204
 30
0.0
 10
50.15613733874968
 20
47.68090504041504
 30
0.0
 10
50.20344247987876
 20
47.64255026193478
 30
0.0
 10
50.24155027147267
 20
47.59531039784383
 30
0.0
 10
50.27837241878367
 20
47.52654614696669
 30
0.0
 10
50.28443924033161
 20
47.46940965809504
 30
0.0
 10
50.28838311406559
 20
47.43226679903203
 30
0.0
  0
CIRCLE
  5
2CB
330
1F
100
AcDbEntity
  8
0
  6
Continuous
 62
     7
370
    15
100
AcDbCircle
 10
49.99310753019935
 20
47.43226790679893
 30
0.0
 40
0.3346456692913425
  0
LINE
  5
2CC
330
1F
100
AcDbEntity
  8
0
  6
Continuous
 62
     7
370
    15
100
AcDbLine
 10
49.59940675169931
 20
22.23541755529894
 30
0.0
 11
50.38680830869933
 21
22.23541755529894
 31
0.0
  0
SPLINE
  5
2CD
330
1F
100
AcDbEntity
  8
0
  6
Continuous
 62
     7
370
    15
100
AcDbSpline
210
0.0
220
0.0
230
1.0
 70
    24
 71
     3
 72
    22
 73
    18
 74
     0
 42
0.0000000001
 43
0.0000000001
 40
0.0
 40
0.0
 40
0.0
 40
0.0
 40
0.0255670763636012
 40
0.096783898923851
 40
0.1695120402644427
 40
0.2422402004928038
 40
0.3134570072583885
 40
0.3818312637134618
 40
0.4463413662995131
 40
0.5108514745162873
 40
0.5792257100640881
 40
0.650442532624338
 40
0.7231706739649297
 40
0.7958988341932908
 40
0.8671156409588753
 40
0.9354898974139487
 40
1.0
 40
1.0
 40
1.0
 40
1.0
 10
50.40795431776885
 20
22.23541755518461
 30
0.0
 10
50.40842901303847
 20
22.23541755518461
 30
0.0
 10
50.41022596699375
 20
22.23541755518461
 30
0.0
 10
50.39612384939897
 20
22.23541755518461
 30
0.0
 10
50.36532338067274
 20
22.23541755518461
 30
0.0
 10
50.31773939521102
 20
22.23541755518461
 30
0.0
 10
50.2581512305789
 20
22.23541755518461
 30
0.0
 10
50.19073845735028
 20
22.23541755518461
 30
0.0
 10
50.1186907346715
 20
22.23541755518461
 30
0.0
 10
50.04236208131087
 20
22.23541755518461
 30
0.0
 10
49.9615833500375
 20
22.23541755518461
 30
0.0
 10
49.87874078407816
 20
22.23541755518461
 30
0.0
 10
49.79896099971131
 20
22.23541755518461
 30
0.0
 10
49.72728262736817
 20
22.23541755518461
 30
0.0
 10
49.66822728114954
 20
22.23541755518461
 30
0.0
 10
49.62283510508692
 20
22.23541755518461
 30
0.0
 10
49.60448854966779
 20
22.23541755518461
 30
0.0
 10
49.59558202236292
 20
22.23541755518461
 30
0.0
  0
SPLINE
  5
2CE
330
1F
100
AcDbEntity
  8
0
  6
Continuous
 62
     7
370
    15
100
AcDbSpline
210
0.0
220
0.0
230
1.0
 70
    24
 71
     3
 72
    14
 73
    10
 74
     0
 42
0.0000000001
 43
0.0000000001
 40
0.0
 40
0.0
 40
0.0
 40
0.0
 40
0.25
 40
0.25
 40
0.5
 40
0.5
 40
0.75
 40
0.75
 40
1.0
 40
1.0
 40
1.0
 40
1.0
 10
44.91436737263405
 20
20.18817341845691
 30
0.0
 10
44.91436737263405
 20
20.18817341845691
 30
0.0
 10
45.44947434372119
 20
20.18817341845691
 30
0.0
 10
47.35431750602995
 20
20.18817341845691
 30
0.0
 10
48.64618001294897
 20
20.18817341845691
 30
0.0
 10
51.34003504727968
 20
20.18817341845691
 30
0.0
 10
52.6318975541987
 20
20.18817341845691
 30
0.0
 10
54.53674071650749
 20
20.18817341845691
 30
0.0
 10
55.07184768759467
 20
20.18817341845691
 30
0.0
 10
55.07184768759467
 20
20.18817341845691
 30
0.0
  0
SPLINE
  5
2CF
330
1F
100
AcDbEntity
  8
0
  6
Continuous
 62
     7
370
    15
100
AcDbSpline
210
0.0
220
0.0
230
1.0
 70
    24
 71
     3
 72
    59
 73
    55
 74
     0
 42
0.0000000001
 43
0.0000000001
 40
0.0
 40
0.0
 40
0.0
 40
0.0
 40
0.0028662412040536
 40
0.0057315796907071
 40
0.0085962472837724
 40
0.0114604759699631
 40
0.0143244978426475
 40
0.0171885450454723
 40
0.0200528497159257
 40
0.022917643928907
 40
0.0257831596403731
 40
0.0286496286311289
 40
0.0434550554310817
 40
0.0582617685706957
 40
0.0735073083796389
 40
0.0887541248055071
 40
0.1043869048347984
 40
0.120020946070926
 40
0.1519261911533063
 40
0.1843352087822189
 40
0.217088995167341
 40
0.2500179276839685
 40
0.2829468602005965
 40
0.3157006465857184
 40
0.348109664214631
 40
0.380014909297011
 40
0.4112722964759563
 40
0.4417559029674189
 40
0.4713600298728398
 40
0.5000000850614465
 40
0.5286401402500532
 40
0.5582442671554741
 40
0.5887278736469366
 40
0.6199852608258818
 40
0.6518905059082619
 40
0.6842995235371747
 40
0.7170533099222965
 40
0.7499822424389243
 40
0.7829111749555521
 40
0.8156649613406738
 40
0.8480739789695865
 40
0.8799792240519666
 40
0.8956120040998436
 40
0.9112460453522379
 40
0.9264915851180571
 40
0.9417384015183651
 40
0.9565438283378171
 40
0.9713505415015212
 40
0.976127066363238
 40
0.9809015125738913
 40
0.9856749542972856
 40
0.9904484663753322
 40
0.9952231236024291
 40
1.0
 40
1.0
 40
1.0
 40
1.0
 10
44.91436737263405
 20
20.6606143633388
 30
0.0
 10
44.91440689505458
 20
20.6606143633388
 30
0.0
 10
44.91448592744816
 20
20.6606143633388
 30
0.0
 10
44.91512546291147
 20
20.6606143633388
 30
0.0
 10
44.91614643609532
 20
20.6606143633388
 30
0.0
 10
44.91758621702669
 20
20.6606143633388
 30
0.0
 10
44.91943479584108
 20
20.6606143633388
 30
0.0
 10
44.92169485313581
 20
20.6606143633388
 30
0.0
 10
44.92436567437064
 20
20.6606143633388
 30
0.0
 10
44.92744743694444
 20
20.6606143633388
 30
0.0
 10
44.9309401452997
 20
20.6606143633388
 30
0.0
 10
44.94026227264154
 20
20.6606143633388
 30
0.0
 10
44.9597738553559
 20
20.6606143633388
 30
0.0
 10
44.99772872909145
 20
20.6606143633388
 30
0.0
 10
45.04721930938706
 20
20.6606143633388
 30
0.0
 10
45.10906549741008
 20
20.6606143633388
 30
0.0
 10
45.18294991275706
 20
20.6606143633388
 30
0.0
 10
45.29892091993801
 20
20.6606143633388
 30
0.0
 10
45.47529664402827
 20
20.6606143633388
 30
0.0
 10
45.73579614629943
 20
20.6606143633388
 30
0.0
 10
46.0437955971401
 20
20.6606143633388
 30
0.0
 10
46.39548327055178
 20
20.6606143633388
 30
0.0
 10
46.78557865320374
 20
20.6606143633388
 30
0.0
 10
47.20757915689069
 20
20.6606143633388
 30
0.0
 10
47.65411878941009
 20
20.6606143633388
 30
0.0
 10
48.11737778687668
 20
20.6606143633388
 30
0.0
 10
48.58950308073985
 20
20.6606143633388
 30
0.0
 10
49.0629935221761
 20
20.6606143633388
 30
0.0
 10
49.53101887706771
 20
20.6606143633388
 30
0.0
 10
49.99310753011434
 20
20.6606143633388
 30
0.0
 10
50.45519618316098
 20
20.6606143633388
 30
0.0
 10
50.92322153805253
 20
20.6606143633388
 30
0.0
 10
51.39671197948889
 20
20.6606143633388
 30
0.0
 10
51.86883727335171
 20
20.6606143633388
 30
0.0
 10
52.33209627081965
 20
20.6606143633388
 30
0.0
 10
52.77863590333382
 20
20.6606143633388
 30
0.0
 10
53.20063640704063
 20
20.6606143633388
 30
0.0
 10
53.5907317896179
 20
20.6606143633388
 30
0.0
 10
53.94241946330828
 20
20.6606143633388
 30
0.0
 10
54.25041891311792
 20
20.6606143633388
 30
0.0
 10
54.51091841917372
 20
20.6606143633388
 30
0.0
 10
54.68729134939422
 20
20.6606143633388
 30
0.0
 10
54.80326300034358
 20
20.6606143633388
 30
0.0
 10
54.8771458430144
 20
20.6606143633388
 30
0.0
 10
54.93899418450903
 20
20.6606143633388
 30
0.0
 10
54.98848375352332
 20
20.6606143633388
 30
0.0
 10
55.02644064002999
 20
20.6606143633388
 30
0.0
 10
55.04709877475369
 20
20.6606143633388
 30
0.0
 10
55.0577702754559
 20
20.6606143633388
 30
0.0
 10
55.06290583633171
 20
20.6606143633388
 30
0.0
 10
55.06690562202774
 20
20.6606143633388
 30
0.0
 10
55.06974191280875
 20
20.6606143633388
 30
0.0
 10
55.07151845357483
 20
20.6606143633388
 30
0.0
 10
55.07173792592422
 20
20.6606143633388
 30
0.0
 10
55.07184768759467
 20
20.6606143633388
 30
0.0
  0
SPLINE
  5
2D0
330
1F
100
AcDbEntity
  8
0
  6
Continuous
 62
     7
370
    15
100
AcDbSpline
210
0.0
220
0.0
230
1.0
 70
    24
 71
     3
 72
    14
 73
    10
 74
     0
 42
0.0000000001
 43
0.0000000001
 40
0.0
 40
0.0
 40
0.0
 40
0.0
 40
0.25
 40
0.25
 40
0.5
 40
0.5
 40
0.75
 40
0.75
 40
1.0
 40
1.0
 40
1.0
 40
1.0
 10
45.30806816003559
 20
20.07006318223644
 30
0.0
 10
45.30806816003559
 20
20.07006318223644
 30
0.0
 10
45.80169397057335
 20
20.07006318223644
 30
0.0
 10
47.55887487223804
 20
20.07006318223644
 30
0.0
 10
48.75059299877574
 20
20.07006318223644
 30
0.0
 10
51.23562206145291
 20
20.07006318223644
 30
0.0
 10
52.42734018799064
 20
20.07006318223644
 30
0.0
 10
54.18452108965528
 20
20.07006318223644
 30
0.0
 10
54.67814690019307
 20
20.07006318223644
 30
0.0
 10
54.67814690019307
 20
20.07006318223644
 30
0.0
  0
LINE
  5
2D1
330
1F
100
AcDbEntity
  8
0
  6
Continuous
 62
     8
370
    15
100
AcDbLine
 10
50.10334374669935
 20
47.99132316729894
 30
0.0
 11
49.88287131369935
 21
47.99132316729894
 31
0.0
  0
LINE
  5
2D2
330
1F
100
AcDbEntity
  8
0
  6
Continuous
 62
     8
370
    15
100
AcDbLine
 10
49.55816474469935
 20
22.19947921029894
 30
0.0
 11
49.53720701669934
 21
22.19947921029894
 31
0.0
  0
LINE
  5
2D3
330
1F
100
AcDbEntity
  8
0
  6
Continuous
 62
     8
370
    15
100
AcDbLine
 10
50.44900804369934
 20
22.19947921029894
 30
0.0
 11
49.55816474469935
 21
22.19947921029894
 31
0.0
  0
LINE
  5
2D4
330
1F
100
AcDbEntity
  8
0
  6
Continuous
 62
     8
370
    15
100
AcDbLine
 10
44.87499748169935
 20
20.22754349929894
 30
0.0
 11
55.11121757869933
 21
20.22754349929894
 31
0.0
  0
LINE
  5
2D5
330
1F
100
AcDbEntity
  8
0
  6
Continuous
 62
     8
370
    15
100
AcDbLine
 10
44.87499748169935
 20
20.62124428229893
 30
0.0
 11
55.11121757869933
 21
20.62124428229893
 31
0.0
  0
LINE
  5
2D6
330
1F
100
AcDbEntity
  8
0
  6
Continuous
 62
     8
370
    15
100
AcDbLine
 10
45.26869818669934
 20
20.10943325729894
 30
0.0
 11
54.71751687319934
 21
20.10943325729894
 31
0.0
  0
ARC
  5
2D7
330
1F
100
AcDbEntity
  8
0
  6
Continuous
 62
     7
370
    15
100
AcDbCircle
 10
78.55549132369936
 20
6.156739768798939
 30
0.0
 40
0.0393700787401575
100
AcDbArc
 50
0.0
 51
90.0
  0
ARC
  5
2D8
330
1F
100
AcDbEntity
  8
0
  6
Continuous
 62
     7
370
    15
100
AcDbCircle
 10
78.55549132369936
 20
5.566188587298935
 30
0.0
 40
0.0393700787401575
100
AcDbArc
 50
270.0
 51
0.0
  0
ARC
  5
2D9
330
1F
100
AcDbEntity
  8
0
  6
Continuous
 62
     7
370
    15
100
AcDbCircle
 10
67.21690864619933
 20
6.156739768798939
 30
0.0
 40
0.0393700787401575
100
AcDbArc
 50
90.0
 51
180.0
  0
ARC
  5
2DA
330
1F
100
AcDbEntity
  8
0
  6
Continuous
 62
     7
370
    15
100
AcDbCircle
 10
67.21690864619933
 20
5.566188587298935
 30
0.0
 40
0.0393700787401575
100
AcDbArc
 50
180.0
 51
270.0
  0
LINE
  5
2DB
330
1F
100
AcDbEntity
  8
0
  6
Continuous
 62
     7
370
    15
100
AcDbLine
 10
67.21690889019933
 20
5.526818490798941
 30
0.0
 11
67.77904170319931
 21
5.526818490798941
 31
0.0
  0
LINE
  5
2DC
330
1F
100
AcDbEntity
  8
0
  6
Continuous
 62
     7
370
    15
100
AcDbLine
 10
67.77904170319931
 20
6.196109865798938
 30
0.0
 11
67.21690889019933
 21
6.196109865798938
 31
0.0
  0
LINE
  5
2DD
330
1F
100
AcDbEntity
  8
0
  6
Continuous
 62
     7
370
    15
100
AcDbLine
 10
77.99335826669937
 20
5.526818490798941
 30
0.0
 11
78.55549107969932
 21
5.526818490798941
 31
0.0
  0
LINE
  5
2DE
330
1F
100
AcDbEntity
  8
0
  6
Continuous
 62
     7
370
    15
100
AcDbLine
 10
78.55549107969932
 20
6.196109865798938
 30
0.0
 11
77.99335826669937
 21
6.196109865798938
 31
0.0
  0
CIRCLE
  5
2DF
330
1F
100
AcDbEntity
  8
0
  6
Continuous
 62
     7
370
    15
100
AcDbCircle
 10
76.42950707169934
 20
5.861464178298938
 30
0.0
 40
0.5905511811023655
  0
CIRCLE
  5
2E0
330
1F
100
AcDbEntity
  8
0
  6
Continuous
 62
     7
370
    15
100
AcDbCircle
 10
69.34289289819935
 20
5.861464178298938
 30
0.0
 40
0.5905511811023655
  0
CIRCLE
  5
2E1
330
1F
100
AcDbEntity
  8
0
  6
Continuous
 62
     7
370
    15
100
AcDbCircle
 10
73.01322469219934
 20
9.404771264798934
 30
0.0
 40
0.5905511811023611
  0
CIRCLE
  5
2E2
330
1F
100
AcDbEntity
  8
0
  6
Continuous
 62
     7
370
    15
100
AcDbCircle
 10
75.21817207969935
 20
3.541969073298936
 30
0.0
 40
0.5905511811023635
  0
CIRCLE
  5
2E3
330
1F
100
AcDbEntity
  8
0
  6
Continuous
 62
     7
370
    15
100
AcDbCircle
 10
70.46700829969933
 20
3.492147438798937
 30
0.0
 40
0.5905511811023611
  0
CIRCLE
  5
2E4
330
1F
100
AcDbEntity
  8
0
  6
Continuous
 62
     7
370
    15
100
AcDbCircle
 10
70.41862827219933
 20
8.180095206798938
 30
0.0
 40
0.5905511811023611
  0
CIRCLE
  5
2E5
330
1F
100
AcDbEntity
  8
0
  6
Continuous
 62
     7
370
    15
100
AcDbCircle
 10
75.40344400719937
 20
8.066623468798937
 30
0.0
 40
0.5905511811023611
  0
CIRCLE
  5
2E6
330
1F
100
AcDbEntity
  8
0
  6
Continuous
 62
     7
370
    15
100
AcDbCircle
 10
72.88619998519934
 20
2.318157091298939
 30
0.0
 40
0.5905511811023611
  0
LINE
  5
2E7
330
1F
100
AcDbEntity
  8
0
  6
Continuous
 62
     7
370
    15
100
AcDbLine
 10
78.59486123819934
 20
7.31815711029894
 30
0.0
 11
77.79263434519933
 21
7.31815711029894
 31
0.0
  0
LINE
  5
2E8
330
1F
100
AcDbEntity
  8
0
  6
Continuous
 62
     7
370
    15
100
AcDbLine
 10
78.59486123819934
 20
6.530755553298938
 30
0.0
 11
77.96036040769934
 21
6.530755553298938
 31
0.0
  0
LINE
  5
2E9
330
1F
100
AcDbEntity
  8
0
  6
Continuous
 62
     7
370
    15
100
AcDbLine
 10
67.81203956219934
 20
6.530755553298938
 30
0.0
 11
67.17753873169934
 21
6.530755553298938
 31
0.0
  0
LINE
  5
2EA
330
1F
100
AcDbEntity
  8
0
  6
Continuous
 62
     7
370
    15
100
AcDbLine
 10
67.17753873169934
 20
6.530755553298938
 30
0.0
 11
67.17753873169934
 21
7.31815711029894
 31
0.0
  0
LINE
  5
2EB
330
1F
100
AcDbEntity
  8
0
  6
Continuous
 62
     7
370
    15
100
AcDbLine
 10
67.97976562469935
 20
7.31815711029894
 30
0.0
 11
67.17753873169934
 21
7.31815711029894
 31
0.0
  0
LINE
  5
2EC
330
1F
100
AcDbEntity
  8
0
  6
Continuous
 62
     7
370
    15
100
AcDbLine
 10
78.59486123819934
 20
7.31815711029894
 30
0.0
 11
78.59486123819934
 21
6.530755553298938
 31
0.0
  0
LINE
  5
2ED
330
1F
100
AcDbEntity
  8
0
  6
Continuous
 62
     7
370
    15
100
AcDbLine
 10
78.08305035069932
 20
6.29453504179894
 30
0.0
 11
77.98595520569932
 21
6.29453504179894
 31
0.0
  0
LINE
  5
2EE
330
1F
100
AcDbEntity
  8
0
  6
Continuous
 62
     7
370
    15
100
AcDbLine
 10
78.20116082619932
 20
6.491385467798938
 30
0.0
 11
77.96539805619932
 21
6.491385467798938
 31
0.0
  0
LINE
  5
2EF
330
1F
100
AcDbEntity
  8
0
  6
Continuous
 62
     7
370
    15
100
AcDbLine
 10
78.20116082619932
 20
6.491385467798938
 30
0.0
 11
78.08305035069932
 21
6.29453504179894
 31
0.0
  0
LINE
  5
2F0
330
1F
100
AcDbEntity
  8
0
  6
Continuous
 62
     7
370
    15
100
AcDbLine
 10
78.20116082619932
 20
6.530755553298938
 30
0.0
 11
77.96036040769934
 21
6.530755553298938
 31
0.0
  0
LINE
  5
2F1
330
1F
100
AcDbEntity
  8
0
  6
Continuous
 62
     7
370
    15
100
AcDbLine
 10
67.81203956219934
 20
6.530755553298938
 30
0.0
 11
67.57123914369936
 21
6.530755553298938
 31
0.0
  0
LINE
  5
2F2
330
1F
100
AcDbEntity
  8
0
  6
Continuous
 62
     7
370
    15
100
AcDbLine
 10
78.20116082619932
 20
6.530755553298938
 30
0.0
 11
78.20116082619932
 21
6.491385467798938
 31
0.0
  0
LINE
  5
2F3
330
1F
100
AcDbEntity
  8
0
  6
Continuous
 62
     7
370
    15
100
AcDbLine
 10
67.80700191369937
 20
6.491385467798938
 30
0.0
 11
67.57123914369936
 21
6.491385467798938
 31
0.0
  0
LINE
  5
2F4
330
1F
100
AcDbEntity
  8
0
  6
Continuous
 62
     7
370
    15
100
AcDbLine
 10
67.57123914369936
 20
6.491385467798938
 30
0.0
 11
67.57123914369936
 21
6.530755553298938
 31
0.0
  0
LINE
  5
2F5
330
1F
100
AcDbEntity
  8
0
  6
Continuous
 62
     7
370
    15
100
AcDbLine
 10
67.7864447641993
 20
6.29453504179894
 30
0.0
 11
67.68934961919933
 21
6.29453504179894
 31
0.0
  0
LINE
  5
2F6
330
1F
100
AcDbEntity
  8
0
  6
Continuous
 62
     7
370
    15
100
AcDbLine
 10
67.57123914369936
 20
6.491385467798938
 30
0.0
 11
67.68934961919933
 21
6.29453504179894
 31
0.0
  0
SPLINE
  5
2F7
330
1F
100
AcDbEntity
  8
0
  6
Continuous
 62
     7
370
    15
100
AcDbSpline
210
0.0
220
0.0
230
1.0
 70
     8
 71
     3
 72
    19
 73
    15
 74
     0
 42
0.0000000001
 43
0.0000000001
 40
0.0
 40
0.0
 40
0.0
 40
0.0
 40
0.1197284288920382
 40
0.1841803385155729
 40
0.2500000020515591
 40
0.3158196805364578
 40
0.3802715770393545
 40
0.5
 40
0.6197284288920382
 40
0.6841803385155729
 40
0.7500000020515591
 40
0.8158196805364577
 40
0.8802715770393545
 40
1.0
 40
1.0
 40
1.0
 40
1.0
 10
72.66164461903236
 20
5.782035745662703
 30
0.0
 10
72.65465313356955
 20
5.811342969160506
 30
0.0
 10
72.64389800906667
 20
5.856426784213706
 30
0.0
 10
72.65340193396352
 20
5.918626676466523
 30
0.0
 10
72.66967606538952
 20
5.964803335801114
 30
0.0
 10
72.69533419610636
 20
6.006696406945057
 30
0.0
 10
72.73801975089236
 20
6.052313706415286
 30
0.0
 10
72.80485309291595
 20
6.091443305406563
 30
0.0
 10
72.88142576415555
 20
6.103038451448121
 30
0.0
 10
72.94330038151731
 20
6.094405578646913
 30
0.0
 10
72.98959285508331
 20
6.077962454436001
 30
0.0
 10
73.03128169820002
 20
6.052288124475229
 30
0.0
 10
73.07778084631277
 20
6.009897320601449
 30
0.0
 10
73.09776465702677
 20
5.968077827541744
 30
0.0
 10
73.11075535086684
 20
5.940892610534643
 30
0.0
  0
SPLINE
  5
2F8
330
1F
100
AcDbEntity
  8
0
  6
Continuous
 62
     7
370
    15
100
AcDbSpline
210
0.0
220
0.0
230
1.0
 70
     8
 71
     3
 72
    19
 73
    15
 74
     0
 42
0.0000000001
 43
0.0000000001
 40
0.0
 40
0.0
 40
0.0
 40
0.0
 40
0.1197284288920382
 40
0.1841803385155729
 40
0.2500000020515591
 40
0.3158196805364578
 40
0.3802715770393545
 40
0.5
 40
0.6197284288920382
 40
0.6841803385155729
 40
0.7500000020515591
 40
0.8158196805364577
 40
0.8802715770393545
 40
1.0
 40
1.0
 40
1.0
 40
1.0
 10
73.11075535086684
 20
5.940892610534643
 30
0.0
 10
73.11774683632967
 20
5.911585387036829
 30
0.0
 10
73.12850196083255
 20
5.866501571983647
 30
0.0
 10
73.11899803593573
 20
5.804301679730823
 30
0.0
 10
73.10272390450973
 20
5.758125020396221
 30
0.0
 10
73.07706577379287
 20
5.716231949252289
 30
0.0
 10
73.03438021900689
 20
5.670614649782052
 30
0.0
 10
72.96754687698324
 20
5.631485050790779
 30
0.0
 10
72.8909742057437
 20
5.619889904749221
 30
0.0
 10
72.82909958838186
 20
5.628522777550433
 30
0.0
 10
72.78280711481591
 20
5.644965901761345
 30
0.0
 10
72.74111827169924
 20
5.670640231722114
 30
0.0
 10
72.69461912358645
 20
5.713031035595889
 30
0.0
 10
72.67463531287248
 20
5.754850528655602
 30
0.0
 10
72.66164461903236
 20
5.782035745662703
 30
0.0
  0
SPLINE
  5
2F9
330
1F
100
AcDbEntity
  8
0
  6
Continuous
 62
     7
370
    15
100
AcDbSpline
210
0.0
220
0.0
230
1.0
 70
     8
 71
     3
 72
    19
 73
    15
 74
     0
 42
0.0000000001
 43
0.0000000001
 40
0.0
 40
0.0
 40
0.0
 40
0.0
 40
0.119728419960087
 40
0.1841803414184434
 40
0.2500000011369232
 40
0.3158196709934055
 40
0.3802715800595216
 40
0.5
 40
0.6197284199600871
 40
0.6841803414184434
 40
0.7500000011369231
 40
0.8158196709934054
 40
0.8802715800595215
 40
1.0
 40
1.0
 40
1.0
 40
1.0
 10
72.74648937056523
 20
5.812046547725351
 30
0.0
 10
72.75457173673363
 20
5.795132846361163
 30
0.0
 10
72.76700498324993
 20
5.769114201055856
 30
0.0
 10
72.79593513419908
 20
5.742740082638526
 30
0.0
 10
72.82187250676537
 20
5.726766411780456
 30
0.0
 10
72.85067408255764
 20
5.716536055032275
 30
0.0
 10
72.88917033967101
 20
5.711164991776584
 30
0.0
 10
72.93681121872393
 20
5.718379081326293
 30
0.0
 10
72.97839261057845
 20
5.742724187573699
 30
0.0
 10
73.00495011342156
 20
5.771105681582163
 30
0.0
 10
73.0209137056068
 20
5.797170118000913
 30
0.0
 10
73.03103892070478
 20
5.825899638006291
 30
0.0
 10
73.03695192342508
 20
5.864598270470338
 30
0.0
 10
73.03026045859951
 20
5.892647865245965
 30
0.0
 10
73.02591059933402
 20
5.910881808471991
 30
0.0
  0
SPLINE
  5
2FA
330
1F
100
AcDbEntity
  8
0
  6
Continuous
 62
     7
370
    15
100
AcDbSpline
210
0.0
220
0.0
230
1.0
 70
     8
 71
     3
 72
    19
 73
    15
 74
     0
 42
0.0000000001
 43
0.0000000001
 40
0.0
 40
0.0
 40
0.0
 40
0.0
 40
0.119728419960087
 40
0.1841803414184434
 40
0.2500000011369232
 40
0.3158196709934055
 40
0.3802715800595216
 40
0.5
 40
0.6197284199600871
 40
0.6841803414184434
 40
0.7500000011369231
 40
0.8158196709934054
 40
0.8802715800595215
 40
1.0
 40
1.0
 40
1.0
 40
1.0
 10
73.02591059933402
 20
5.910881808471991
 30
0.0
 10
73.01782823316557
 20
5.92779550983618
 30
0.0
 10
73.00539498664929
 20
5.953814155141493
 30
0.0
 10
72.97646483570017
 20
5.980188273558823
 30
0.0
 10
72.95052746313385
 20
5.996161944416886
 30
0.0
 10
72.92172588734158
 20
6.006392301165071
 30
0.0
 10
72.88322963022825
 20
6.011763364420758
 30
0.0
 10
72.83558875117529
 20
6.004549274871056
 30
0.0
 10
72.79400735932075
 20
5.980204168623636
 30
0.0
 10
72.76744985647766
 20
5.951822674615179
 30
0.0
 10
72.75148626429242
 20
5.925758238196429
 30
0.0
 10
72.74136104919446
 20
5.897028718191055
 30
0.0
 10
72.73544804647414
 20
5.858330085727008
 30
0.0
 10
72.74213951129974
 20
5.830280490951377
 30
0.0
 10
72.74648937056523
 20
5.812046547725351
 30
0.0
  0
ARC
  5
2FB
330
1F
100
AcDbEntity
  8
0
  6
Continuous
 62
     7
370
    15
100
AcDbCircle
 10
72.88619998519934
 20
5.861464178298938
 30
0.0
 40
0.136381953351881
100
AcDbArc
 50
349.4794114637999
 51
49.4794114638001
  0
ARC
  5
2FC
330
1F
100
AcDbEntity
  8
0
  6
Continuous
 62
     7
370
    15
100
AcDbCircle
 10
72.88619998519934
 20
5.861464178298938
 30
0.0
 40
0.1363819533518785
100
AcDbArc
 50
49.4794114638001
 51
109.4794114637998
  0
ARC
  5
2FD
330
1F
100
AcDbEntity
  8
0
  6
Continuous
 62
     7
370
    15
100
AcDbCircle
 10
72.88619998519934
 20
5.861464178298938
 30
0.0
 40
0.13638195335188
100
AcDbArc
 50
109.4794114637998
 51
169.4794114638
  0
ARC
  5
2FE
330
1F
100
AcDbEntity
  8
0
  6
Continuous
 62
     7
370
    15
100
AcDbCircle
 10
72.88619998519934
 20
5.861464178298938
 30
0.0
 40
0.1363819533518845
100
AcDbArc
 50
169.4794114638
 51
229.4794114638001
  0
ARC
  5
2FF
330
1F
100
AcDbEntity
  8
0
  6
Continuous
 62
     7
370
    15
100
AcDbCircle
 10
72.88619998519934
 20
5.861464178298938
 30
0.0
 40
0.1363819533518845
100
AcDbArc
 50
229.4794114638001
 51
289.4794114637999
  0
ARC
  5
300
330
1F
100
AcDbEntity
  8
0
  6
Continuous
 62
     7
370
    15
100
AcDbCircle
 10
72.88619998519934
 20
5.861464178298938
 30
0.0
 40
0.136381953351881
100
AcDbArc
 50
289.4794114637999
 51
349.4794114637999
  0
CIRCLE
  5
301
330
1F
100
AcDbEntity
  8
0
  6
Continuous
 62
     7
370
    15
100
AcDbCircle
 10
72.88619998519934
 20
5.861464178298938
 30
0.0
 40
0.250000000000002
  0
LINE
  5
302
330
1F
100
AcDbEntity
  8
0
  6
Continuous
 62
     7
370
    15
100
AcDbLine
 10
72.79758972919933
 20
5.757790357298937
 30
0.0
 11
72.75211069969936
 21
5.88636599979894
 31
0.0
  0
LINE
  5
303
330
1F
100
AcDbEntity
  8
0
  6
Continuous
 62
     7
370
    15
100
AcDbLine
 10
72.93167901919935
 20
5.732888542798935
 30
0.0
 11
72.79758972919933
 21
5.757790357298937
 31
0.0
  0
LINE
  5
304
330
1F
100
AcDbEntity
  8
0
  6
Continuous
 62
     7
370
    15
100
AcDbLine
 10
72.97481024069935
 20
5.965137998798937
 30
0.0
 11
73.02028927019932
 21
5.836562356298937
 31
0.0
  0
LINE
  5
305
330
1F
100
AcDbEntity
  8
0
  6
Continuous
 62
     7
370
    15
100
AcDbLine
 10
72.75211069969936
 20
5.88636599979894
 30
0.0
 11
72.84072095069934
 21
5.990039813798937
 31
0.0
  0
LINE
  5
306
330
1F
100
AcDbEntity
  8
0
  6
Continuous
 62
     7
370
    15
100
AcDbLine
 10
73.02028927019932
 20
5.836562356298937
 30
0.0
 11
72.93167901919935
 21
5.732888542798935
 31
0.0
  0
LINE
  5
307
330
1F
100
AcDbEntity
  8
0
  6
Continuous
 62
     7
370
    15
100
AcDbLine
 10
72.84072095069934
 20
5.990039813798937
 30
0.0
 11
72.97481024069935
 21
5.965137998798937
 31
0.0
  0
SPLINE
  5
308
330
1F
100
AcDbEntity
  8
0
  6
Continuous
 62
     7
370
    15
100
AcDbSpline
210
0.0
220
0.0
230
1.0
 70
     8
 71
     3
 72
    19
 73
    15
 74
     0
 42
0.0000000001
 43
0.0000000001
 40
0.0
 40
0.0
 40
0.0
 40
0.0
 40
0.1197284277648012
 40
0.1841803375435503
 40
0.2500000090251006
 40
0.3158196875524165
 40
0.3802715803827799
 40
0.5
 40
0.6197284277648012
 40
0.6841803375435502
 40
0.7500000090251006
 40
0.8158196875524165
 40
0.8802715803827798
 40
1.0
 40
1.0
 40
1.0
 40
1.0
 10
72.63566301084077
 20
5.772845681827107
 30
0.0
 10
72.6278625932996
 20
5.805543822073179
 30
0.0
 10
72.61586307436715
 20
5.855843943940634
 30
0.0
 10
72.62646660509563
 20
5.92524052557432
 30
0.0
 10
72.64462372795205
 20
5.976759927625487
 30
0.0
 10
72.67325054019699
 20
6.023500148682789
 30
0.0
 10
72.72087494742359
 20
6.074395456251892
 30
0.0
 10
72.79544105638155
 20
6.11805246000857
 30
0.0
 10
72.88087337404249
 20
6.130989188662219
 30
0.0
 10
72.949907045201
 20
6.121357493533814
 30
0.0
 10
73.00155566162351
 20
6.103011824881505
 30
0.0
 10
73.04806802480993
 20
6.074366939039855
 30
0.0
 10
73.09994721363415
 20
6.027071386555526
 30
0.0
 10
73.12224320612202
 20
5.980413283088459
 30
0.0
 10
73.13673695905845
 20
5.950082674370236
 30
0.0
  0
SPLINE
  5
309
330
1F
100
AcDbEntity
  8
0
  6
Continuous
 62
     7
370
    15
100
AcDbSpline
210
0.0
220
0.0
230
1.0
 70
     8
 71
     3
 72
    19
 73
    15
 74
     0
 42
0.0000000001
 43
0.0000000001
 40
0.0
 40
0.0
 40
0.0
 40
0.0
 40
0.1197284277648012
 40
0.1841803375435503
 40
0.2500000090251006
 40
0.3158196875524165
 40
0.3802715803827799
 40
0.5
 40
0.6197284277648012
 40
0.6841803375435502
 40
0.7500000090251006
 40
0.8158196875524165
 40
0.8802715803827798
 40
1.0
 40
1.0
 40
1.0
 40
1.0
 10
73.13673695905845
 20
5.950082674370236
 30
0.0
 10
73.14453737659966
 20
5.91738453412417
 30
0.0
 10
73.15653689553204
 20
5.867084412256708
 30
0.0
 10
73.14593336480356
 20
5.797687830623019
 30
0.0
 10
73.12777624194717
 20
5.746168428571859
 30
0.0
 10
73.09914942970227
 20
5.699428207514554
 30
0.0
 10
73.05152502247563
 20
5.648532899945454
 30
0.0
 10
72.97695891351771
 20
5.604875896188772
 30
0.0
 10
72.89152659585671
 20
5.591939167535123
 30
0.0
 10
72.82249292469825
 20
5.601570862663532
 30
0.0
 10
72.77084430827571
 20
5.619916531315841
 30
0.0
 10
72.72433194508931
 20
5.648561417157488
 30
0.0
 10
72.67245275626507
 20
5.695856969641816
 30
0.0
 10
72.6501567637772
 20
5.742515073108883
 30
0.0
 10
72.63566301084077
 20
5.772845681827107
 30
0.0
  0
CIRCLE
  5
30A
330
1F
100
AcDbEntity
  8
0
  6
Continuous
 62
     7
370
    15
100
AcDbCircle
 10
72.88619998519934
 20
5.861464178298938
 30
0.0
 40
0.2775590551181155
  0
SPLINE
  5
30B
330
1F
100
AcDbEntity
  8
0
  6
Continuous
 62
     7
370
    15
100
AcDbSpline
210
0.0
220
0.0
230
1.0
 70
    24
 71
     3
 72
    19
 73
    15
 74
     0
 42
0.0000000001
 43
0.0000000001
 40
0.0
 40
0.0
 40
0.0
 40
0.0
 40
0.119728586332005
 40
0.1841786303463635
 40
0.2499990187592648
 40
0.3158191722858275
 40
0.3802711698689623
 40
0.5000000000000001
 40
0.6197288301310379
 40
0.6841808277141725
 40
0.7500009812407351
 40
0.8158213696536364
 40
0.8802714136679949
 40
1.0
 40
1.0
 40
1.0
 40
1.0
 10
78.5948612380077
 20
5.566188594147412
 30
0.0
 10
78.5948612380077
 20
5.570132598424862
 30
0.0
 10
78.5948612380077
 20
5.576199665013994
 30
0.0
 10
78.5948612380077
 20
5.613021435085777
 30
0.0
 10
78.5948612380077
 20
5.651129228781044
 30
0.0
 10
78.5948612380077
 20
5.698434369349229
 30
0.0
 10
78.5948612380077
 20
5.767179544535782
 30
0.0
 10
78.5948612380077
 20
5.861464178098671
 30
0.0
 10
78.5948612380077
 20
5.955748811661564
 30
0.0
 10
78.5948612380077
 20
6.024493986848106
 30
0.0
 10
78.5948612380077
 20
6.071799127416305
 30
0.0
 10
78.5948612380077
 20
6.109906921111559
 30
0.0
 10
78.5948612380077
 20
6.146728691183348
 30
0.0
 10
78.5948612380077
 20
6.15279575777248
 30
0.0
 10
78.5948612380077
 20
6.15673976204993
 30
0.0
  0
SPLINE
  5
30C
330
1F
100
AcDbEntity
  8
0
  6
Continuous
 62
     7
370
    15
100
AcDbSpline
210
0.0
220
0.0
230
1.0
 70
    24
 71
     3
 72
    19
 73
    15
 74
     0
 42
0.0000000001
 43
0.0000000001
 40
0.0
 40
0.0
 40
0.0
 40
0.0
 40
0.1197285863320049
 40
0.1841786303463634
 40
0.2499990187592648
 40
0.3158191722858274
 40
0.3802711698689622
 40
0.5
 40
0.6197288301310378
 40
0.6841808277141727
 40
0.7500009812407353
 40
0.8158213696536364
 40
0.8802714136679949
 40
1.0
 40
1.0
 40
1.0
 40
1.0
 10
67.17753873189156
 20
6.15673976204993
 30
0.0
 10
67.17753873189156
 20
6.15279575777248
 30
0.0
 10
67.17753873189156
 20
6.146728691183348
 30
0.0
 10
67.17753873189156
 20
6.109906921111559
 30
0.0
 10
67.17753873189156
 20
6.071799127416305
 30
0.0
 10
67.17753873189156
 20
6.024493986848106
 30
0.0
 10
67.17753873189156
 20
5.955748811661564
 30
0.0
 10
67.17753873189156
 20
5.861464178098671
 30
0.0
 10
67.17753873189156
 20
5.767179544535782
 30
0.0
 10
67.17753873189156
 20
5.698434369349229
 30
0.0
 10
67.17753873189156
 20
5.651129228781044
 30
0.0
 10
67.17753873189156
 20
5.613021435085777
 30
0.0
 10
67.17753873189156
 20
5.576199665014005
 30
0.0
 10
67.17753873189156
 20
5.570132598424862
 30
0.0
 10
67.17753873189156
 20
5.566188594147412
 30
0.0
  0
CIRCLE
  5
30D
330
1F
100
AcDbEntity
  8
0
  6
Continuous
 62
     7
370
    15
100
AcDbCircle
 10
72.88619998519934
 20
5.861464178298938
 30
0.0
 40
0.3051181102362135
  0
SPLINE
  5
30E
330
1F
100
AcDbEntity
  8
0
  6
Continuous
 62
     7
370
    15
100
AcDbSpline
210
0.0
220
0.0
230
1.0
 70
     8
 71
     3
 72
    14
 73
    10
 74
     0
 42
0.0000000001
 43
0.0000000001
 40
0.0
 40
0.0
 40
0.0
 40
0.0
 40
0.25
 40
0.25
 40
0.5
 40
0.5
 40
0.75
 40
0.75
 40
1.0
 40
1.0
 40
1.0
 40
1.0
 10
72.88619998494962
 20
1.176424808019927
 30
0.0
 10
71.64368545361106
 20
1.176424808019927
 30
0.0
 10
70.45196732707333
 20
1.670050618557702
 30
0.0
 10
68.69478642540866
 20
3.427231520222377
 30
0.0
 10
68.2011606148709
 20
4.618949646760086
 30
0.0
 10
68.2011606148709
 20
7.103978709437253
 30
0.0
 10
68.69478642540866
 20
8.295696835974965
 30
0.0
 10
70.45196732707333
 20
10.05287773763963
 30
0.0
 10
71.64368545361106
 20
10.54650354817741
 30
0.0
 10
72.88619998494962
 20
10.54650354817741
 30
0.0
  0
SPLINE
  5
30F
330
1F
100
AcDbEntity
  8
0
  6
Continuous
 62
     7
370
    15
100
AcDbSpline
210
0.0
220
0.0
230
1.0
 70
     8
 71
     3
 72
    14
 73
    10
 74
     0
 42
0.0000000001
 43
0.0000000001
 40
0.0
 40
0.0
 40
0.0
 40
0.0
 40
0.25
 40
0.25
 40
0.5
 40
0.5
 40
0.75
 40
0.75
 40
1.0
 40
1.0
 40
1.0
 40
1.0
 10
72.88619998494962
 20
10.54650354817741
 30
0.0
 10
74.1287145162882
 20
10.54650354817741
 30
0.0
 10
75.32043264282589
 20
10.05287773763963
 30
0.0
 10
77.07761354449059
 20
8.295696835974965
 30
0.0
 10
77.57123935502832
 20
7.103978709437253
 30
0.0
 10
77.57123935502832
 20
4.618949646760086
 30
0.0
 10
77.07761354449059
 20
3.427231520222377
 30
0.0
 10
75.32043264282589
 20
1.670050618557706
 30
0.0
 10
74.1287145162882
 20
1.176424808019927
 30
0.0
 10
72.88619998494962
 20
1.176424808019927
 30
0.0
  0
CIRCLE
  5
310
330
1F
100
AcDbEntity
  8
0
  6
Continuous
 62
     7
370
    15
100
AcDbCircle
 10
72.88619998519934
 20
5.861464178298938
 30
0.0
 40
4.724409448818898
  0
CIRCLE
  5
311
330
1F
100
AcDbEntity
  8
0
  6
Continuous
 62
     7
370
    15
100
AcDbCircle
 10
72.88619998519934
 20
5.861464178298938
 30
0.0
 40
0.2854330708661435
  0
SPLINE
  5
312
330
1F
100
AcDbEntity
  8
0
  6
Continuous
 62
     7
370
    15
100
AcDbSpline
210
0.0
220
0.0
230
1.0
 70
     8
 71
     3
 72
    14
 73
    10
 74
     0
 42
0.0000000001
 43
0.0000000001
 40
0.0
 40
0.0
 40
0.0
 40
0.0
 40
0.25
 40
0.25
 40
0.5
 40
0.5
 40
0.75
 40
0.75
 40
1.0
 40
1.0
 40
1.0
 40
1.0
 10
72.88619998494962
 20
0.7827240206183568
 30
0.0
 10
71.53927246778426
 20
0.7827240206183568
 30
0.0
 10
70.24740996086521
 20
1.317830991705523
 30
0.0
 10
68.34256679855645
 20
3.222674154014288
 30
0.0
 10
67.8074598274693
 20
4.514536660933316
 30
0.0
 10
67.8074598274693
 20
7.208391695264023
 30
0.0
 10
68.34256679855645
 20
8.500254202183054
 30
0.0
 10
70.24740996086521
 20
10.40509736449181
 30
0.0
 10
71.53927246778426
 20
10.94020433557899
 30
0.0
 10
72.88619998494962
 20
10.94020433557899
 30
0.0
  0
SPLINE
  5
313
330
1F
100
AcDbEntity
  8
0
  6
Continuous
 62
     7
370
    15
100
AcDbSpline
210
0.0
220
0.0
230
1.0
 70
     8
 71
     3
 72
    14
 73
    10
 74
     0
 42
0.0000000001
 43
0.0000000001
 40
0.0
 40
0.0
 40
0.0
 40
0.0
 40
0.25
 40
0.25
 40
0.5
 40
0.5
 40
0.75
 40
0.75
 40
1.0
 40
1.0
 40
1.0
 40
1.0
 10
72.88619998494962
 20
10.94020433557899
 30
0.0
 10
74.233127502115
 20
10.94020433557899
 30
0.0
 10
75.52499000903401
 20
10.40509736449182
 30
0.0
 10
77.42983317134272
 20
8.500254202183054
 30
0.0
 10
77.96494014242992
 20
7.208391695264033
 30
0.0
 10
77.96494014242992
 20
4.514536660933316
 30
0.0
 10
77.42983317134272
 20
3.222674154014288
 30
0.0
 10
75.52499000903401
 20
1.317830991705523
 30
0.0
 10
74.233127502115
 20
0.7827240206183568
 30
0.0
 10
72.88619998494962
 20
0.7827240206183568
 30
0.0
  0
CIRCLE
  5
314
330
1F
100
AcDbEntity
  8
0
  6
Continuous
 62
     7
370
    15
100
AcDbCircle
 10
72.88619998519934
 20
5.861464178298938
 30
0.0
 40
5.118110236220471
  0
LINE
  5
315
330
1F
100
AcDbEntity
  8
0
  6
Continuous
 62
     8
370
    15
100
AcDbLine
 10
78.55549107969932
 20
5.526818490798941
 30
0.0
 11
78.55549107969932
 21
6.196109865798938
 31
0.0
  0
LINE
  5
316
330
1F
100
AcDbEntity
  8
0
  6
Continuous
 62
     8
370
    15
100
AcDbLine
 10
67.21690889019933
 20
6.196109865798938
 30
0.0
 11
67.21690889019933
 21
5.526818490798941
 31
0.0
  0
ENDSEC
  0
SECTION
  2
OBJECTS
  0
DICTIONARY
  5
C
330
0
100
AcDbDictionary
281
     1
  3
ACAD_CIP_PREVIOUS_PRODUCT_INFO
350
352
  3
ACAD_COLOR
350
34B
  3
ACAD_GROUP
350
D
  3
ACAD_LAYOUT
350
1A
  3
ACAD_MATERIAL
350
319
  3
ACAD_MLEADERSTYLE
350
34E
  3
ACAD_MLINESTYLE
350
17
  3
ACAD_PLOTSETTINGS
350
19
  3
ACAD_PLOTSTYLENAME
350
E
  3
ACAD_SCALELIST
350
47
  3
ACAD_TABLESTYLE
350
34C
  3
ACAD_VISUALSTYLE
350
332
  3
ACDB_RECOMPOSE_DATA
350
3F6
  3
AcDbVariableDictionary
350
3AF
  0
DICTIONARY
  5
3A7
330
2
100
AcDbDictionary
280
     1
281
     1
  3
ACAD_LAYERSTATES
360
3A8
  0
DICTIONARY
  5
3A0
330
10
100
AcDbDictionary
280
     1
281
     1
  3
ADSK_XREC_LAYER_RECONCILED
360
3A1
  0
XRECORD
  5
352
102
{ACAD_REACTORS
330
C
102
}
330
C
100
AcDbXrecord
280
     1
300
ACD
300
2012
300
85730ACD_2012_0F
  0
DICTIONARY
  5
34B
102
{ACAD_REACTORS
330
C
102
}
330
C
100
AcDbDictionary
281
     1
  0
DICTIONARY
  5
D
102
{ACAD_REACTORS
330
C
102
}
330
C
100
AcDbDictionary
281
     1
  0
DICTIONARY
  5
1A
102
{ACAD_REACTORS
330
C
102
}
330
C
100
AcDbDictionary
281
     1
  3
Layout1
350
1E
  3
Layout2
350
26
  3
Model
350
22
  0
DICTIONARY
  5
319
102
{ACAD_REACTORS
330
C
102
}
330
C
100
AcDbDictionary
281
     1
  3
ByBlock
350
322
  3
ByLayer
350
31A
  3
Global
350
32A
  0
DICTIONARY
  5
34E
102
{ACAD_REACTORS
330
C
102
}
330
C
100
AcDbDictionary
281
     1
  3
Standard
350
34F
  0
DICTIONARY
  5
17
102
{ACAD_REACTORS
330
C
102
}
330
C
100
AcDbDictionary
281
     1
  3
Standard
350
18
  0
DICTIONARY
  5
19
102
{ACAD_REACTORS
330
C
102
}
330
C
100
AcDbDictionary
281
     1
  0
ACDBDICTIONARYWDFLT
  5
E
102
{ACAD_REACTORS
330
C
102
}
330
C
100
AcDbDictionary
281
     1
  3
Normal
350
F
100
AcDbDictionaryWithDefault
340
F
  0
DICTIONARY
  5
47
102
{ACAD_REACTORS
330
C
102
}
330
C
100
AcDbDictionary
281
     1
  3
A0
350
48
  3
A1
350
49
  3
A2
350
4A
  3
A3
350
4B
  3
A4
350
4C
  3
A5
350
4D
  3
A6
350
4E
  3
A7
350
4F
  3
A8
350
50
  3
A9
350
51
  3
B0
350
52
  3
B1
350
53
  3
B2
350
54
  3
B3
350
55
  3
B4
350
56
  3
B5
350
57
  3
B6
350
58
  3
B7
350
59
  3
B8
350
5A
  3
B9
350
5B
  3
C0
350
5C
  3
C1
350
5D
  3
C2
350
5E
  3
C3
350
5F
  3
C4
350
60
  3
C5
350
61
  3
C6
350
62
  3
C7
350
63
  3
C8
350
64
  3
C9
350
65
  3
D0
350
66
  3
D1
350
67
  3
D2
350
68
  0
DICTIONARY
  5
34C
102
{ACAD_REACTORS
330
C
102
}
330
C
100
AcDbDictionary
281
     1
  3
Standard
350
34D
  0
DICTIONARY
  5
332
102
{ACAD_REACTORS
330
C
102
}
330
C
100
AcDbDictionary
281
     1
  3
2dWireframe
350
338
  3
Basic
350
337
  3
Brighten
350
33E
  3
ColorChange
350
342
  3
Conceptual
350
33B
  3
Dim
350
33D
  3
EdgeColorOff
350
34A
  3
Facepattern
350
341
  3
Flat
350
333
  3
FlatWithEdges
350
334
  3
Gouraud
350
335
  3
GouraudWithEdges
350
336
  3
Hidden
350
33A
  3
JitterOff
350
348
  3
Linepattern
350
340
  3
OverhangOff
350
349
  3
Realistic
350
33C
  3
Shaded
350
347
  3
Shaded with edges
350
346
  3
Shades of Gray
350
343
  3
Sketchy
350
344
  3
Thicken
350
33F
  3
Wireframe
350
339
  3
X-Ray
350
345
  0
XRECORD
  5
3F6
102
{ACAD_REACTORS
330
C
102
}
330
C
100
AcDbXrecord
280
     1
 90
        1
330
34D
  0
DICTIONARY
  5
3AF
102
{ACAD_REACTORS
330
C
102
}
330
C
100
AcDbDictionary
281
     1
  3
CANNOSCALE
350
3B2
  3
CMLEADERSTYLE
350
3B1
  3
CTABLESTYLE
350
3B0
  3
XCLIPFRAME
350
3B3
  0
DICTIONARY
  5
3A8
102
{ACAD_REACTORS
330
3A7
102
}
330
3A7
100
AcDbDictionary
281
     1
  0
XRECORD
  5
3A1
102
{ACAD_REACTORS
330
3A0
102
}
330
3A0
100
AcDbXrecord
280
     1
290
     1
  0
LAYOUT
  5
1E
102
{ACAD_REACTORS
330
1A
102
}
330
1A
100
AcDbPlotSettings
  1

  2
none_device
  4

  6

 40
0.0
 41
0.0
 42
0.0
 43
0.0
 44
0.0
 45
0.0
 46
0.0
 47
0.0
 48
0.0
 49
0.0
140
0.0
141
0.0
142
1.0
143
1.0
 70
   688
 72
     0
 73
     0
 74
     5
  7

 75
    16
147
1.0
 76
     0
 77
     2
 78
   300
148
0.0
149
0.0
100
AcDbLayout
  1
Layout1
 70
     1
 71
     1
 10
0.0
 20
0.0
 11
12.0
 21
9.0
 12
0.0
 22
0.0
 32
0.0
 14
1.000000000000000E+20
 24
1.000000000000000E+20
 34
1.000000000000000E+20
 15
-1.000000000000000E+20
 25
-1.000000000000000E+20
 35
-1.000000000000000E+20
146
0.0
 13
0.0
 23
0.0
 33
0.0
 16
1.0
 26
0.0
 36
0.0
 17
0.0
 27
1.0
 37
0.0
 76
     0
330
1B
  0
LAYOUT
  5
26
102
{ACAD_REACTORS
330
1A
102
}
330
1A
100
AcDbPlotSettings
  1

  2
none_device
  4

  6

 40
0.0
 41
0.0
 42
0.0
 43
0.0
 44
0.0
 45
0.0
 46
0.0
 47
0.0
 48
0.0
 49
0.0
140
0.0
141
0.0
142
1.0
143
1.0
 70
   688
 72
     0
 73
     0
 74
     5
  7

 75
    16
147
1.0
 76
     0
 77
     2
 78
   300
148
0.0
149
0.0
100
AcDbLayout
  1
Layout2
 70
     1
 71
     2
 10
0.0
 20
0.0
 11
0.0
 21
0.0
 12
0.0
 22
0.0
 32
0.0
 14
0.0
 24
0.0
 34
0.0
 15
0.0
 25
0.0
 35
0.0
146
0.0
 13
0.0
 23
0.0
 33
0.0
 16
1.0
 26
0.0
 36
0.0
 17
0.0
 27
1.0
 37
0.0
 76
     0
330
23
  0
LAYOUT
  5
22
102
{ACAD_XDICTIONARY
360
3AD
102
}
102
{ACAD_REACTORS
330
1A
102
}
330
1A
100
AcDbPlotSettings
  1

  2
none_device
  4
Letter_(8.50_x_11.00_Inches)
  6

 40
6.349999999999999
 41
6.349999999999999
 42
6.350005079999999
 43
6.350005079999999
 44
215.9
 45
279.4
 46
0.0
 47
0.0
 48
0.0
 49
0.0
140
0.0
141
0.0
142
1.0
143
1.0
 70
  1712
 72
     0
 73
     0
 74
     0
  7

 75
     0
147
1.0
 76
     0
 77
     2
 78
   300
148
0.0
149
0.0
100
AcDbLayout
  1
Model
 70
     1
 71
     0
 10
0.0
 20
0.0
 11
34.0
 21
22.0
 12
0.0
 22
0.0
 32
0.0
 14
0.0
 24
0.0
 34
0.0
 15
34.0
 25
22.0
 35
0.0
146
0.0
 13
0.0
 23
0.0
 33
0.0
 16
1.0
 26
0.0
 36
0.0
 17
0.0
 27
1.0
 37
0.0
 76
     0
330
1F
331
29
  0
MATERIAL
  5
322
102
{ACAD_XDICTIONARY
360
323
102
}
102
{ACAD_REACTORS
330
319
102
}
330
319
100
AcDbMaterial
  1
ByBlock
 72
     0
 43
0.0208333333333333
 43
0.0
 43
0.0
 43
0.0
 43
0.0
 43
0.0208333333333333
 43
0.0
 43
0.0
 43
0.0
 43
0.0
 43
1.0
 43
0.0
 43
0.0
 43
0.0
 43
0.0
 43
1.0
 77
     0
 47
0.0208333333333333
 47
0.0
 47
0.0
 47
0.0
 47
0.0
 47
0.0208333333333333
 47
0.0
 47
0.0
 47
0.0
 47
0.0
 47
1.0
 47
0.0
 47
0.0
 47
0.0
 47
0.0
 47
1.0
171
     0
 49
0.0208333333333333
 49
0.0
 49
0.0
 49
0.0
 49
0.0
 49
0.0208333333333333
 49
0.0
 49
0.0
 49
0.0
 49
0.0
 49
1.0
 49
0.0
 49
0.0
 49
0.0
 49
0.0
 49
1.0
175
     0
142
0.0208333333333333
142
0.0
142
0.0
142
0.0
142
0.0
142
0.0208333333333333
142
0.0
142
0.0
142
0.0
142
0.0
142
1.0
142
0.0
142
0.0
142
0.0
142
0.0
142
1.0
179
     0
144
0.0208333333333333
144
0.0
144
0.0
144
0.0
144
0.0
144
0.0208333333333333
144
0.0
144
0.0
144
0.0
144
0.0
144
1.0
144
0.0
144
0.0
144
0.0
144
0.0
144
1.0
147
0.0208333333333333
147
0.0
147
0.0
147
0.0
147
0.0
147
0.0208333333333333
147
0.0
147
0.0
147
0.0
147
0.0
147
1.0
147
0.0
147
0.0
147
0.0
147
0.0
147
1.0
  0
MATERIAL
  5
31A
102
{ACAD_XDICTIONARY
360
31B
102
}
102
{ACAD_REACTORS
330
319
102
}
330
319
100
AcDbMaterial
  1
ByLayer
 72
     0
 43
0.0208333333333333
 43
0.0
 43
0.0
 43
0.0
 43
0.0
 43
0.0208333333333333
 43
0.0
 43
0.0
 43
0.0
 43
0.0
 43
1.0
 43
0.0
 43
0.0
 43
0.0
 43
0.0
 43
1.0
 77
     0
 47
0.0208333333333333
 47
0.0
 47
0.0
 47
0.0
 47
0.0
 47
0.0208333333333333
 47
0.0
 47
0.0
 47
0.0
 47
0.0
 47
1.0
 47
0.0
 47
0.0
 47
0.0
 47
0.0
 47
1.0
171
     0
 49
0.0208333333333333
 49
0.0
 49
0.0
 49
0.0
 49
0.0
 49
0.0208333333333333
 49
0.0
 49
0.0
 49
0.0
 49
0.0
 49
1.0
 49
0.0
 49
0.0
 49
0.0
 49
0.0
 49
1.0
175
     0
142
0.0208333333333333
142
0.0
142
0.0
142
0.0
142
0.0
142
0.0208333333333333
142
0.0
142
0.0
142
0.0
142
0.0
142
1.0
142
0.0
142
0.0
142
0.0
142
0.0
142
1.0
179
     0
144
0.0208333333333333
144
0.0
144
0.0
144
0.0
144
0.0
144
0.0208333333333333
144
0.0
144
0.0
144
0.0
144
0.0
144
1.0
144
0.0
144
0.0
144
0.0
144
0.0
144
1.0
147
0.0208333333333333
147
0.0
147
0.0
147
0.0
147
0.0
147
0.0208333333333333
147
0.0
147
0.0
147
0.0
147
0.0
147
1.0
147
0.0
147
0.0
147
0.0
147
0.0
147
1.0
  0
MATERIAL
  5
32A
102
{ACAD_XDICTIONARY
360
32B
102
}
102
{ACAD_REACTORS
330
319
102
}
330
319
100
AcDbMaterial
  1
Global
 72
     0
 43
0.0208333333333333
 43
0.0
 43
0.0
 43
0.0
 43
0.0
 43
0.0208333333333333
 43
0.0
 43
0.0
 43
0.0
 43
0.0
 43
1.0
 43
0.0
 43
0.0
 43
0.0
 43
0.0
 43
1.0
 77
     0
 47
0.0208333333333333
 47
0.0
 47
0.0
 47
0.0
 47
0.0
 47
0.0208333333333333
 47
0.0
 47
0.0
 47
0.0
 47
0.0
 47
1.0
 47
0.0
 47
0.0
 47
0.0
 47
0.0
 47
1.0
171
     0
 49
0.0208333333333333
 49
0.0
 49
0.0
 49
0.0
 49
0.0
 49
0.0208333333333333
 49
0.0
 49
0.0
 49
0.0
 49
0.0
 49
1.0
 49
0.0
 49
0.0
 49
0.0
 49
0.0
 49
1.0
175
     0
142
0.0208333333333333
142
0.0
142
0.0
142
0.0
142
0.0
142
0.0208333333333333
142
0.0
142
0.0
142
0.0
142
0.0
142
1.0
142
0.0
142
0.0
142
0.0
142
0.0
142
1.0
179
     0
144
0.0208333333333333
144
0.0
144
0.0
144
0.0
144
0.0
144
0.0208333333333333
144
0.0
144
0.0
144
0.0
144
0.0
144
1.0
144
0.0
144
0.0
144
0.0
144
0.0
144
1.0
147
0.0208333333333333
147
0.0
147
0.0
147
0.0
147
0.0
147
0.0208333333333333
147
0.0
147
0.0
147
0.0
147
0.0
147
1.0
147
0.0
147
0.0
147
0.0
147
0.0
147
1.0
  0
MLEADERSTYLE
  5
34F
102
{ACAD_REACTORS
330
34E
102
}
330
34E
100
AcDbMLeaderStyle
170
     2
171
     1
172
     0
 90
        2
 40
0.0
 41
0.0
173
     1
 91
-1056964608
340
14
 92
       -2
290
     1
 42
0.09
291
     1
 43
0.36
  3
Standard
 44
0.18
300

342
11
174
     1
178
     6
175
     1
176
     0
 93
-1056964608
 45
0.18
292
     0
297
     0
 46
0.18
 94
-1056964608
 47
1.0
 49
1.0
140
1.0
293
     1
141
0.0
294
     1
177
     0
142
1.0
295
     0
296
     0
143
0.125
1001
ACAD_MLEADERVER
1070
     2
  0
MLINESTYLE
  5
18
102
{ACAD_REACTORS
330
17
102
}
330
17
100
AcDbMlineStyle
  2
STANDARD
 70
     0
  3

 62
   256
 51
90.0
 52
90.0
 71
     2
 49
0.5
 62
   256
  6
BYLAYER
 49
-0.5
 62
   256
  6
BYLAYER
  0
ACDBPLACEHOLDER
  5
F
102
{ACAD_REACTORS
330
E
102
}
330
E
  0
SCALE
  5
48
102
{ACAD_REACTORS
330
47
102
}
330
47
100
AcDbScale
 70
     0
300
1:1
140
1.0
141
1.0
290
     1
  0
SCALE
  5
49
102
{ACAD_REACTORS
330
47
102
}
330
47
100
AcDbScale
 70
     0
300
1:2
140
1.0
141
2.0
290
     0
  0
SCALE
  5
4A
102
{ACAD_REACTORS
330
47
102
}
330
47
100
AcDbScale
 70
     0
300
1:4
140
1.0
141
4.0
290
     0
  0
SCALE
  5
4B
102
{ACAD_REACTORS
330
47
102
}
330
47
100
AcDbScale
 70
     0
300
1:5
140
1.0
141
5.0
290
     0
  0
SCALE
  5
4C
102
{ACAD_REACTORS
330
47
102
}
330
47
100
AcDbScale
 70
     0
300
1:8
140
1.0
141
8.0
290
     0
  0
SCALE
  5
4D
102
{ACAD_REACTORS
330
47
102
}
330
47
100
AcDbScale
 70
     0
300
1:10
140
1.0
141
10.0
290
     0
  0
SCALE
  5
4E
102
{ACAD_REACTORS
330
47
102
}
330
47
100
AcDbScale
 70
     0
300
1:16
140
1.0
141
16.0
290
     0
  0
SCALE
  5
4F
102
{ACAD_REACTORS
330
47
102
}
330
47
100
AcDbScale
 70
     0
300
1:20
140
1.0
141
20.0
290
     0
  0
SCALE
  5
50
102
{ACAD_REACTORS
330
47
102
}
330
47
100
AcDbScale
 70
     0
300
1:30
140
1.0
141
30.0
290
     0
  0
SCALE
  5
51
102
{ACAD_REACTORS
330
47
102
}
330
47
100
AcDbScale
 70
     0
300
1:40
140
1.0
141
40.0
290
     0
  0
SCALE
  5
52
102
{ACAD_REACTORS
330
47
102
}
330
47
100
AcDbScale
 70
     0
300
1:50
140
1.0
141
50.0
290
     0
  0
SCALE
  5
53
102
{ACAD_REACTORS
330
47
102
}
330
47
100
AcDbScale
 70
     0
300
1:100
140
1.0
141
100.0
290
     0
  0
SCALE
  5
54
102
{ACAD_REACTORS
330
47
102
}
330
47
100
AcDbScale
 70
     0
300
2:1
140
2.0
141
1.0
290
     0
  0
SCALE
  5
55
102
{ACAD_REACTORS
330
47
102
}
330
47
100
AcDbScale
 70
     0
300
4:1
140
4.0
141
1.0
290
     0
  0
SCALE
  5
56
102
{ACAD_REACTORS
330
47
102
}
330
47
100
AcDbScale
 70
     0
300
8:1
140
8.0
141
1.0
290
     0
  0
SCALE
  5
57
102
{ACAD_REACTORS
330
47
102
}
330
47
100
AcDbScale
 70
     0
300
10:1
140
10.0
141
1.0
290
     0
  0
SCALE
  5
58
102
{ACAD_REACTORS
330
47
102
}
330
47
100
AcDbScale
 70
     0
300
100:1
140
100.0
141
1.0
290
     0
  0
SCALE
  5
59
102
{ACAD_REACTORS
330
47
102
}
330
47
100
AcDbScale
 70
     0
300
1/128" = 1'-0"
140
0.0078125
141
12.0
290
     0
  0
SCALE
  5
5A
102
{ACAD_REACTORS
330
47
102
}
330
47
100
AcDbScale
 70
     0
300
1/64" = 1'-0"
140
0.015625
141
12.0
290
     0
  0
SCALE
  5
5B
102
{ACAD_REACTORS
330
47
102
}
330
47
100
AcDbScale
 70
     0
300
1/32" = 1'-0"
140
0.03125
141
12.0
290
     0
  0
SCALE
  5
5C
102
{ACAD_REACTORS
330
47
102
}
330
47
100
AcDbScale
 70
     0
300
1/16" = 1'-0"
140
0.0625
141
12.0
290
     0
  0
SCALE
  5
5D
102
{ACAD_REACTORS
330
47
102
}
330
47
100
AcDbScale
 70
     0
300
3/32" = 1'-0"
140
0.09375
141
12.0
290
     0
  0
SCALE
  5
5E
102
{ACAD_REACTORS
330
47
102
}
330
47
100
AcDbScale
 70
     0
300
1/8" = 1'-0"
140
0.125
141
12.0
290
     0
  0
SCALE
  5
5F
102
{ACAD_REACTORS
330
47
102
}
330
47
100
AcDbScale
 70
     0
300
3/16" = 1'-0"
140
0.1875
141
12.0
290
     0
  0
SCALE
  5
60
102
{ACAD_REACTORS
330
47
102
}
330
47
100
AcDbScale
 70
     0
300
1/4" = 1'-0"
140
0.25
141
12.0
290
     0
  0
SCALE
  5
61
102
{ACAD_REACTORS
330
47
102
}
330
47
100
AcDbScale
 70
     0
300
3/8" = 1'-0"
140
0.375
141
12.0
290
     0
  0
SCALE
  5
62
102
{ACAD_REACTORS
330
47
102
}
330
47
100
AcDbScale
 70
     0
300
1/2" = 1'-0"
140
0.5
141
12.0
290
     0
  0
SCALE
  5
63
102
{ACAD_REACTORS
330
47
102
}
330
47
100
AcDbScale
 70
     0
300
3/4" = 1'-0"
140
0.75
141
12.0
290
     0
  0
SCALE
  5
64
102
{ACAD_REACTORS
330
47
102
}
330
47
100
AcDbScale
 70
     0
300
1" = 1'-0"
140
1.0
141
12.0
290
     0
  0
SCALE
  5
65
102
{ACAD_REACTORS
330
47
102
}
330
47
100
AcDbScale
 70
     0
300
1-1/2" = 1'-0"
140
1.5
141
12.0
290
     0
  0
SCALE
  5
66
102
{ACAD_REACTORS
330
47
102
}
330
47
100
AcDbScale
 70
     0
300
3" = 1'-0"
140
3.0
141
12.0
290
     0
  0
SCALE
  5
67
102
{ACAD_REACTORS
330
47
102
}
330
47
100
AcDbScale
 70
     0
300
6" = 1'-0"
140
6.0
141
12.0
290
     0
  0
SCALE
  5
68
102
{ACAD_REACTORS
330
47
102
}
330
47
100
AcDbScale
 70
     0
300
1'-0" = 1'-0"
140
12.0
141
12.0
290
     0
  0
TABLESTYLE
  5
34D
102
{ACAD_XDICTIONARY
360
3F4
102
}
102
{ACAD_REACTORS
330
34C
102
}
330
34C
100
AcDbTableStyle
  3
Standard
 70
     0
 71
     0
 40
0.06
 41
0.06
280
     0
281
     0
  7
Standard
140
0.18
170
     2
 62
     0
 63
     7
283
     0
274
    -2
284
     1
 64
     0
275
    -2
285
     1
 65
     0
276
    -2
286
     1
 66
     0
277
    -2
287
     1
 67
     0
278
    -2
288
     1
 68
     0
279
    -2
289
     1
 69
     0
  7
Standard
140
0.25
170
     5
 62
     0
 63
     7
283
     0
274
    -2
284
     1
 64
     0
275
    -2
285
     1
 65
     0
276
    -2
286
     1
 66
     0
277
    -2
287
     1
 67
     0
278
    -2
288
     1
 68
     0
279
    -2
289
     1
 69
     0
  7
Standard
140
0.18
170
     5
 62
     0
 63
     7
283
     0
274
    -2
284
     1
 64
     0
275
    -2
285
     1
 65
     0
276
    -2
286
     1
 66
     0
277
    -2
287
     1
 67
     0
278
    -2
288
     1
 68
     0
279
    -2
289
     1
 69
     0
  0
VISUALSTYLE
  5
338
102
{ACAD_XDICTIONARY
360
404
102
}
102
{ACAD_REACTORS
330
332
102
}
330
332
100
AcDbVisualStyle
  2
2dWireframe
 70
     4
 71
     0
 72
     2
 73
     0
 90
        0
 40
-0.6
 41
-30.0
 62
     5
 63
     7
421
 16777215
 74
     1
 91
        4
 64
     7
 65
   257
 75
     1
175
     1
 42
1.0
 92
        0
 66
   257
 43
1.0
 76
     1
 77
     6
 78
     2
 67
     7
 79
     5
170
     0
171
     0
290
     0
174
     0
 93
        1
 44
0.0
173
     0
291
     0
 45
0.0
1001
ACAD
1000
AcDbSavedByObjectVersion
1070
     0
  0
VISUALSTYLE
  5
337
102
{ACAD_XDICTIONARY
360
402
102
}
102
{ACAD_REACTORS
330
332
102
}
330
332
100
AcDbVisualStyle
  2
Basic
 70
     7
 71
     1
 72
     0
 73
     1
 90
        0
 40
-0.6
 41
-30.0
 62
     5
 63
     7
421
 16777215
 74
     0
 91
        4
 64
     7
 65
   257
 75
     1
175
     1
 42
1.0
 92
        8
 66
     7
 43
1.0
 76
     1
 77
     6
 78
     2
 67
     7
 79
     5
170
     0
171
     0
290
     0
174
     0
 93
        1
 44
0.0
173
     0
291
     1
 45
0.0
1001
ACAD
1000
AcDbSavedByObjectVersion
1070
     0
  0
VISUALSTYLE
  5
33E
102
{ACAD_XDICTIONARY
360
410
102
}
102
{ACAD_REACTORS
330
332
102
}
330
332
100
AcDbVisualStyle
  2
Brighten
 70
    12
 71
     2
 72
     2
 73
     0
 90
        0
 40
-0.6
 41
-30.0
 62
     5
 63
     7
421
 16777215
 74
     1
 91
        4
 64
     7
 65
   257
 75
     1
175
     1
 42
1.0
 92
        8
 66
     7
 43
1.0
 76
     1
 77
     6
 78
     2
 67
     7
 79
     5
170
     0
171
     0
290
     0
174
     0
 93
        1
 44
50.0
173
     0
291
     1
 45
0.0
1001
ACAD
1000
AcDbSavedByObjectVersion
1070
     0
  0
VISUALSTYLE
  5
342
102
{ACAD_XDICTIONARY
360
418
102
}
102
{ACAD_REACTORS
330
332
102
}
330
332
100
AcDbVisualStyle
  2
ColorChange
 70
    16
 71
     2
 72
     2
 73
     3
 90
        0
 40
-0.6
 41
-30.0
 62
     5
 63
     8
421
  8421504
 74
     1
 91
        4
 64
     7
 65
   257
 75
     1
175
     1
 42
1.0
 92
        8
 66
     8
424
  8421504
 43
1.0
 76
     1
 77
     6
 78
     2
 67
     7
 79
     5
170
     0
171
     0
290
     0
174
     0
 93
        1
 44
0.0
173
     0
291
     1
 45
0.0
1001
ACAD
1000
AcDbSavedByObjectVersion
1070
     0
  0
VISUALSTYLE
  5
33B
102
{ACAD_XDICTIONARY
360
40A
102
}
102
{ACAD_REACTORS
330
332
102
}
330
332
100
AcDbVisualStyle
  2
Conceptual
 70
     9
 71
     3
 72
     2
 73
     0
 90
        0
 40
-0.6
 41
-30.0
 62
     5
 63
     7
421
 16777215
 74
     2
 91
        2
 64
     7
 65
   257
 75
     1
175
     1
 42
179.0
 92
        8
 66
     7
 43
1.0
 76
     1
 77
     6
 78
     2
 67
     7
 79
     3
170
     0
171
     0
290
     0
174
     0
 93
        1
 44
0.0
173
     0
291
     0
 45
0.0
1001
ACAD
1000
AcDbSavedByObjectVersion
1070
     0
  0
VISUALSTYLE
  5
33D
102
{ACAD_XDICTIONARY
360
40E
102
}
102
{ACAD_REACTORS
330
332
102
}
330
332
100
AcDbVisualStyle
  2
Dim
 70
    11
 71
     2
 72
     2
 73
     0
 90
        0
 40
-0.6
 41
-30.0
 62
     5
 63
     7
421
 16777215
 74
     1
 91
        4
 64
     7
 65
   257
 75
     1
175
     1
 42
1.0
 92
        8
 66
     7
 43
1.0
 76
     1
 77
     6
 78
     2
 67
     7
 79
     5
170
     0
171
     0
290
     0
174
     0
 93
        1
 44
-50.0
173
     0
291
     1
 45
0.0
1001
ACAD
1000
AcDbSavedByObjectVersion
1070
     0
  0
VISUALSTYLE
  5
34A
102
{ACAD_XDICTIONARY
360
428
102
}
102
{ACAD_REACTORS
330
332
102
}
330
332
100
AcDbVisualStyle
  2
EdgeColorOff
 70
    22
 71
     2
 72
     2
 73
     0
 90
        0
 40
-0.6
 41
-30.0
 62
     5
 63
     7
421
 16777215
 74
     1
 91
        4
 64
     7
 65
   257
 75
     1
175
     1
 42
1.0
 92
        8
 66
     7
 43
1.0
 76
     1
 77
     6
 78
     2
 67
     7
 79
     5
170
     0
171
     0
290
     0
174
     0
 93
        1
 44
0.0
173
     0
291
     1
 45
0.0
1001
ACAD
1000
AcDbSavedByObjectVersion
1070
     0
  0
VISUALSTYLE
  5
341
102
{ACAD_XDICTIONARY
360
416
102
}
102
{ACAD_REACTORS
330
332
102
}
330
332
100
AcDbVisualStyle
  2
Facepattern
 70
    15
 71
     2
 72
     2
 73
     0
 90
        0
 40
-0.6
 41
-30.0
 62
     5
 63
     7
421
 16777215
 74
     1
 91
        4
 64
     7
 65
   257
 75
     1
175
     1
 42
1.0
 92
        8
 66
     7
 43
1.0
 76
     1
 77
     6
 78
     2
 67
     7
 79
     5
170
     0
171
     0
290
     0
174
     0
 93
        1
 44
0.0
173
     0
291
     1
 45
0.0
1001
ACAD
1000
AcDbSavedByObjectVersion
1070
     0
  0
VISUALSTYLE
  5
333
102
{ACAD_XDICTIONARY
360
3FA
102
}
102
{ACAD_REACTORS
330
332
102
}
330
332
100
AcDbVisualStyle
  2
Flat
 70
     0
 71
     2
 72
     1
 73
     1
 90
        2
 40
-0.6
 41
30.0
 62
     5
 63
     7
421
 16777215
 74
     0
 91
        0
 64
     7
 65
   257
 75
     1
175
     1
 42
1.0
 92
        8
 66
     7
 43
1.0
 76
     1
 77
     6
 78
     2
 67
     7
 79
     5
170
     0
171
     0
290
     0
174
     0
 93
       13
 44
0.0
173
     0
291
     1
 45
0.0
1001
ACAD
1000
AcDbSavedByObjectVersion
1070
     0
  0
VISUALSTYLE
  5
334
102
{ACAD_XDICTIONARY
360
3FC
102
}
102
{ACAD_REACTORS
330
332
102
}
330
332
100
AcDbVisualStyle
  2
FlatWithEdges
 70
     1
 71
     2
 72
     1
 73
     1
 90
        2
 40
-0.6
 41
30.0
 62
     5
 63
     7
421
 16777215
 74
     1
 91
        0
 64
     7
 65
   257
 75
     1
175
     1
 42
1.0
 92
        0
 66
   257
 43
1.0
 76
     1
 77
     6
 78
     2
 67
     7
 79
     5
170
     0
171
     0
290
     0
174
     0
 93
       13
 44
0.0
173
     0
291
     1
 45
0.0
1001
ACAD
1000
AcDbSavedByObjectVersion
1070
     0
  0
VISUALSTYLE
  5
335
102
{ACAD_XDICTIONARY
360
3FE
102
}
102
{ACAD_REACTORS
330
332
102
}
330
332
100
AcDbVisualStyle
  2
Gouraud
 70
     2
 71
     2
 72
     2
 73
     1
 90
        2
 40
-0.6
 41
30.0
 62
     5
 63
     7
421
 16777215
 74
     0
 91
        0
 64
     7
 65
   257
 75
     1
175
     1
 42
1.0
 92
        0
 66
     7
 43
1.0
 76
     1
 77
     6
 78
     2
 67
     7
 79
     5
170
     0
171
     0
290
     0
174
     0
 93
       13
 44
0.0
173
     0
291
     1
 45
0.0
1001
ACAD
1000
AcDbSavedByObjectVersion
1070
     0
  0
VISUALSTYLE
  5
336
102
{ACAD_XDICTIONARY
360
400
102
}
102
{ACAD_REACTORS
330
332
102
}
330
332
100
AcDbVisualStyle
  2
GouraudWithEdges
 70
     3
 71
     2
 72
     2
 73
     1
 90
        2
 40
-0.6
 41
30.0
 62
     5
 63
     7
421
 16777215
 74
     1
 91
        0
 64
     7
 65
   257
 75
     1
175
     1
 42
1.0
 92
        0
 66
   257
 43
1.0
 76
     1
 77
     6
 78
     2
 67
     7
 79
     5
170
     0
171
     0
290
     0
174
     0
 93
       13
 44
0.0
173
     0
291
     1
 45
0.0
1001
ACAD
1000
AcDbSavedByObjectVersion
1070
     0
  0
VISUALSTYLE
  5
33A
102
{ACAD_XDICTIONARY
360
408
102
}
102
{ACAD_REACTORS
330
332
102
}
330
332
100
AcDbVisualStyle
  2
Hidden
 70
     6
 71
     1
 72
     2
 73
     2
 90
        0
 40
-0.6
 41
-30.0
 62
     5
 63
     7
421
 16777215
 74
     2
 91
        2
 64
     7
 65
   257
 75
     2
175
     1
 42
40.0
 92
        0
 66
   257
 43
1.0
 76
     1
 77
     6
 78
     2
 67
     7
 79
     3
170
     0
171
     0
290
     0
174
     0
 93
        1
 44
0.0
173
     0
291
     0
 45
0.0
1001
ACAD
1000
AcDbSavedByObjectVersion
1070
     0
  0
VISUALSTYLE
  5
348
102
{ACAD_XDICTIONARY
360
424
102
}
102
{ACAD_REACTORS
330
332
102
}
330
332
100
AcDbVisualStyle
  2
JitterOff
 70
    20
 71
     2
 72
     2
 73
     0
 90
        0
 40
-0.6
 41
-30.0
 62
     5
 63
     7
421
 16777215
 74
     1
 91
        4
 64
     7
 65
   257
 75
     1
175
     1
 42
1.0
 92
       10
 66
     7
 43
1.0
 76
     1
 77
     6
 78
     2
 67
     7
 79
     5
170
     0
171
     0
290
     0
174
     0
 93
        1
 44
0.0
173
     0
291
     1
 45
0.0
1001
ACAD
1000
AcDbSavedByObjectVersion
1070
     0
  0
VISUALSTYLE
  5
340
102
{ACAD_XDICTIONARY
360
414
102
}
102
{ACAD_REACTORS
330
332
102
}
330
332
100
AcDbVisualStyle
  2
Linepattern
 70
    14
 71
     2
 72
     2
 73
     0
 90
        0
 40
-0.6
 41
-30.0
 62
     5
 63
     7
421
 16777215
 74
     1
 91
        4
 64
     7
 65
   257
 75
     7
175
     7
 42
1.0
 92
        8
 66
     7
 43
1.0
 76
     1
 77
     6
 78
     2
 67
     7
 79
     5
170
     0
171
     0
290
     0
174
     0
 93
        1
 44
0.0
173
     0
291
     1
 45
0.0
1001
ACAD
1000
AcDbSavedByObjectVersion
1070
     0
  0
VISUALSTYLE
  5
349
102
{ACAD_XDICTIONARY
360
426
102
}
102
{ACAD_REACTORS
330
332
102
}
330
332
100
AcDbVisualStyle
  2
OverhangOff
 70
    21
 71
     2
 72
     2
 73
     0
 90
        0
 40
-0.6
 41
-30.0
 62
     5
 63
     7
421
 16777215
 74
     1
 91
        4
 64
     7
 65
   257
 75
     1
175
     1
 42
1.0
 92
        9
 66
     7
 43
1.0
 76
     1
 77
     6
 78
     2
 67
     7
 79
     5
170
     0
171
     0
290
     0
174
     0
 93
        1
 44
0.0
173
     0
291
     1
 45
0.0
1001
ACAD
1000
AcDbSavedByObjectVersion
1070
     0
  0
VISUALSTYLE
  5
33C
102
{ACAD_XDICTIONARY
360
40C
102
}
102
{ACAD_REACTORS
330
332
102
}
330
332
100
AcDbVisualStyle
  2
Realistic
 70
     8
 71
     2
 72
     3
 73
     0
 90
        2
 40
-0.6
 41
30.0
 62
     5
 63
     7
421
 16777215
 74
     0
 91
        0
 64
     7
 65
   257
 75
     1
175
     1
 42
1.0
 92
        8
 66
   257
 43
1.0
 76
     1
 77
     6
 78
     2
 67
     7
 79
     3
170
     0
171
     0
290
     0
174
     0
 93
       13
 44
0.0
173
     0
291
     0
 45
0.0
1001
ACAD
1000
AcDbSavedByObjectVersion
1070
     0
  0
VISUALSTYLE
  5
347
102
{ACAD_XDICTIONARY
360
422
102
}
102
{ACAD_REACTORS
330
332
102
}
330
332
100
AcDbVisualStyle
  2
Shaded
 70
    27
 71
     2
 72
     2
 73
     1
 90
        2
 40
-0.6
 41
30.0
 62
     5
 63
     7
421
 16777215
 74
     0
 91
        4
 64
     7
 65
   257
 75
     1
175
     1
 42
1.0
 92
        8
 66
   257
 43
1.0
 76
     1
 77
     6
 78
     2
 67
     8
425
  7895160
 79
     3
170
     0
171
     0
290
     0
174
     0
 93
        5
 44
0.0
173
     0
291
     0
 45
0.0
1001
ACAD
1000
AcDbSavedByObjectVersion
1070
     0
  0
VISUALSTYLE
  5
346
102
{ACAD_XDICTIONARY
360
420
102
}
102
{ACAD_REACTORS
330
332
102
}
330
332
100
AcDbVisualStyle
  2
Shaded with edges
 70
    26
 71
     2
 72
     2
 73
     1
 90
        2
 40
-0.6
 41
30.0
 62
     5
 63
     7
421
 16777215
 74
     1
 91
       10
 64
     7
 65
   257
 75
     2
175
     1
 42
1.0
 92
        8
 66
   257
 43
1.0
 76
     1
 77
     6
 78
     2
 67
     7
 79
     3
170
     0
171
     0
290
     0
174
     0
 93
        5
 44
0.0
173
     0
291
     0
 45
0.0
1001
ACAD
1000
AcDbSavedByObjectVersion
1070
     0
  0
VISUALSTYLE
  5
343
102
{ACAD_XDICTIONARY
360
41A
102
}
102
{ACAD_REACTORS
330
332
102
}
330
332
100
AcDbVisualStyle
  2
Shades of Gray
 70
    23
 71
     2
 72
     2
 73
     3
 90
        0
 40
-0.6
 41
-30.0
 62
     5
 63
     7
421
 16777215
 74
     2
 91
        2
 64
     7
 65
     7
 75
     1
175
     1
 42
40.0
 92
        8
 66
     7
 43
1.0
 76
     1
 77
     6
 78
     2
 67
     7
 79
     3
170
     0
171
     0
290
     0
174
     0
 93
        1
 44
0.0
173
     0
291
     0
 45
0.0
1001
ACAD
1000
AcDbSavedByObjectVersion
1070
     0
  0
VISUALSTYLE
  5
344
102
{ACAD_XDICTIONARY
360
41C
102
}
102
{ACAD_REACTORS
330
332
102
}
330
332
100
AcDbVisualStyle
  2
Sketchy
 70
    24
 71
     1
 72
     2
 73
     2
 90
        0
 40
-0.6
 41
-30.0
 62
     5
 63
     7
421
 16777215
 74
     2
 91
        2
 64
     7
 65
     7
 75
     1
175
     1
 42
40.0
 92
       11
 66
     7
 43
1.0
 76
     1
 77
     6
 78
     2
 67
     7
 79
     6
170
     0
171
     0
290
     0
174
     0
 93
        1
 44
0.0
173
     0
291
     0
 45
0.0
1001
ACAD
1000
AcDbSavedByObjectVersion
1070
     0
  0
VISUALSTYLE
  5
33F
102
{ACAD_XDICTIONARY
360
412
102
}
102
{ACAD_REACTORS
330
332
102
}
330
332
100
AcDbVisualStyle
  2
Thicken
 70
    13
 71
     2
 72
     2
 73
     0
 90
        0
 40
-0.6
 41
-30.0
 62
     5
 63
     7
421
 16777215
 74
     1
 91
        4
 64
     7
 65
   257
 75
     1
175
     1
 42
1.0
 92
       12
 66
     7
 43
1.0
 76
     1
 77
     6
 78
     2
 67
     7
 79
     5
170
     0
171
     0
290
     0
174
     0
 93
        1
 44
0.0
173
     0
291
     1
 45
0.0
1001
ACAD
1000
AcDbSavedByObjectVersion
1070
     0
  0
VISUALSTYLE
  5
339
102
{ACAD_XDICTIONARY
360
406
102
}
102
{ACAD_REACTORS
330
332
102
}
330
332
100
AcDbVisualStyle
  2
Wireframe
 70
     5
 71
     0
 72
     2
 73
     0
 90
        0
 40
-0.6
 41
-30.0
 62
     5
 63
     7
421
 16777215
 74
     1
 91
        4
 64
     7
 65
   257
 75
     1
175
     1
 42
1.0
 92
        0
 66
   257
 43
1.0
 76
     1
 77
     6
 78
     2
 67
     7
 79
     3
170
     0
171
     0
290
     0
174
     0
 93
        1
 44
0.0
173
     0
291
     0
 45
0.0
1001
ACAD
1000
AcDbSavedByObjectVersion
1070
     0
  0
VISUALSTYLE
  5
345
102
{ACAD_XDICTIONARY
360
41E
102
}
102
{ACAD_REACTORS
330
332
102
}
330
332
100
AcDbVisualStyle
  2
X-Ray
 70
    25
 71
     2
 72
     2
 73
     1
 90
        1
 40
0.5
 41
-30.0
 62
     5
 63
     7
421
 16777215
 74
     1
 91
        0
 64
     7
 65
   257
 75
     1
175
     1
 42
1.0
 92
        8
 66
     7
 43
1.0
 76
     1
 77
     6
 78
     2
 67
     7
 79
     3
170
     0
171
     0
290
     0
174
     0
 93
       13
 44
0.0
173
     0
291
     0
 45
0.0
1001
ACAD
1000
AcDbSavedByObjectVersion
1070
     0
  0
DICTIONARYVAR
  5
3B2
102
{ACAD_REACTORS
330
3AF
102
}
330
3AF
100
DictionaryVariables
280
     0
  1
1:1
  0
DICTIONARYVAR
  5
3B1
102
{ACAD_REACTORS
330
3AF
102
}
330
3AF
100
DictionaryVariables
280
     0
  1
STANDARD
  0
DICTIONARYVAR
  5
3B0
102
{ACAD_REACTORS
330
3AF
102
}
330
3AF
100
DictionaryVariables
280
     0
  1
STANDARD
  0
DICTIONARYVAR
  5
3B3
102
{ACAD_REACTORS
330
3AF
102
}
330
3AF
100
DictionaryVariables
280
     0
  1
2
  0
DICTIONARY
  5
3AD
330
22
100
AcDbDictionary
280
     1
281
     1
  3
ADSK_XREC_LAYOUTTHUMBNAIL
360
3AE
  0
DICTIONARY
  5
323
330
322
100
AcDbDictionary
280
     1
281
     1
  3
ACAD_XREC_ROUNDTRIP
360
3F8
  3
BUMPTILE
360
325
  3
DIFFUSETILE
360
324
  3
OPACITYTILE
360
328
  3
REFLECTIONTILE
360
327
  3
REFRACTIONTILE
360
329
  3
SPECULARTILE
360
326
  0
DICTIONARY
  5
31B
330
31A
100
AcDbDictionary
280
     1
281
     1
  3
ACAD_XREC_ROUNDTRIP
360
3F7
  3
BUMPTILE
360
31D
  3
DIFFUSETILE
360
31C
  3
OPACITYTILE
360
320
  3
REFLECTIONTILE
360
31F
  3
REFRACTIONTILE
360
321
  3
SPECULARTILE
360
31E
  0
DICTIONARY
  5
32B
330
32A
100
AcDbDictionary
280
     1
281
     1
  3
ACAD_XREC_ROUNDTRIP
360
3F9
  3
BUMPTILE
360
32D
  3
DIFFUSETILE
360
32C
  3
OPACITYTILE
360
330
  3
REFLECTIONTILE
360
32F
  3
REFRACTIONTILE
360
331
  3
SPECULARTILE
360
32E
  0
DICTIONARY
  5
3F4
330
34D
100
AcDbDictionary
280
     1
281
     1
  3
ACAD_ROUNDTRIP_2008_TABLESTYLE_CELLSTYLEMAP
360
3F5
  3
ACAD_XREC_ROUNDTRIP
360
42A
  0
DICTIONARY
  5
404
330
338
100
AcDbDictionary
280
     1
281
     1
  3
ACAD_XREC_ROUNDTRIP
360
405
  0
DICTIONARY
  5
402
330
337
100
AcDbDictionary
280
     1
281
     1
  3
ACAD_XREC_ROUNDTRIP
360
403
  0
DICTIONARY
  5
410
330
33E
100
AcDbDictionary
280
     1
281
     1
  3
ACAD_XREC_ROUNDTRIP
360
411
  0
DICTIONARY
  5
418
330
342
100
AcDbDictionary
280
     1
281
     1
  3
ACAD_XREC_ROUNDTRIP
360
419
  0
DICTIONARY
  5
40A
330
33B
100
AcDbDictionary
280
     1
281
     1
  3
ACAD_XREC_ROUNDTRIP
360
40B
  0
DICTIONARY
  5
40E
330
33D
100
AcDbDictionary
280
     1
281
     1
  3
ACAD_XREC_ROUNDTRIP
360
40F
  0
DICTIONARY
  5
428
330
34A
100
AcDbDictionary
280
     1
281
     1
  3
ACAD_XREC_ROUNDTRIP
360
429
  0
DICTIONARY
  5
416
330
341
100
AcDbDictionary
280
     1
281
     1
  3
ACAD_XREC_ROUNDTRIP
360
417
  0
DICTIONARY
  5
3FA
330
333
100
AcDbDictionary
280
     1
281
     1
  3
ACAD_XREC_ROUNDTRIP
360
3FB
  0
DICTIONARY
  5
3FC
330
334
100
AcDbDictionary
280
     1
281
     1
  3
ACAD_XREC_ROUNDTRIP
360
3FD
  0
DICTIONARY
  5
3FE
330
335
100
AcDbDictionary
280
     1
281
     1
  3
ACAD_XREC_ROUNDTRIP
360
3FF
  0
DICTIONARY
  5
400
330
336
100
AcDbDictionary
280
     1
281
     1
  3
ACAD_XREC_ROUNDTRIP
360
401
  0
DICTIONARY
  5
408
330
33A
100
AcDbDictionary
280
     1
281
     1
  3
ACAD_XREC_ROUNDTRIP
360
409
  0
DICTIONARY
  5
424
330
348
100
AcDbDictionary
280
     1
281
     1
  3
ACAD_XREC_ROUNDTRIP
360
425
  0
DICTIONARY
  5
414
330
340
100
AcDbDictionary
280
     1
281
     1
  3
ACAD_XREC_ROUNDTRIP
360
415
  0
DICTIONARY
  5
426
330
349
100
AcDbDictionary
280
     1
281
     1
  3
ACAD_XREC_ROUNDTRIP
360
427
  0
DICTIONARY
  5
40C
330
33C
100
AcDbDictionary
280
     1
281
     1
  3
ACAD_XREC_ROUNDTRIP
360
40D
  0
DICTIONARY
  5
422
330
347
100
AcDbDictionary
280
     1
281
     1
  3
ACAD_XREC_ROUNDTRIP
360
423
  0
DICTIONARY
  5
420
330
346
100
AcDbDictionary
280
     1
281
     1
  3
ACAD_XREC_ROUNDTRIP
360
421
  0
DICTIONARY
  5
41A
330
343
100
AcDbDictionary
280
     1
281
     1
  3
ACAD_XREC_ROUNDTRIP
360
41B
  0
DICTIONARY
  5
41C
330
344
100
AcDbDictionary
280
     1
281
     1
  3
ACAD_XREC_ROUNDTRIP
360
41D
  0
DICTIONARY
  5
412
330
33F
100
AcDbDictionary
280
     1
281
     1
  3
ACAD_XREC_ROUNDTRIP
360
413
  0
DICTIONARY
  5
406
330
339
100
AcDbDictionary
280
     1
281
     1
  3
ACAD_XREC_ROUNDTRIP
360
407
  0
DICTIONARY
  5
41E
330
345
100
AcDbDictionary
280
     1
281
     1
  3
ACAD_XREC_ROUNDTRIP
360
41F
  0
XRECORD
  5
3AE
102
{ACAD_REACTORS
330
3AD
102
}
330
3AD
100
AcDbXrecord
280
     1
310
280000000001000078000000010008000000000000780000000000000000000000010000000000003028210000000000C8C8C8000000000000000000000000000000000000000000000000000000000000000000330000006600000099000000CC000000FF00000000330000333300006633000099330000CC330000FF3300
310
0000660000336600006666000099660000CC660000FF66000000990000339900006699000099990000CC990000FF99000000CC000033CC000066CC000099CC0000CCCC0000FFCC000000FF000033FF000066FF000099FF0000CCFF0000FFFF000000003300330033006600330099003300CC003300FF003300003333003333
310
33006633330099333300CC333300FF33330000663300336633006666330099663300CC663300FF66330000993300339933006699330099993300CC993300FF99330000CC330033CC330066CC330099CC3300CCCC3300FFCC330000FF330033FF330066FF330099FF3300CCFF3300FFFF330000006600330066006600660099
310
006600CC006600FF00660000336600333366006633660099336600CC336600FF33660000666600336666006666660099666600CC666600FF66660000996600339966006699660099996600CC996600FF99660000CC660033CC660066CC660099CC6600CCCC6600FFCC660000FF660033FF660066FF660099FF6600CCFF6600
310
FFFF660000009900330099006600990099009900CC009900FF00990000339900333399006633990099339900CC339900FF33990000669900336699006666990099669900CC669900FF66990000999900339999006699990099999900CC999900FF99990000CC990033CC990066CC990099CC9900CCCC9900FFCC990000FF99
310
0033FF990066FF990099FF9900CCFF9900FFFF99000000CC003300CC006600CC009900CC00CC00CC00FF00CC000033CC003333CC006633CC009933CC00CC33CC00FF33CC000066CC003366CC006666CC009966CC00CC66CC00FF66CC000099CC003399CC006699CC009999CC00CC99CC00FF99CC0000CCCC0033CCCC0066CC
310
CC0099CCCC00CCCCCC00FFCCCC0000FFCC0033FFCC0066FFCC0099FFCC00CCFFCC00FFFFCC000000FF003300FF006600FF009900FF00CC00FF00FF00FF000033FF003333FF006633FF009933FF00CC33FF00FF33FF000066FF003366FF006666FF009966FF00CC66FF00FF66FF000099FF003399FF006699FF009999FF00CC
310
99FF00FF99FF0000CCFF0033CCFF0066CCFF0099CCFF00CCCCFF00FFCCFF0000FFFF0033FFFF0066FFFF0099FFFF00CCFFFF00FFFFFF00000000000D0D0D001A1A1A00282828003535350043434300505050005D5D5D006B6B6B00787878008686860093939300A1A1A100AEAEAE00BBBBBB00C9C9C900D6D6D600E4E4E400
310
F1F1F100FFFFFF000000000000000000000000000000000000000000000000000000000000000000000000000000000000000000000000000000000000000000000000000000000000000000000000000000000000000000000000000000000000000000000000000000000000000000000000000000000000000000000000
310
00000000000000000000000000000000000000000000000000000000000000000000000000000000000000000000000000F5F5F5000000000000000000000000000000000000000000000000000000000000000000000000000000000000000000000000000000000000000000000000000000000000000000000000000000
310
00000000000000000000000000000000000000000000000000000000000000000000000000000000000000000000000000000000000000000000000000000000000000000000000000000000000000000000000000000000000000000000000000000000000000000000000000000000000000000000000000000000000000
310
000000000000000000000000000000000000000000000000000000000000000000000000000000000000000000000000F5F5F5F5F5F5F5F50000000000000000000000000000000000000000000000000000000000000000000000000000000000000000000000000000000000000000000000000000000000000000000000
310
00000000000000000000000000000000000000000000000000000000000000000000000000000000000000000000000000000000000000000000000000000000000000000000000000000000000000000000000000000000000000000000000000000000000000000000000000000000000000000000000000000000000000
310
000000000000000000000000000000000000000000000000000000000000000000000000000000000000000000000000F5F5F5F500F5F500F5F5F5F500000000000000000000000000000000000000000000000000000000000000000000000000000000000000000000000000000000000000000000000000000000000000
310
00000000000000000000000000000000000000000000000000000000000000000000000000000000000000000000000000000000000000000000000000000000000000000000000000000000000000000000000000000000000000000000000000000000000000000000000000000000000000000000000000000000000000
310
00000000000000000000000000000000000000000000000000000000000000000000000000000000000000000000000000F5F5F5000000F5F5F50000F5F5F500000000000000000000000000000000000000000000000000000000000000000000000000000000000000000000000000000000000000000000000000000000
310
00000000000000000000000000000000000000000000000000000000000000000000000000000000000000000000000000000000000000000000000000000000000000000000000000000000000000000000000000000000000000000000000000000000000000000000000000000000000000000000000000000000000000
310
000000000000000000000000000000000000000000000000000000000000000000000000000000000000000000000000000000F5F5F5F50000F5F50000F5F5F5F5F500000000000000000000000000000000000000000000000000000000000000000000000000000000000000000000000000000000000000000000000000
310
00000000000000000000000000000000000000000000000000000000000000000000000000000000000000000000000000000000000000000000000000000000000000000000000000000000000000000000000000000000000000000000000000000000000000000000000000000000000000000000000000000000000000
310
00000000000000000000000000000000000000000000000000000000000000000000000000000000000000000000000000000000F5F500F5F5F500000000F5F5F500F5F50000000000000000000000000000000000000000000000000000000000000000000000000000000000000000000000000000000000000000000000
310
00000000000000000000000000000000000000000000000000000000000000000000000000000000000000000000000000000000000000000000000000000000000000000000000000000000000000000000000000000000000000000000000000000000000000000000000000000000000000000000000000000000000000
310
000000000000000000000000000000000000000000000000000000000000000000000000000000000000000000000000000000000000F5F500F5F5000000000000F5F50000F5F50000000000000000000000000000000000000000000000000000000000000000000000000000000000000000000000000000000000000000
310
00000000000000000000000000000000000000000000000000000000000000000000000000000000000000000000000000000000000000000000000000000000000000000000000000000000000000000000000000000000000000000000000000000000000000000000000000000000000000000000000000000000000000
310
00000000000000000000000000000000000000000000000000000000000000000000000000000000000000000000000000000000000000F5F50000000000000000000000000000F5F5000000000000000000000000000000000000000000000000000000000000000000000000000000000000000000000000000000000000
310
00000000000000000000000000000000000000000000000000000000000000000000000000000000000000000000000000000000000000000000000000000000000000000000000000000000000000000000000000000000000000000000000000000000000000000000000000000000000000000000000000000000000000
310
0000000000000000000000000000000000000000000000000000000000000000000000000000000000000000000000000000000000000000ECF5F5F5F5F5000000F5F5000000F5F5F5F5F5EC000000000000000000000000000000000000000000000000000000000000000000000000000000000000000000000000000000
310
00000000000000000000000000000000000000000000000000000000000000000000000000000000000000000000000000000000000000000000000000000000000000000000000000000000000000000000000000000000000000000000000000000000000000000000000000000000000000000000000000000000000000
310
00000000000000000000000000000000000000000000000000000000000000000000000000000000000000000000000000000000000000000000ECF5F5F500F5000000F5F5000000F5F5F5F5F5EC00000000000000000000000000000000000000000000000000000000000000000000000000000000000000000000000000
310
00000000000000000000000000000000000000000000000000000000000000000000000000000000000000000000000000000000000000000000000000000000000000000000000000000000000000000000000000000000000000000000000000000000000000000000000000000000000000000000000000000000000000
310
000000000000000000000000000000000000000000000000000000000000000000000000000000000000000000000000000000000000000000000000F5F5F5F5F500000000000000000000F5F5F5F5F50000000000000000000000000000000000000000000000000000000000000000000000000000000000000000000000
310
00000000000000000000000000000000000000000000000000000000000000000000000000000000000000000000000000000000000000000000000000000000000000000000000000000000000000000000000000000000000000000000000000000000000000000000000000000000000000000000000000000000000000
310
0000000000000000000000000000000000000000000000000000000000000000000000000000000000000000000000000000000000000000000000000000F5F5F500000000000000000000F5F50000F5F5F5000000000000000000000000000000000000000000000000000000000000000000000000000000000000000000
310
00000000000000000000000000000000000000000000000000000000000000000000000000000000000000000000000000000000000000000000000000000000000000000000000000000000000000000000000000000000000000000000000000000000000000000000000000000000000000000000000000000000000000
310
000000000000000000000000000000000000000000000000000000000000000000000000000000000000000000000000000000000000000000000000000000000000F5F500F5F5000000000000F5F5F5F5F5000000000000000000000000000000000000000000000000000000000000000000000000000000000000000000
310
00000000000000000000000000000000000000000000000000000000000000000000000000000000000000000000000000000000000000000000000000000000000000000000000000000000000000000000000000000000000000000000000000000000000000000000000000000000000000000000000000000000000000
310
0000000000000000000000000000000000000000000000000000000000000000000000000000000000000000000000000000000000000000000000000000000000000000F5F5F5F5F5000000000000F5F5F5F5F500000000000000000000000000000000000000000000000000000000000000000000000000000000000000
310
00000000000000000000000000000000000000000000000000000000000000000000000000000000000000000000000000000000000000000000000000000000000000000000000000000000000000000000000000000000000000000000000000000000000000000000000000000000000000000000000000000000000000
310
0000000000000000000000000000000000000000000000000000000000000000000000000000000000000000000000000000000000000000000000000000000000000000000000F5F500F50000F5F5F5000000F5F5000000000000000000000000000000000000000000000000000000000000000000000000000000000000
310
00000000000000000000000000000000000000000000000000000000000000000000000000000000000000000000000000000000000000000000000000000000000000000000000000000000000000000000000000000000000000000000000000000000000000000000000000000000000000000000000000000000000000
310
0000000000000000000000000000000000000000000000000000000000000000000000000000000000000000000000000000000000000000000000000000000000000000000000000000F5F5F50000F5F5F500F5F5F50000000000000000000000000000000000000000000000000000000000000000000000000000000000
310
00000000000000000000000000000000000000000000000000000000000000000000000000000000000000000000000000000000000000000000000000000000000000000000000000000000000000000000000000000000000000000000000000000000000000000000000000000000000000000000000000000000000000
310
0000000000000000000000000000000000000000000000000000000000000000000000000000000000000000000000000000000000000000000000000000000000000000000000000000000000F5F5F5F5F5F5F5F5F5F500000000000000000000000000000000000000000000000000000000000000000000000000000000
310
00000000000000000000000000000000000000000000000000000000000000000000000000000000000000000000000000000000000000000000000000000000000000000000000000000000000000000000000000000000000000000000000000000000000000000000000000000000000000000000000000000000000000
310
000000000000000000000000000000000000000000000000000000000000000000000000000000000000000000000000000000000000000000000000000000000000000000000000000000000000000000F5F5F5F5F5F500000000000000000000000000000000000000000000000000000000000000000000000000000000
310
00000000000000000000000000000000000000000000000000000000000000000000000000000000000000000000000000000000000000000000000000000000000000000000000000000000000000000000000000000000000000000000000000000000000000000000000000000000000000000000000000000000000000
310
00000000000000000000000000000000000000000000000000000000000000000000000000000000000000000000000000000000000000000000000000000000000000000000000000000000000000000000000000000000000000000000000000000000000000000000000000000000000000000000000000000000000000
310
00000000000000000000000000000000000000000000000000000000000000000000000000000000000000000000000000000000000000000000000000000000000000000000000000000000000000000000000000000000000000000000000000000000000000000000000000000000000000000000000000000000000000
310
00000000000000000000000000000000000000000000000000000000000000000000000000000000000000000000000000000000000000000000000000000000000000000000000000000000000000000000000000000000000000000000000000000000000000000000000000000000000000000000000000000000000000
310
00000000000000000000000000000000000000000000000000000000000000000000000000000000000000000000000000000000000000000000000000000000000000000000000000000000000000000000000000000000000000000000000000000000000000000000000000000000000000000000000000000000000000
310
00000000000000000000000000000000000000000000000000000000000000000000000000000000000000000000000000000000000000000000000000000000000000000000000000000000000000000000000000000000000000000000000000000000000000000000000000000000000000000000000000000000000000
310
00000000000000000000000000000000000000000000000000000000000000000000000000000000000000000000000000000000000000000000000000000000000000000000000000000000000000000000000000000000000000000000000000000000000000000000000000000000000000000000000000000000000000
310
00000000000000000000000000000000000000000000000000000000000000000000000000000000000000000000000000000000000000000000000000000000000000000000000000000000000000000000000000000000000000000000000000000000000000000000000000000000000000000000000000000000000000
310
00000000000000000000000000000000000000000000000000000000000000000000000000000000000000000000000000000000000000000000000000000000000000000000000000000000000000000000000000000000000000000000000000000000000000000000000000000000000000000000000000000000000000
310
00000000000000000000000000000000000000000000000000000000000000000000000000000000000000000000000000000000000000000000000000000000000000000000000000000000000000000000000000000000000000000000000000000000000000000000000000000000000000000000000000000000000000
310
00000000000000000000000000000000000000000000000000000000000000000000000000000000000000000000000000000000000000000000000000000000000000000000000000000000000000000000000000000000000000000000000000000000000000000000000000000000000000000000000000000000000000
310
00000000000000000000000000000000000000000000000000000000000000000000000000000000000000000000000000000000000000000000000000000000000000000000000000000000000000000000000000000000000000000000000000000000000000000000000000000000000000000000000000000000000000
310
00000000000000000000000000000000000000000000000000000000000000000000000000000000000000000000000000000000000000000000000000000000000000000000000000000000000000000000000000000000000000000000000000000000000000000000000000000000000000000000000000000000000000
310
00000000000000000000000000000000000000000000000000000000000000000000000000000000000000000000000000000000000000000000000000000000000000000000000000000000000000000000000000000000000000000000000000000000000000000000000000000000000000000000000000000000000000
310
00000000000000000000000000000000000000000000000000000000000000000000000000000000000000000000000000000000000000000000000000000000000000000000000000000000000000000000000000000000000000000000000000000000000000000000000000000000000000000000000000000000000000
310
00000000000000000000000000000000000000000000000000000000000000000000000000000000000000000000000000000000000000000000000000000000000000000000000000000000000000000000000000000000000000000000000000000000000000000000000000000000000000000000000000000000000000
310
00000000000000000000000000000000000000000000000000000000000000000000000000000000000000000000000000000000000000000000000000000000000000000000000000000000000000000000000000000000000000000000000000000000000000000000000000000000000000000000000000000000000000
310
00000000000000000000000000000000000000000000000000000000000000000000000000000000000000000000000000000000000000000000000000000000000000000000000000000000000000000000000000000000000000000000000000000000000000000000000000000000000000000000000000000000000000
310
00000000000000000000000000000000000000000000000000000000000000000000000000000000000000000000000000000000000000000000000000000000000000000000000000000000000000000000000000000000000000000000000000000000000000000000000000000000000000000000000000000000000000
310
00000000000000000000000000000000000000000000000000000000000000000000000000000000000000000000000000000000000000000000000000000000000000000000000000000000000000000000000000000000000000000000000000000000000000000000000000000000000000000000000000000000000000
310
00000000000000000000000000000000000000000000000000000000000000000000000000000000000000000000000000000000000000000000000000000000000000000000000000000000000000000000000000000000000000000000000000000000000000000000000000000000000000000000000000000000000000
310
00000000000000000000000000000000000000000000000000000000000000000000000000000000000000000000000000000000000000000000000000000000000000000000000000000000000000000000000000000000000000000000000000000000000000000000000000000000000000000000000000000000000000
310
00000000000000000000000000000000000000000000000000000000000000000000000000000000000000000000000000000000000000000000000000000000000000000000000000000000000000000000000000000000000000000000000000000000000000000000000000000000000000000000000000000000000000
310
00000000000000000000000000000000000000000000000000000000000000000000000000000000000000000000000000000000000000000000000000000000000000000000000000000000000000000000000000000000000000000000000000000000000000000000000000000000000000000000000000000000000000
310
00000000000000000000000000000000000000000000000000000000000000000000000000000000000000000000000000000000000000000000000000000000000000000000000000000000000000000000000000000000000000000000000000000000000000000000000000000000000000000000000000000000000000
310
00000000000000000000000000000000000000000000000000000000000000000000000000000000000000000000000000000000000000000000000000000000000000000000000000000000000000000000000000000000000000000000000000000000000000000000000000000000000000000000000000000000000000
310
00000000000000000000000000000000000000000000000000000000000000000000000000000000000000000000000000000000000000000000000000000000000000000000000000000000000000000000000000000000000000000000000000000000000000000000000000000000000000000000000000000000000000
310
00000000000000000000000000000000000000000000000000000000000000000000000000000000000000000000000000000000000000000000000000000000000000000000000000000000000000000000000000000000000000000000000000000000000000000000000000000000000000000000000000000000000000
310
00000000000000000000000000000000000000000000000000000000000000000000000000000000000000000000000000000000000000000000000000000000000000000000000000000000000000000000000000000000000000000000000000000000000000000000000000000000000000000000000000000000000000
310
0000000000000000000000000000000000000000000000000000000000000000000000000000000000000000000000000000000000000000000000000000000000000000ECECECECECECECECECECECECECECECECEC0000000000000000000000000000000000000000ECECECECECECECECECECECECECECECECECEC00000000
310
0000000000000000000000000000ECECECECECECECECECECECECECECECECEC000000000000000000000000000000000000000000000000000000000000000000000000000000000000000000000000000000000000000000000000000000000000000000000000000000000000000000000000000000000000000000000000
310
00000000000000000000000000000000000000000000000000000000000000000000000000000000000000000000000000000000000000000000000000000000000000000000ECECECECECECECECECECECECECECECECEC0000000000000000000000000000000000000000ECECECECECECECECECECECECECECECECECEC0000
310
00000000000000000000000000000000ECECECECECECECECECECECECECECECECEC00000000000000000000000000000000000000000000000000000000000000000000000000000000000000000000000000000000000000000000000000000000000000000000000000000000000000000000000000000000000000000000
310
00000000000000000000000000000000000000000000000000000000000000000000000000000000000000000000000000000000000000000000000000000000000000000000000000000000000000F500F50000000000000000000000000000000000000000000000000000000000000000000000F500F500000000000000
310
00000000000000000000000000000000000000000000000000F500F5000000000000000000000000000000000000000000000000000000000000000000000000000000000000000000000000000000000000000000000000000000000000000000000000000000000000000000000000000000000000000000000000000000
310
000000000000000000000000000000000000000000000000000000000000000000000000000000000000000000000000000000000000000000000000000000000000000000000000000000000000000000ECECEC0000000000000000000000000000000000000000000000000000000000000000000000ECEC000000000000
310
000000000000000000000000000000000000000000000000000000ECECEC00000000000000000000000000000000000000000000000000000000000000000000000000000000000000000000000000000000000000000000000000000000000000000000000000000000000000000000000000000000000000000000000000
310
0000000000000000000000000000000000000000000000000000000000000000000000000000000000000000000000000000000000000000000000000000000000000000000000000000000000000000000000F500F50000000000000000000000000000000000000000000000000000000000000000000000F5F500000000
310
0000000000000000000000000000000000000000000000000000000000F500F50000000000000000000000000000000000000000000000000000000000000000000000000000000000000000000000000000000000000000000000000000000000000000000000000000000000000000000000000000000000000000000000
310
00000000000000000000000000000000000000000000000000000000000000000000000000000000000000000000000000000000000000000000000000000000000000000000000000000000000000000000000000F500F50000000000000000000000000000000000000000000000000000000000000000000000F5F50000
310
00000000000000000000000000000000000000000000000000000000000000F500F5000000000000000000000000000000000000000000000000000000000000000000000000000000000000000000000000000000000000000000000000000000000000000000000000000000000000000000000000000000000000000000
310
000000000000000000000000000000000000000000000000000000000000000000000000000000000000000000000000000000000000000000000000000000000000000000000000000000000000000000000000000000F500F50000000000000000000000000000000000000000000000000000000000000000000000F5F5
310
000000000000000000000000000000000000000000000000000000000000000000F500F500000000000000000000000000000000000000000000000000000000000000000000000000000000000000000000000000000000000000000000000000000000000000000000000000000000000000000000000000000000000000
310
0000000000000000000000000000000000000000000000000000000000000000000000000000000000000000000000000000000000000000000000000000000000000000000000000000000000000000000000000000000000F500F50000000000000000000000000000000000000000000000000000000000000000000000
310
F5F5000000000000000000000000000000000000000000000000000000000000000000F500F50000000000000000000000000000000000000000000000000000000000000000000000000000000000000000000000000000000000000000000000000000000000000000000000000000000000000000000000000000000000
310
00000000000000000000000000000000000000000000000000000000000000000000000000000000000000000000000000000000000000000000000000000000000000000000000000000000000000000000000000000000000000F500F5000000000000000000000000000000000000000000000000000000000000000000
310
0000F5F5000000000000000000000000000000000000000000000000000000000000000000F500F5000000000000000000000000000000000000000000000000000000000000000000000000000000000000000000000000000000000000000000000000000000000000000000000000000000000000000000000000000000
310
000000000000000000000000000000000000000000000000000000000000000000000000000000000000000000000000000000000000000000000000000000000000000000000000000000000000000000000000000000000000000000F500F500000000000000000000000000000000000000000000000000000000000000
310
00000000F5F5000000000000000000000000000000000000000000000000000000000000000000F500F500000000000000000000000000000000000000000000000000000000000000000000000000000000000000000000000000000000000000000000000000000000000000000000000000000000000000000000000000
310
0000000000000000000000000000000000000000000000000000000000000000000000000000000000000000000000000000000000000000000000000000000000000000000000000000000000000000000000000000000000000000000000F500F50000000000000000000000000000000000000000000000000000000000
310
000000000000F5F5000000000000000000000000000000000000000000000000000000000000000000F500F50000000000000000000000000000000000000000000000000000000000000000000000000000000000000000000000000000000000000000000000000000000000000000000000000000000000000000000000
310
00000000000000000000000000000000000000000000000000000000000000000000000000000000000000000000000000000000000000000000000000000000000000000000000000000000000000000000000000000000000000000000000000F500F5000000000000000000000000000000000000000000000000000000
310
0000000000000000F5F5000000000000000000000000000000000000000000000000000000000000000000F500F5000000000000000000000000000000000000000000000000000000000000000000000000000000000000000000000000000000000000000000000000000000000000000000000000000000000000000000
310
000000000000000000000000000000000000000000000000000000000000000000000000000000000000000000000000000000000000000000000000000000000000000000000000000000000000000000000000000000000000000000000000000000F500F500000000000000000000000000000000000000000000000000
310
00000000000000000000F5F5000000000000000000000000000000000000000000000000000000000000000000F500F500000000000000000000000000000000000000000000000000000000000000000000000000000000000000000000000000000000000000000000000000000000000000000000000000000000000000
310
0000000000000000000000000000000000000000000000000000000000000000000000000000000000000000000000000000000000000000000000000000000000000000000000000000000000000000000000000000000000000000000000000000000000F500F50000000000000000000000000000000000000000000000
310
000000000000000000000000F5F5000000000000000000000000000000000000000000000000000000000000000000F500F50000000000000000000000000000000000000000000000000000000000000000000000000000000000000000000000000000000000000000000000000000000000000000000000000000000000
310
00000000000000000000000000000000000000000000000000000000000000000000000000000000000000000000000000000000000000000000000000000000000000000000000000000000000000000000000000000000000000000000000000000000000000F500F5000000000000000000000000000000000000000000
310
0000000000000000000000000000F5F5000000000000000000000000000000000000000000000000000000000000000000F500F5000000000000000000000000000000000000000000000000000000000000000000000000000000000000000000000000000000000000000000000000000000000000000000000000000000
310
000000000000000000000000000000000000000000000000000000000000000000000000000000000000000000000000000000000000000000000000000000000000000000000000000000000000000000000000000000000000000000000000000000000000000000F500F500000000000000000000000000000000000000
310
00000000000000000000000000000000F5F5000000000000000000000000000000000000000000000000000000000000000000F500F500000000000000000000000000000000000000000000000000000000000000000000000000000000000000000000000000000000000000000000000000000000000000000000000000
310
0000000000000000000000000000000000000000000000000000000000000000000000000000000000000000000000000000000000000000000000000000000000000000000000000000000000000000000000000000000000000000000000000000000000000000000000F500F50000000000000000000000000000000000
310
000000000000000000000000000000000000F5F5000000000000000000000000000000000000000000000000000000000000000000F500F50000000000000000000000000000000000000000000000000000000000000000000000000000000000000000000000000000000000000000000000000000000000000000000000
310
00000000000000000000000000000000000000000000000000000000000000000000000000000000000000000000000000000000000000000000000000000000000000000000000000000000000000000000000000000000000000000000000000000000000000000000000000F500F5000000000000000000000000000000
310
0000000000000000000000000000000000000000F5F5000000000000000000000000000000000000000000000000000000000000000000F500F5000000000000000000000000000000000000000000000000000000000000000000000000000000000000000000000000000000000000000000000000000000000000000000
310
000000000000000000000000000000000000000000000000000000000000000000000000000000000000000000000000000000000000000000000000000000000000000000000000000000000000000000000000000000000000000000000000000000000000000000000000000000F500F500000000000000000000000000
310
00000000000000000000000000000000000000000000F5F5000000000000000000000000000000000000000000000000000000000000000000F500F500000000000000000000000000000000000000000000000000000000000000000000000000000000000000000000000000000000000000000000000000000000000000
310
0000000000000000000000000000000000000000000000000000000000000000000000000000000000000000000000000000000000000000000000000000000000000000000000000000000000000000000000000000000000000000000000000000000000000000000000000000000000F500F50000000000000000000000
310
000000000000000000000000000000000000000000000000F5F5000000000000000000000000000000000000000000000000000000000000000000F500F50000000000000000000000000000000000000000000000000000000000000000000000000000000000000000000000000000000000000000000000000000000000
310
00000000000000000000000000000000000000000000000000000000000000000000000000000000000000000000000000000000000000000000000000000000000000000000000000000000000000000000000000000000000000000000000000000000000000000000000000000000000000F500F5000000000000000000
310
0000000000000000000000000000000000000000000000000000F5F5000000000000000000000000000000000000000000000000000000000000000000F500F5000000000000000000000000000000000000000000000000000000000000000000000000000000000000000000000000000000000000000000000000000000
310
000000000000000000000000000000000000000000000000000000000000000000000000000000000000000000000000000000000000000000000000000000000000000000000000000000000000000000000000000000000000000000000000000000000000000000000000000000000000000000F500F500000000000000
310
00000000000000000000000000000000000000000000000000000000F5F5000000000000000000000000000000000000000000000000000000000000000000F500F500000000000000000000000000000000000000000000000000000000000000000000000000000000000000000000000000000000000000000000000000
310
0000000000000000000000000000000000000000000000000000000000000000000000000000000000000000000000000000000000000000000000000000000000000000000000000000000000000000000000000000000000000000000000000000000000000000000000000000000000000000000000F500F50000000000
310
000000000000000000000000000000000000000000000000000000000000F5F5000000000000000000000000000000000000000000000000000000000000000000F500F50000000000000000000000000000000000000000000000000000000000000000000000000000000000000000000000000000000000000000000000
310
00000000000000000000000000000000000000000000000000000000000000000000000000000000000000000000000000000000000000000000000000000000000000000000000000000000000000000000000000000000000000000000000000000000000000000000000000000000000000000000000000F500F5000000
310
0000000000000000000000000000000000000000000000000000000000000000F5F5000000000000000000000000000000000000000000000000000000000000000000F500F5000000000000000000000000000000000000000000000000000000000000000000000000000000000000000000000000000000000000000000
310
000000000000000000000000000000000000000000000000000000000000000000000000000000000000000000000000000000000000000000000000000000000000000000000000000000000000000000000000000000000000000000000000000000000000000000000000000000000000000000000000000000F500F500
310
00000000000000000000000000000000000000000000000000000000000000000000F5F5000000000000000000000000000000000000000000000000000000000000000000F500F500000000000000000000000000000000000000000000000000000000000000000000000000000000000000000000000000000000000000
310
0000000000000000000000000000000000000000000000000000000000000000000000000000000000000000000000000000000000000000000000000000000000000000000000000000000000000000000000000000000000000000000000000000000000000000000000000000000000000000000000000000000000F500
310
F50000000000000000000000000000000000000000000000000000000000000000000000F5F5000000000000000000000000000000000000000000000000000000000000000000F500F50000000000000000000000000000000000000000000000000000000000000000000000000000000000000000000000000000000000
310
00000000000000000000000000000000000000000000000000000000000000000000000000000000000000000000000000000000000000000000000000000000000000000000000000000000000000000000000000000000000000000000000000000000000000000000000000000000000000000000000000000000000000
310
F500F50000000000000000000000000000000000000000000000000000000000000000000000F5F5000000000000000000000000000000000000000000000000000000000000000000F500F5000000000000000000000000000000000000000000000000000000000000000000000000000000000000000000000000000000
310
00000000000000000000000000000000000000000000000000000000000000000000000000000000000000000000000000000000000000000000000000000000000000000000000000000000000000000000000000000000000000000000000000000000000000000000000000000000000000000000000000000000000000
310
0000F500F50000000000000000000000000000000000000000000000000000000000000000000000F5F5000000000000000000000000000000000000000000000000000000000000000000F500F500000000000000000000000000000000000000000000000000000000000000000000000000000000000000000000000000
310
00000000000000000000000000000000000000000000000000000000000000000000000000000000000000000000000000000000000000000000000000000000000000000000000000000000000000000000000000000000000000000000000000000000000000000000000000000000000000000000000000000000000000
310
00000000F500F50000000000000000000000000000000000000000000000000000000000000000000000F5F5000000000000000000000000000000000000000000000000000000000000000000F500F50000000000000000000000000000000000000000000000000000000000000000000000000000000000000000000000
310
00000000000000000000000000000000000000000000000000000000000000000000000000000000000000000000000000000000000000000000000000000000000000000000000000000000000000000000000000000000000000000000000000000000000000000000000000000000000000000000000000000000000000
310
000000000000F500F50000000000000000000000000000000000000000000000000000000000000000000000F5F5000000000000000000000000000000000000000000000000000000000000000000F500F5000000000000000000000000000000000000000000000000000000000000000000000000000000000000000000
310
00000000000000000000000000000000000000000000000000000000000000000000000000000000000000000000000000000000000000000000000000000000000000000000000000000000000000000000000000000000000000000000000000000000000000000000000000000000000000000000000000000000000000
310
0000000000000000F500F50000000000000000000000000000000000000000000000000000000000000000000000F5F5000000000000000000000000000000000000000000000000000000000000000000F500F500000000000000000000000000000000000000000000000000000000000000000000000000000000000000
310
00000000000000000000000000000000000000000000000000000000000000000000000000000000000000000000000000000000000000000000000000000000000000000000000000000000000000000000000000000000000000000000000000000000000000000000000000000000000000000000000000000000000000
310
00000000000000000000F500F50000000000000000000000000000000000000000000000000000000000000000000000F5F5000000000000000000000000000000000000000000000000000000000000000000F500F50000000000000000000000000000000000000000000000000000000000000000000000000000000000
310
00000000000000000000000000000000000000000000000000000000000000000000000000000000000000000000000000000000000000000000000000000000000000000000000000000000000000000000000000000000000000000000000000000000000000000000000000000000000000000000000000000000000000
310
000000000000000000000000F500F50000000000000000000000000000000000000000000000000000000000000000000000F5F5000000000000000000000000000000000000000000000000000000000000000000F500F5000000000000000000000000000000000000000000000000000000000000000000000000000000
310
00000000000000000000000000000000000000000000000000000000000000000000000000000000000000000000000000000000000000000000000000000000000000000000000000000000000000000000000000000000000000000000000000000000000000000000000000000000000000000000000000000000000000
310
0000000000000000000000000000F500F50000000000000000000000000000000000000000000000000000000000000000000000F5F5000000000000000000000000000000000000000000000000000000000000000000F500F500000000000000000000000000000000000000000000000000000000000000000000000000
310
00000000000000000000000000000000000000000000000000000000000000000000000000000000000000000000000000000000000000000000000000000000000000000000000000000000000000000000000000000000000000000000000000000000000000000000000000000000000000000000000000000000000000
310
00000000000000000000000000000000F500F50000000000000000000000000000000000000000000000000000000000000000000000F5F5000000000000000000000000000000000000000000000000000000000000000000F500F50000000000000000000000000000000000000000000000000000000000000000000000
310
00000000000000000000000000000000000000000000000000000000000000000000000000000000000000000000000000000000000000000000000000000000000000000000000000000000000000000000000000000000000000000000000000000000000000000000000000000000000000000000000000000000000000
310
000000000000000000000000000000000000F500F50000000000000000000000000000000000000000000000000000000000000000000000F5F5000000000000000000000000000000000000000000000000000000000000000000F500F5000000000000000000000000000000000000000000000000000000000000000000
310
00000000000000000000000000000000000000000000000000000000000000000000000000000000000000000000000000000000000000000000000000000000000000000000000000000000000000000000000000000000000000000000000000000000000000000000000000000000000000000000000000000000000000
310
0000000000000000000000000000000000000000F500F50000000000000000000000000000000000000000000000000000000000000000000000F5F5000000000000000000000000000000000000000000000000000000000000000000F500F500000000000000000000000000000000000000000000000000000000000000
310
00000000000000000000000000000000000000000000000000000000000000000000000000000000000000000000000000000000000000000000000000000000000000000000000000000000000000000000000000000000000000000000000000000000000000000000000000000000000000000000000000000000000000
310
00000000000000000000000000000000000000000000F500F50000000000000000000000000000000000000000000000000000000000000000000000F5F5000000000000000000000000000000000000000000000000000000000000000000F500F50000000000000000000000000000000000000000000000000000000000
310
00000000000000000000000000000000000000000000000000000000000000000000000000000000000000000000000000000000000000000000000000000000000000000000000000000000000000000000000000000000000000000000000000000000000000000000000000000000000000000000000000000000000000
310
000000000000000000000000000000000000000000000000F500F50000000000000000000000000000000000000000000000000000000000000000000000F5F5000000000000000000000000000000000000000000000000000000000000000000F500F5000000000000000000000000000000000000000000000000000000
310
00000000000000000000000000000000000000000000000000000000000000000000000000000000000000000000000000000000000000000000000000000000000000000000000000000000000000000000000000000000000000000000000000000000000000000000000000000000000000000000000000000000000000
310
0000000000000000000000000000000000000000000000000000F500F50000000000000000000000000000000000000000000000000000000000000000000000F5F5000000000000000000000000000000000000000000000000000000000000000000F500F500000000000000000000000000000000000000000000000000
310
00000000000000000000000000000000000000000000000000000000000000000000000000000000000000000000000000000000000000000000000000000000000000000000000000000000000000000000000000000000000000000000000000000000000000000000000000000000000000000000000000000000000000
310
00000000000000000000000000000000000000000000000000000000F500F50000000000000000000000000000000000000000000000000000000000000000000000F5F5000000000000000000000000000000000000000000000000000000000000000000F500F50000000000000000000000000000000000000000000000
310
00000000000000000000000000000000000000000000000000000000000000000000000000000000000000000000000000000000000000000000000000000000000000000000000000000000000000000000000000000000000000000000000000000000000000000000000000000000000000000000000000000000000000
310
000000000000000000000000000000000000000000000000000000000000F500F50000000000000000000000000000000000000000000000000000000000000000000000F5F5000000000000000000000000000000000000000000000000000000000000000000F500F5000000000000000000000000000000000000000000
310
00000000000000000000000000000000000000000000000000000000000000000000000000000000000000000000000000000000000000000000000000000000000000000000000000000000000000000000000000000000000000000000000000000000000000000000000000000000000000000000000000000000000000
310
0000000000000000000000000000000000000000000000000000000000000000F500F50000000000000000000000000000000000000000000000000000000000000000000000F5F5000000000000000000000000000000000000000000000000000000000000000000F500F500000000000000000000000000000000000000
310
00000000000000000000000000000000000000000000000000000000000000000000000000000000000000000000000000000000000000000000000000000000000000000000000000000000000000000000000000000000000000000000000000000000000000000000000000000000000000000000000000000000000000
310
00000000000000000000000000000000000000000000000000000000000000000000F500F50000000000000000000000000000000000000000000000000000000000000000000000F5F5000000000000000000000000000000000000000000000000000000000000000000F500F50000000000000000000000000000000000
310
00000000000000000000000000000000000000000000000000000000000000000000000000000000000000000000000000000000000000000000000000000000000000000000000000000000000000000000000000000000000000000000000000000000000000000000000000000000000000000000000000000000000000
310
000000000000000000000000000000000000000000000000000000000000000000000000F5F5F50000000000000000000000000000000000000000000000000000ECF5F5F5F5F5F5F5F5F5F5F5F5F5F5F5F5F5F5EC000000000000000000000000000000000000000000000000F5F5F5000000000000000000000000000000
310
00000000000000000000000000000000000000000000000000000000000000000000000000000000000000000000000000000000000000000000000000000000000000000000000000000000000000000000000000000000000000000000000000000000000000000000000000000000000000000000000000000000000000
310
0000000000000000000000000000000000000000000000000000000000000000000000000000F5ECF50000000000000000000000000000000000000000000000000000ECECF5F5F5F5F5F5F5F5F5F5F5F5F5F5F5F5ECEC000000000000000000000000000000000000000000000000F5ECF500000000000000000000000000
310
00000000000000000000000000000000000000000000000000000000000000000000000000000000000000000000000000000000000000000000000000000000000000000000000000000000000000000000000000000000000000000000000000000000000000000000000000000000000000000000000000000000000000
310
00000000000000000000000000000000000000000000000000000000000000000000000000000000F500F50000000000000000000000000000000000000000000000000000000000000000000000F5F5000000000000000000000000000000000000000000000000000000000000000000F500F50000000000000000000000
310
00000000000000000000000000000000000000000000000000000000000000000000000000000000000000000000000000000000000000000000000000000000000000000000000000000000000000000000000000000000000000000000000000000000000000000000000000000000000000000000000000000000000000
310
000000000000000000000000000000000000000000000000000000000000000000000000000000000000F500F50000000000000000000000000000000000000000000000000000000000000000000000F5F5000000000000000000000000000000000000000000000000000000000000000000F500F5000000000000000000
310
00000000000000000000000000000000000000000000000000000000000000000000000000000000000000000000000000000000000000000000000000000000000000000000000000000000000000000000000000000000000000000000000000000000000000000000000000000000000000000000000000000000000000
310
0000000000000000000000000000000000000000000000000000000000000000000000000000000000000000F500F50000000000000000000000000000000000000000000000000000000000000000000000F5F5000000000000000000000000000000000000000000000000000000000000000000F500F500000000000000
310
00000000000000000000000000000000000000000000000000000000000000000000000000000000000000000000000000000000000000000000000000000000000000000000000000000000000000000000000000000000000000000000000000000000000000000000000000000000000000000000000000000000000000
310
00000000000000000000000000000000000000000000000000000000000000000000000000000000000000000000F500F50000000000000000000000000000000000000000000000000000000000000000000000F5F5000000000000000000000000000000000000000000000000000000000000000000F500F50000000000
310
00000000000000000000000000000000000000000000000000000000000000000000000000000000000000000000000000000000000000000000000000000000000000000000000000000000000000000000000000000000000000000000000000000000000000000000000000000000000000000000000000000000000000
310
000000000000000000000000000000000000000000000000000000000000000000000000000000000000000000000000F500F50000000000000000000000000000000000000000000000000000000000000000000000F5F5000000000000000000000000000000000000000000000000000000000000000000F500F5000000
310
00000000000000000000000000000000000000000000000000000000000000000000000000000000000000000000000000000000000000000000000000000000000000000000000000000000000000000000000000000000000000000000000000000000000000000000000000000000000000000000000000000000000000
310
0000000000000000000000000000000000000000000000000000000000000000000000000000000000000000000000000000F500F50000000000000000000000000000000000000000000000000000000000000000000000F5F5000000000000000000000000000000000000000000000000000000000000000000F500F500
310
00000000000000000000000000000000000000000000000000000000000000000000000000000000000000000000000000000000000000000000000000000000000000000000000000000000000000000000000000000000000000000000000000000000000000000000000000000000000000000000000000000000000000
310
00000000000000000000000000000000000000000000000000000000000000000000000000000000000000000000000000000000F5F5F5F500000000000000000000000000000000000000000000000000F5F5F5F5F5F5F5F5F5F5F5F5F5F5F5F5F5F5F5F50000000000000000000000000000000000000000000000F5F5F5
310
F5000000000000000000000000000000000000000000000000000000000000000000000000000000000000000000000000000000000000000000000000000000000000000000000000000000000000000000000000000000000000000000000000000000000000000000000000000000000000000000000000000000000000
310
0000000000000000000000000000000000000000000000000000000000000000000000000000000000000000000000000000000000000000F5F500000000000000000000000000000000000000000000000000F5000000000000000000000000000000000000F50000000000000000000000000000000000000000000000F5
310
F5000000000000000000000000000000000000000000000000000000000000000000000000000000000000000000000000000000000000000000000000000000000000000000000000000000000000000000000000000000000000000000000000000000000000000000000000000000000000000000000000000000000000
310
00000000000000000000000000000000000000000000000000000000000000000000000000000000000000000000000000000000000000000000F5F500000000000000000000000000000000000000000000000000F5F5F5F5F5F5F5F5F5F5F5F5F5F5F5F5F5F5F5F500000000000000000000000000000000000000000000
310
00F5F500000000000000000000000000000000000000000000000000000000000000000000000000000000000000000000000000000000000000000000000000000000000000000000000000000000000000000000000000000000000000000000000000000000000000000000000000000000000000000000000000000000
310
00000000000000000000000000000000000000000000000000000000000000000000000000000000000000000000000000000000000000000000000000000000000000000000000000000000000000000000000000000000000000000000000000000000000000000000000000000000000000000000000000000000000000
310
00000000000000000000000000000000000000000000000000000000000000000000000000000000000000000000000000000000000000000000000000000000000000000000000000000000000000000000000000000000000000000000000000000000000000000000000000000000000000000000000000000000000000
310
00000000000000000000000000000000000000000000000000000000000000000000000000000000000000000000000000000000000000000000000000000000000000000000000000000000000000000000000000000000000000000000000000000000000000000000000000000000000000000000000000000000000000
310
00000000000000000000000000000000000000000000000000000000000000000000000000000000000000000000000000000000000000000000000000000000000000000000000000000000000000000000000000000000000000000000000000000000000000000000000000000000000000000000000000000000000000
310
00000000000000000000000000000000000000000000000000000000000000000000000000000000000000000000000000000000000000000000000000000000000000000000000000000000000000000000000000000000000000000000000000000000000000000000000000000000000000000000000000000000000000
310
00000000000000000000000000000000000000000000000000000000000000000000000000000000000000000000000000000000000000000000000000000000000000000000000000000000000000000000000000000000000000000000000000000000000000000000000000000000000000000000000000000000000000
310
00000000000000000000000000000000000000000000000000000000000000000000000000000000000000000000000000000000000000000000000000000000000000000000000000000000000000000000000000000000000000000000000000000000000000000000000000000000000000000000000000000000000000
310
00000000000000000000000000000000000000000000000000000000000000000000000000000000000000000000000000000000000000000000000000000000000000000000000000000000000000000000000000000000000000000000000000000000000000000000000000000000000000000000000000000000000000
310
00000000000000000000000000000000000000000000000000000000000000000000000000000000000000000000000000000000000000000000000000000000000000000000000000000000000000000000000000000000000000000000000000000000000000000000000000000000000000000000000000000000000000
310
00000000000000000000000000000000000000000000000000000000000000000000000000000000000000000000000000000000000000000000000000000000000000000000000000000000000000000000000000000000000000000000000000000000000000000000000000000000000000000000000000000000000000
310
00000000000000000000000000000000000000000000000000000000000000000000000000000000000000000000000000000000000000000000000000000000000000000000000000000000000000000000000000000000000000000000000000000000000000000000000000000000000000000000000000000000000000
310
00000000000000000000000000000000000000000000000000000000000000000000000000000000000000000000000000000000000000000000000000000000000000000000000000000000000000000000000000000000000000000000000000000000000000000000000000000000000000000000000000000000000000
310
00000000000000000000000000000000000000000000000000000000000000000000000000000000000000000000000000000000000000000000000000000000000000000000000000000000000000000000000000000000000000000000000000000000000000000000000000000000000000000000000000000000000000
310
00000000000000000000000000000000000000000000000000000000000000000000000000000000000000000000000000000000000000000000000000000000000000000000000000000000000000000000000000000000000000000000000000000000000000000000000000000000000000000000000000000000000000
310
00000000000000000000000000000000000000000000000000000000000000000000000000000000000000000000000000000000000000000000000000000000000000000000000000000000000000000000000000000000000000000000000000000000000000000000000000000000000000000000000000000000000000
310
00000000000000000000000000000000000000000000000000000000000000000000000000000000000000000000000000000000000000000000000000000000000000000000000000000000000000000000000000000000000000000000000000000000000000000000000000000000000000000000000000000000000000
310
00000000000000000000000000000000000000000000000000000000000000000000000000000000000000000000000000000000000000000000000000000000000000000000000000000000000000000000000000000000000000000000000000000000000000000000000000000000000000000000000000000000000000
310
00000000000000000000000000000000000000000000000000000000000000000000000000000000000000000000000000000000000000000000000000000000000000000000000000000000000000000000000000000000000000000000000000000000000000000000000000000000000000000000000000000000000000
310
00000000000000000000000000000000000000000000000000000000000000000000000000000000000000000000000000000000000000000000000000000000000000000000000000000000000000000000000000000000000000000000000000000000000000000000000000000000000000000000000000000000000000
310
00000000000000000000000000000000000000000000000000000000000000000000000000000000000000000000000000000000000000000000000000000000000000000000000000000000000000000000000000000000000000000000000000000000000000000000000000000000000000000000000000000000000000
310
00000000000000000000000000000000000000000000000000000000000000000000000000000000000000000000000000000000000000000000000000000000000000000000000000000000000000000000000000000000000000000000000000000000000000000000000000000000000000000000000000000000000000
310
00000000000000000000000000000000000000000000000000000000000000000000000000000000000000000000000000000000000000000000000000000000000000000000000000000000000000000000000000000000000000000000000000000000000000000000000000000000000000000000000000000000000000
310
00000000000000000000000000000000000000000000000000000000000000000000000000000000000000000000000000000000000000000000000000000000000000000000000000000000000000000000000000000000000000000000000000000000000000000000000000000000000000000000000000000000000000
310
00000000000000000000000000000000000000000000000000000000000000000000000000000000000000000000000000000000000000000000000000000000000000000000000000000000000000000000000000000000000000000000000000000000000000000000000000000000000000000000000000000000000000
310
00000000000000000000000000000000000000000000000000000000000000000000000000000000000000000000000000000000000000000000000000000000000000000000000000000000000000000000000000000000000000000000000000000000000000000000000000000000000000000000000000000000000000
310
00000000000000000000000000000000000000000000000000000000000000000000000000000000000000000000000000000000000000000000000000000000000000000000000000000000000000000000000000000000000000000000000000000000000000000000000000000000000000000000000000000000000000
310
00000000000000000000000000000000000000000000000000000000000000000000000000000000000000000000000000000000000000000000000000000000000000000000000000000000000000000000000000000000000000000000000000000000000000000000000000000000000000000000000000000000000000
310
00000000000000000000000000000000000000000000000000000000000000000000000000000000000000000000000000000000000000000000000000000000000000000000000000000000000000000000000000000000000000000000000000000000000000000000000000000000000000000000000000000000000000
310
00000000000000000000000000000000000000000000000000000000000000000000000000000000000000000000000000000000000000000000000000000000000000000000000000000000000000000000000000000000000000000000000000000000000000000000000000000000000000000000000000000000000000
310
00000000000000000000000000000000000000000000000000000000000000000000000000000000000000000000000000000000000000000000000000000000000000000000000000000000000000000000000000000000000000000000000000000000000000000000000000000000000000000000000000000000000000
310
00000000000000000000000000000000000000000000000000000000000000000000000000000000000000000000000000000000000000000000000000000000000000000000000000000000000000000000000000000000000000000000000000000000000000000000000000000000000000000000000000000000ECECEC
310
ECECECEC000000000000000000000000000000000000000000000000000000000000000000000000000000000000000000000000000000000000000000000000000000000000000000000000000000000000000000000000000000000000000000000000000000000000000000000000000000000000000000000000000000
310
00000000000000000000000000000000000000000000000000000000000000000000000000000000000000000000000000000000000000000000000000000000000000000000000000000000000000000000000000000000000000000000000000000000000000000000000000000000000000000000000000000000ECEC00
310
0000000000ECEC000000000000000000000000000000000000000000000000000000000000000000000000000000000000000000000000000000000000000000000000000000000000000000000000000000000000000000000000000000000000000000000000000000000000000000000000000000000000000000000000
310
0000000000000000000000000000000000000000000000000000000000000000000000000000000000000000000000000000000000000000000000000000000000000000000000000000000000000000000000000000000000000000000000000000000000000000000000000000000000000000000000000000000000ECEC
310
000000000000000000ECEC0000000000000000000000000000000000000000000000000000000000000000000000000000000000000000000000000000000000000000000000000000000000000000000000000000000000000000000000000000000000000000000000000000000000000000000000000000000000000000
310
000000000000000000000000000000000000000000000000000000000000000000000000000000000000000000000000000000000000000000000000000000000000000000000000000000000000000000000000000000000000000000000000000000000000000000000000000000000000000000000000000000000000EC
310
000000000000000000000000EC000000000000000000000000000000000000000000000000000000000000000000000000000000000000000000000000000000000000000000000000000000000000000000000000000000000000000000000000000000000000000000000000000000000000000000000000000000000000
310
00000000000000000000000000000000000000000000000000000000000000000000000000000000000000000000000000000000000000000000000000000000000000000000000000000000000000000000000000000000000000000000000000000000000000000000000000000000000000000000000000000000000000
310
ECEC00000000000000000000000000EC000000000000000000000000000000000000000000000000000000000000000000000000000000000000000000000000000000000000000000000000000000000000000000000000000000000000000000000000000000000000000000000000000000000000000000000000000000
310
00000000000000000000000000000000000000000000000000000000000000000000000000000000000000000000000000000000000000000000000000000000000000000000000000000000000000000000000000000000000000000000000000000000000000000000000000000000000000000000000000000000000000
310
0000EC0000000000000000000000000000EC00000000000000000000000000000000000000000000000000000000000000000000000000000000000000000000000000000000000000000000000000000000000000000000000000000000000000000000000000000000000000000000000000000000000000000000000000
310
00000000000000000000000000000000000000000000000000000000000000000000000000000000000000000000000000000000000000000000000000000000000000000000000000000000000000000000000000000000000000000000000000000000000000000000000000000000000000000000000000000000000000
310
0000F5F5ECF5F5F5F5F5F5F5F5F5F5F5F5F5F5ECECF5000000000000000000000000000000000000000000000000000000000000000000000000000000000000000000000000000000000000000000000000000000000000000000000000000000000000000000000000000000000000000000000000000000000000000000
310
00000000000000000000000000000000000000000000000000000000000000000000000000000000000000000000000000000000000000000000000000000000000000000000000000000000000000000000000000000000000000000000000000000000000000000000000000000000000000000000000000000000000000
310
00000000F5F5F5F5F5F5F5F5F5F5F5F5F5F5F5F5F5F5F5F500000000000000000000000000000000000000000000000000000000000000000000000000000000000000000000000000000000000000000000000000000000000000000000000000000000000000000000000000000000000000000000000000000000000000
310
00000000000000000000000000000000000000000000000000000000000000000000000000000000000000000000000000000000000000000000000000000000000000000000000000000000000000000000000000000000000000000000000000000000000000000000000000000000000000000000000000000000000000
310
000000000000ECECF5F5F5F5F5F5F5F5F5F5F5F5F5F5F5F5ECEC0000000000000000000000000000000000000000000000000000000000000000000000000000000000000000000000000000000000000000000000000000000000000000000000000000000000000000000000000000000000000000000000000000000000
310
00000000000000000000000000000000000000000000000000000000000000000000000000000000000000000000000000000000000000000000000000000000000000000000000000000000000000000000000000000000000000000000000000000000000000000000000000000000000000000000000000000000000000
310
0000000000000000ECECF5F5F5F5F5F5F5ECECF5F5F5F5F5F5F5ECEC000000000000000000000000000000000000000000000000000000000000000000000000000000000000000000000000000000000000000000000000000000000000000000000000000000000000000000000000000000000000000000000000000000
310
00000000000000000000000000000000000000000000000000000000000000000000000000000000000000000000000000000000000000000000000000000000000000000000000000000000000000000000000000000000000000000000000000000000000000000000000000000000000000000000000000000000000000
310
0000000000000000000000ECEC000000000000000000000000000000EC0000000000000000000000000000000000000000000000000000000000000000000000000000000000000000000000000000000000000000000000000000000000000000000000000000000000000000000000000000000000000000000000000000
310
00000000000000000000000000000000000000000000000000000000000000000000000000000000000000000000000000000000000000000000000000000000000000000000000000000000000000000000000000000000000000000000000000000000000000000000000000000000000000000000000000000000000000
310
0000000000000000000000000000EC0000000000000000000000000000ECEC000000000000000000000000000000000000000000000000000000000000000000000000000000000000000000000000000000000000000000000000000000000000000000000000000000000000000000000000000000000000000000000000
310
00000000000000000000000000000000000000000000000000000000000000000000000000000000000000000000000000000000000000000000000000000000000000000000000000000000000000000000000000000000000000000000000000000000000000000000000000000000000000000000000000000000000000
310
00000000000000000000000000000000EC0000000000000000000000000000EC0000000000000000000000000000000000000000000000000000000000000000000000000000000000000000000000000000000000000000000000000000000000000000000000000000000000000000000000000000000000000000000000
310
00000000000000000000000000000000000000000000000000000000000000000000000000000000000000000000000000000000000000000000000000000000000000000000000000000000000000000000000000000000000000000000000000000000000000000000000000000000000000000000000000000000000000
310
00000000000000000000000000000000000000EC000000000000000000000000ECEC000000000000000000000000000000000000000000000000000000000000000000000000000000000000000000000000000000000000000000000000000000000000000000000000000000000000000000000000000000000000000000
310
00000000000000000000000000000000000000000000000000000000000000000000000000000000000000000000000000000000000000000000000000000000000000000000000000000000000000000000000000000000000000000000000000000000000000000000000000000000000000000000000000000000000000
310
000000000000000000000000000000000000000000ECEC00000000000000000000ECEC0000000000000000000000000000000000000000000000000000000000000000000000000000000000000000000000000000000000000000000000000000000000000000000000000000000000000000000000000000000000000000
310
00000000000000000000000000000000000000000000000000000000000000000000000000000000000000000000000000000000000000000000000000000000000000000000000000000000000000000000000000000000000000000000000000000000000000000000000000000000000000000000000000000000000000
310
000000000000000000000000000000000000000000000000ECEC0000000000000000ECEC00000000000000000000000000000000000000000000000000000000000000000000000000000000000000000000000000000000000000000000000000000000000000000000000000000000000000000000000000000000000000
310
00000000000000000000000000000000000000000000000000000000000000000000000000000000000000000000000000000000000000000000000000000000000000000000000000000000000000000000000000000000000000000000000000000000000000000000000000000000000000000000000000000000000000
310
00000000000000000000000000000000000000000000000000000000ECECECECECECECECEC000000000000000000000000000000000000000000000000000000000000000000000000000000000000000000000000000000000000000000000000000000000000000000000000000000000000000000000000000000000000
310
00000000000000000000000000000000000000000000000000000000000000000000000000000000000000000000000000000000000000000000000000000000000000000000000000000000000000000000000000000000000000000000000000000000000000000000000000000000000000000000000000000000000000
310
000000000000000000000000000000000000000000000000000000000000000000F5ECF500000000000000000000000000000000000000000000000000000000000000000000000000000000000000000000000000000000000000000000000000000000000000000000000000000000000000000000000000000000000000
310
00000000000000000000000000000000000000000000000000000000000000000000
  0
XRECORD
  5
3F8
102
{ACAD_REACTORS
330
323
102
}
330
323
100
AcDbXrecord
280
     1
102
MATERIAL
148
0.0
149
0.0
149
0.0
 93
        0
 94
      127
282
     0
 72
     0
 77
     0
171
     0
175
     0
179
     0
273
     0
  0
XRECORD
  5
325
102
{ACAD_REACTORS
330
323
102
}
330
323
100
AcDbXrecord
280
     1
270
     1
271
     1
  0
XRECORD
  5
324
102
{ACAD_REACTORS
330
323
102
}
330
323
100
AcDbXrecord
280
     1
270
     1
271
     1
  0
XRECORD
  5
328
102
{ACAD_REACTORS
330
323
102
}
330
323
100
AcDbXrecord
280
     1
270
     1
271
     1
  0
XRECORD
  5
327
102
{ACAD_REACTORS
330
323
102
}
330
323
100
AcDbXrecord
280
     1
270
     1
271
     1
  0
XRECORD
  5
329
102
{ACAD_REACTORS
330
323
102
}
330
323
100
AcDbXrecord
280
     1
270
     1
271
     1
  0
XRECORD
  5
326
102
{ACAD_REACTORS
330
323
102
}
330
323
100
AcDbXrecord
280
     1
270
     1
271
     1
  0
XRECORD
  5
3F7
102
{ACAD_REACTORS
330
31B
102
}
330
31B
100
AcDbXrecord
280
     1
102
MATERIAL
148
0.0
149
0.0
149
0.0
 93
        0
 94
      127
282
     0
 72
     0
 77
     0
171
     0
175
     0
179
     0
273
     0
  0
XRECORD
  5
31D
102
{ACAD_REACTORS
330
31B
102
}
330
31B
100
AcDbXrecord
280
     1
270
     1
271
     1
  0
XRECORD
  5
31C
102
{ACAD_REACTORS
330
31B
102
}
330
31B
100
AcDbXrecord
280
     1
270
     1
271
     1
  0
XRECORD
  5
320
102
{ACAD_REACTORS
330
31B
102
}
330
31B
100
AcDbXrecord
280
     1
270
     1
271
     1
  0
XRECORD
  5
31F
102
{ACAD_REACTORS
330
31B
102
}
330
31B
100
AcDbXrecord
280
     1
270
     1
271
     1
  0
XRECORD
  5
321
102
{ACAD_REACTORS
330
31B
102
}
330
31B
100
AcDbXrecord
280
     1
270
     1
271
     1
  0
XRECORD
  5
31E
102
{ACAD_REACTORS
330
31B
102
}
330
31B
100
AcDbXrecord
280
     1
270
     1
271
     1
  0
XRECORD
  5
3F9
102
{ACAD_REACTORS
330
32B
102
}
330
32B
100
AcDbXrecord
280
     1
102
MATERIAL
148
0.0
149
0.0
149
0.0
 93
        0
 94
      127
282
     0
 72
     0
 77
     0
171
     0
175
     0
179
     0
273
     0
  0
XRECORD
  5
32D
102
{ACAD_REACTORS
330
32B
102
}
330
32B
100
AcDbXrecord
280
     1
270
     1
271
     1
  0
XRECORD
  5
32C
102
{ACAD_REACTORS
330
32B
102
}
330
32B
100
AcDbXrecord
280
     1
270
     1
271
     1
  0
XRECORD
  5
330
102
{ACAD_REACTORS
330
32B
102
}
330
32B
100
AcDbXrecord
280
     1
270
     1
271
     1
  0
XRECORD
  5
32F
102
{ACAD_REACTORS
330
32B
102
}
330
32B
100
AcDbXrecord
280
     1
270
     1
271
     1
  0
XRECORD
  5
331
102
{ACAD_REACTORS
330
32B
102
}
330
32B
100
AcDbXrecord
280
     1
270
     1
271
     1
  0
XRECORD
  5
32E
102
{ACAD_REACTORS
330
32B
102
}
330
32B
100
AcDbXrecord
280
     1
270
     1
271
     1
  0
CELLSTYLEMAP
  5
3F5
102
{ACAD_REACTORS
330
3F4
102
}
330
3F4
100
AcDbCellStyleMap
 90
        3
300
CELLSTYLE
  1
TABLEFORMAT_BEGIN
 90
        5
170
     1
 91
        0
 92
    32768
 62
   257
 93
        1
300
CONTENTFORMAT
  1
CONTENTFORMAT_BEGIN
 90
        0
 91
        0
 92
      512
 93
        0
300

 40
0.0
140
1.0
 94
        5
 62
     0
340
11
144
0.25
309
CONTENTFORMAT_END
171
     0
 94
        0
309
TABLEFORMAT_END
  1
CELLSTYLE_BEGIN
 90
        1
 91
        1
300
_TITLE
309
CELLSTYLE_END
300
CELLSTYLE
  1
TABLEFORMAT_BEGIN
 90
        5
170
     1
 91
        0
 92
        0
 62
   257
 93
        1
300
CONTENTFORMAT
  1
CONTENTFORMAT_BEGIN
 90
        0
 91
        0
 92
      512
 93
        0
300

 40
0.0
140
1.0
 94
        5
 62
     0
340
11
144
0.18
309
CONTENTFORMAT_END
171
     0
 94
        0
309
TABLEFORMAT_END
  1
CELLSTYLE_BEGIN
 90
        2
 91
        1
300
_HEADER
309
CELLSTYLE_END
300
CELLSTYLE
  1
TABLEFORMAT_BEGIN
 90
        5
170
     1
 91
        0
 92
        0
 62
   257
 93
        1
300
CONTENTFORMAT
  1
CONTENTFORMAT_BEGIN
 90
        0
 91
        0
 92
      512
 93
        0
300

 40
0.0
140
1.0
 94
        2
 62
     0
340
11
144
0.18
309
CONTENTFORMAT_END
171
     0
 94
        0
309
TABLEFORMAT_END
  1
CELLSTYLE_BEGIN
 90
        3
 91
        2
300
_DATA
309
CELLSTYLE_END
  0
XRECORD
  5
42A
102
{ACAD_REACTORS
330
3F4
102
}
330
3F4
100
AcDbXrecord
280
     1
102
ACAD_ROUNDTRIP_PRE2007_TABLESTYLE
 90
      512
 91
        0
  1

 92
      512
 93
        0
  2

 94
      512
 95
        0
  3

  0
XRECORD
  5
405
102
{ACAD_REACTORS
330
404
102
}
330
404
100
AcDbXrecord
280
     1
102
RTVSPropertyOp0
 70
     1
102
RTVSPropertyOp1
 70
     1
102
RTVSPropertyOp2
 70
     1
102
RTVSPropertyOp3
 70
     1
102
RTVSPropertyOp4
 70
     1
102
RTVSPropertyOp5
 70
     1
102
RTVSPropertyOp6
 70
     1
102
RTVSPropertyOp7
 70
     1
102
RTVSPropertyOp8
 70
     1
102
RTVSPropertyOp9
 70
     1
102
RTVSPropertyOp10
 70
     1
102
RTVSPropertyOp11
 70
     1
102
RTVSPropertyOp12
 70
     1
102
RTVSPropertyOp13
 70
     1
102
RTVSPropertyOp14
 70
     1
102
RTVSPropertyOp15
 70
     1
102
RTVSPropertyOp16
 70
     1
102
RTVSPropertyOp17
 70
     1
102
RTVSPropertyOp18
 70
     1
102
RTVSPropertyOp19
 70
     1
102
RTVSPropertyOp20
 70
     1
102
RTVSPropertyOp21
 70
     1
102
RTVSPropertyOp22
 70
     1
102
RTVSPropertyOp23
 70
     1
102
RTVSPropertyOp24
 70
     1
102
RTVSPropertyOp25
 70
     1
102
RTVSPropertyOp26
 70
     1
102
RTVSPropertyOp27
 70
     1
102
RTVSPropertyOp28
 70
     1
102
RTVSPropertyOp29
 70
     1
102
RTVSPropertyOp30
 70
     1
102
RTVSPropertyOp31
 70
     1
102
RTVSPropertyOp32
 70
     1
  0
XRECORD
  5
403
102
{ACAD_REACTORS
330
402
102
}
330
402
100
AcDbXrecord
280
     1
102
RTVSPropertyOp0
 70
     1
102
RTVSPropertyOp1
 70
     1
102
RTVSPropertyOp2
 70
     1
102
RTVSPropertyOp3
 70
     1
102
RTVSPropertyOp4
 70
     1
102
RTVSPropertyOp5
 70
     1
102
RTVSPropertyOp6
 70
     1
102
RTVSPropertyOp7
 70
     1
102
RTVSPropertyOp8
 70
     1
102
RTVSPropertyOp9
 70
     1
102
RTVSPropertyOp10
 70
     1
102
RTVSPropertyOp11
 70
     1
102
RTVSPropertyOp12
 70
     1
102
RTVSPropertyOp13
 70
     1
102
RTVSPropertyOp14
 70
     1
102
RTVSPropertyOp15
 70
     1
102
RTVSPropertyOp16
 70
     1
102
RTVSPropertyOp17
 70
     1
102
RTVSPropertyOp18
 70
     1
102
RTVSPropertyOp19
 70
     1
102
RTVSPropertyOp20
 70
     1
102
RTVSPropertyOp21
 70
     1
102
RTVSPropertyOp22
 70
     1
102
RTVSPropertyOp23
 70
     1
102
RTVSPropertyOp24
 70
     1
102
RTVSPropertyOp25
 70
     1
102
RTVSPropertyOp26
 70
     1
102
RTVSPropertyOp27
 70
     1
102
RTVSPropertyOp28
 70
     1
102
RTVSPropertyOp29
 70
     1
102
RTVSPropertyOp30
 70
     1
102
RTVSPropertyOp31
 70
     1
102
RTVSPropertyOp32
 70
     1
  0
XRECORD
  5
411
102
{ACAD_REACTORS
330
410
102
}
330
410
100
AcDbXrecord
280
     1
102
RTVSPropertyOp0
 70
     1
102
RTVSPropertyOp1
 70
     1
102
RTVSPropertyOp2
 70
     1
102
RTVSPropertyOp3
 70
     1
102
RTVSPropertyOp4
 70
     1
102
RTVSPropertyOp5
 70
     1
102
RTVSPropertyOp6
 70
     1
102
RTVSPropertyOp7
 70
     1
102
RTVSPropertyOp8
 70
     1
102
RTVSPropertyOp9
 70
     1
102
RTVSPropertyOp10
 70
     1
102
RTVSPropertyOp11
 70
     1
102
RTVSPropertyOp12
 70
     1
102
RTVSPropertyOp13
 70
     1
102
RTVSPropertyOp14
 70
     1
102
RTVSPropertyOp15
 70
     1
102
RTVSPropertyOp16
 70
     1
102
RTVSPropertyOp17
 70
     1
102
RTVSPropertyOp18
 70
     1
102
RTVSPropertyOp19
 70
     1
102
RTVSPropertyOp20
 70
     1
102
RTVSPropertyOp21
 70
     1
102
RTVSPropertyOp22
 70
     1
102
RTVSPropertyOp23
 70
     1
102
RTVSPropertyOp24
 70
     1
102
RTVSPropertyOp25
 70
     1
102
RTVSPropertyOp26
 70
     1
102
RTVSPropertyOp27
 70
     1
102
RTVSPropertyOp28
 70
     1
102
RTVSPropertyOp29
 70
     1
102
RTVSPropertyOp30
 70
     1
102
RTVSPropertyOp31
 70
     1
102
RTVSPropertyOp32
 70
     1
  0
XRECORD
  5
419
102
{ACAD_REACTORS
330
418
102
}
330
418
100
AcDbXrecord
280
     1
102
RTVSPropertyOp0
 70
     1
102
RTVSPropertyOp1
 70
     1
102
RTVSPropertyOp2
 70
     1
102
RTVSPropertyOp3
 70
     1
102
RTVSPropertyOp4
 70
     1
102
RTVSPropertyOp5
 70
     1
102
RTVSPropertyOp6
 70
     1
102
RTVSPropertyOp7
 70
     1
102
RTVSPropertyOp8
 70
     1
102
RTVSPropertyOp9
 70
     1
102
RTVSPropertyOp10
 70
     1
102
RTVSPropertyOp11
 70
     1
102
RTVSPropertyOp12
 70
     1
102
RTVSPropertyOp13
 70
     1
102
RTVSPropertyOp14
 70
     1
102
RTVSPropertyOp15
 70
     1
102
RTVSPropertyOp16
 70
     1
102
RTVSPropertyOp17
 70
     1
102
RTVSPropertyOp18
 70
     1
102
RTVSPropertyOp19
 70
     1
102
RTVSPropertyOp20
 70
     1
102
RTVSPropertyOp21
 70
     1
102
RTVSPropertyOp22
 70
     1
102
RTVSPropertyOp23
 70
     1
102
RTVSPropertyOp24
 70
     1
102
RTVSPropertyOp25
 70
     1
102
RTVSPropertyOp26
 70
     1
102
RTVSPropertyOp27
 70
     1
102
RTVSPropertyOp28
 70
     1
102
RTVSPropertyOp29
 70
     1
102
RTVSPropertyOp30
 70
     1
102
RTVSPropertyOp31
 70
     1
102
RTVSPropertyOp32
 70
     1
  0
XRECORD
  5
40B
102
{ACAD_REACTORS
330
40A
102
}
330
40A
100
AcDbXrecord
280
     1
102
RTVSPropertyOp0
 70
     1
102
RTVSPropertyOp1
 70
     1
102
RTVSPropertyOp2
 70
     1
102
RTVSPropertyOp3
 70
     1
102
RTVSPropertyOp4
 70
     1
102
RTVSPropertyOp5
 70
     1
102
RTVSPropertyOp6
 70
     1
102
RTVSPropertyOp7
 70
     1
102
RTVSPropertyOp8
 70
     1
102
RTVSPropertyOp9
 70
     1
102
RTVSPropertyOp10
 70
     1
102
RTVSPropertyOp11
 70
     1
102
RTVSPropertyOp12
 70
     1
102
RTVSPropertyOp13
 70
     1
102
RTVSPropertyOp14
 70
     1
102
RTVSPropertyOp15
 70
     1
102
RTVSPropertyOp16
 70
     1
102
RTVSPropertyOp17
 70
     1
102
RTVSPropertyOp18
 70
     1
102
RTVSPropertyOp19
 70
     1
102
RTVSPropertyOp20
 70
     1
102
RTVSPropertyOp21
 70
     1
102
RTVSPropertyOp22
 70
     1
102
RTVSPropertyOp23
 70
     1
102
RTVSPropertyOp24
 70
     1
102
RTVSPropertyOp25
 70
     1
102
RTVSPropertyOp26
 70
     1
102
RTVSPropertyOp27
 70
     1
102
RTVSPropertyOp28
 70
     1
102
RTVSPropertyOp29
 70
     1
102
RTVSPropertyOp30
 70
     1
102
RTVSPropertyOp31
 70
     1
102
RTVSPropertyOp32
 70
     1
  0
XRECORD
  5
40F
102
{ACAD_REACTORS
330
40E
102
}
330
40E
100
AcDbXrecord
280
     1
102
RTVSPropertyOp0
 70
     1
102
RTVSPropertyOp1
 70
     1
102
RTVSPropertyOp2
 70
     1
102
RTVSPropertyOp3
 70
     1
102
RTVSPropertyOp4
 70
     1
102
RTVSPropertyOp5
 70
     1
102
RTVSPropertyOp6
 70
     1
102
RTVSPropertyOp7
 70
     1
102
RTVSPropertyOp8
 70
     1
102
RTVSPropertyOp9
 70
     1
102
RTVSPropertyOp10
 70
     1
102
RTVSPropertyOp11
 70
     1
102
RTVSPropertyOp12
 70
     1
102
RTVSPropertyOp13
 70
     1
102
RTVSPropertyOp14
 70
     1
102
RTVSPropertyOp15
 70
     1
102
RTVSPropertyOp16
 70
     1
102
RTVSPropertyOp17
 70
     1
102
RTVSPropertyOp18
 70
     1
102
RTVSPropertyOp19
 70
     1
102
RTVSPropertyOp20
 70
     1
102
RTVSPropertyOp21
 70
     1
102
RTVSPropertyOp22
 70
     1
102
RTVSPropertyOp23
 70
     1
102
RTVSPropertyOp24
 70
     1
102
RTVSPropertyOp25
 70
     1
102
RTVSPropertyOp26
 70
     1
102
RTVSPropertyOp27
 70
     1
102
RTVSPropertyOp28
 70
     1
102
RTVSPropertyOp29
 70
     1
102
RTVSPropertyOp30
 70
     1
102
RTVSPropertyOp31
 70
     1
102
RTVSPropertyOp32
 70
     1
  0
XRECORD
  5
429
102
{ACAD_REACTORS
330
428
102
}
330
428
100
AcDbXrecord
280
     1
102
RTVSPropertyOp0
 70
     0
102
RTVSPropertyOp1
 70
     0
102
RTVSPropertyOp2
 70
     0
102
RTVSPropertyOp3
 70
     0
102
RTVSPropertyOp4
 70
     0
102
RTVSPropertyOp5
 70
     0
102
RTVSPropertyOp6
 70
     0
102
RTVSPropertyOp7
 70
     0
102
RTVSPropertyOp8
 70
     0
102
RTVSPropertyOp9
 70
     0
102
RTVSPropertyOp10
 70
     0
102
RTVSPropertyOp11
 70
     0
102
RTVSPropertyOp12
 70
     0
102
RTVSPropertyOp13
 70
     0
102
RTVSPropertyOp14
 70
     2
102
RTVSPropertyOp15
 70
     0
102
RTVSPropertyOp16
 70
     0
102
RTVSPropertyOp17
 70
     0
102
RTVSPropertyOp18
 70
     0
102
RTVSPropertyOp19
 70
     0
102
RTVSPropertyOp20
 70
     0
102
RTVSPropertyOp21
 70
     0
102
RTVSPropertyOp22
 70
     0
102
RTVSPropertyOp23
 70
     0
102
RTVSPropertyOp24
 70
     0
102
RTVSPropertyOp25
 70
     0
102
RTVSPropertyOp26
 70
     0
102
RTVSPropertyOp27
 70
     0
102
RTVSPropertyOp28
 70
     0
102
RTVSPropertyOp29
 70
     0
102
RTVSPropertyOp30
 70
     0
102
RTVSPropertyOp31
 70
     0
102
RTVSPropertyOp32
 70
     0
  0
XRECORD
  5
417
102
{ACAD_REACTORS
330
416
102
}
330
416
100
AcDbXrecord
280
     1
102
RTVSPropertyOp0
 70
     1
102
RTVSPropertyOp1
 70
     1
102
RTVSPropertyOp2
 70
     1
102
RTVSPropertyOp3
 70
     1
102
RTVSPropertyOp4
 70
     1
102
RTVSPropertyOp5
 70
     1
102
RTVSPropertyOp6
 70
     1
102
RTVSPropertyOp7
 70
     1
102
RTVSPropertyOp8
 70
     1
102
RTVSPropertyOp9
 70
     1
102
RTVSPropertyOp10
 70
     1
102
RTVSPropertyOp11
 70
     1
102
RTVSPropertyOp12
 70
     1
102
RTVSPropertyOp13
 70
     1
102
RTVSPropertyOp14
 70
     1
102
RTVSPropertyOp15
 70
     1
102
RTVSPropertyOp16
 70
     1
102
RTVSPropertyOp17
 70
     1
102
RTVSPropertyOp18
 70
     1
102
RTVSPropertyOp19
 70
     1
102
RTVSPropertyOp20
 70
     1
102
RTVSPropertyOp21
 70
     1
102
RTVSPropertyOp22
 70
     1
102
RTVSPropertyOp23
 70
     1
102
RTVSPropertyOp24
 70
     1
102
RTVSPropertyOp25
 70
     1
102
RTVSPropertyOp26
 70
     1
102
RTVSPropertyOp27
 70
     1
102
RTVSPropertyOp28
 70
     1
102
RTVSPropertyOp29
 70
     1
102
RTVSPropertyOp30
 70
     1
102
RTVSPropertyOp31
 70
     1
102
RTVSPropertyOp32
 70
     1
  0
XRECORD
  5
3FB
102
{ACAD_REACTORS
330
3FA
102
}
330
3FA
100
AcDbXrecord
280
     1
102
RTVSPropertyOp0
 70
     1
102
RTVSPropertyOp1
 70
     1
102
RTVSPropertyOp2
 70
     1
102
RTVSPropertyOp3
 70
     1
102
RTVSPropertyOp4
 70
     1
102
RTVSPropertyOp5
 70
     1
102
RTVSPropertyOp6
 70
     1
102
RTVSPropertyOp7
 70
     1
102
RTVSPropertyOp8
 70
     1
102
RTVSPropertyOp9
 70
     1
102
RTVSPropertyOp10
 70
     1
102
RTVSPropertyOp11
 70
     1
102
RTVSPropertyOp12
 70
     1
102
RTVSPropertyOp13
 70
     1
102
RTVSPropertyOp14
 70
     1
102
RTVSPropertyOp15
 70
     1
102
RTVSPropertyOp16
 70
     1
102
RTVSPropertyOp17
 70
     1
102
RTVSPropertyOp18
 70
     1
102
RTVSPropertyOp19
 70
     1
102
RTVSPropertyOp20
 70
     1
102
RTVSPropertyOp21
 70
     1
102
RTVSPropertyOp22
 70
     1
102
RTVSPropertyOp23
 70
     1
102
RTVSPropertyOp24
 70
     1
102
RTVSPropertyOp25
 70
     1
102
RTVSPropertyOp26
 70
     1
102
RTVSPropertyOp27
 70
     1
102
RTVSPropertyOp28
 70
     1
102
RTVSPropertyOp29
 70
     1
102
RTVSPropertyOp30
 70
     1
102
RTVSPropertyOp31
 70
     1
102
RTVSPropertyOp32
 70
     1
  0
XRECORD
  5
3FD
102
{ACAD_REACTORS
330
3FC
102
}
330
3FC
100
AcDbXrecord
280
     1
102
RTVSPropertyOp0
 70
     1
102
RTVSPropertyOp1
 70
     1
102
RTVSPropertyOp2
 70
     1
102
RTVSPropertyOp3
 70
     1
102
RTVSPropertyOp4
 70
     1
102
RTVSPropertyOp5
 70
     1
102
RTVSPropertyOp6
 70
     1
102
RTVSPropertyOp7
 70
     1
102
RTVSPropertyOp8
 70
     1
102
RTVSPropertyOp9
 70
     1
102
RTVSPropertyOp10
 70
     1
102
RTVSPropertyOp11
 70
     1
102
RTVSPropertyOp12
 70
     1
102
RTVSPropertyOp13
 70
     1
102
RTVSPropertyOp14
 70
     1
102
RTVSPropertyOp15
 70
     1
102
RTVSPropertyOp16
 70
     1
102
RTVSPropertyOp17
 70
     1
102
RTVSPropertyOp18
 70
     1
102
RTVSPropertyOp19
 70
     1
102
RTVSPropertyOp20
 70
     1
102
RTVSPropertyOp21
 70
     1
102
RTVSPropertyOp22
 70
     1
102
RTVSPropertyOp23
 70
     1
102
RTVSPropertyOp24
 70
     1
102
RTVSPropertyOp25
 70
     1
102
RTVSPropertyOp26
 70
     1
102
RTVSPropertyOp27
 70
     1
102
RTVSPropertyOp28
 70
     1
102
RTVSPropertyOp29
 70
     1
102
RTVSPropertyOp30
 70
     1
102
RTVSPropertyOp31
 70
     1
102
RTVSPropertyOp32
 70
     1
  0
XRECORD
  5
3FF
102
{ACAD_REACTORS
330
3FE
102
}
330
3FE
100
AcDbXrecord
280
     1
102
RTVSPropertyOp0
 70
     1
102
RTVSPropertyOp1
 70
     1
102
RTVSPropertyOp2
 70
     1
102
RTVSPropertyOp3
 70
     1
102
RTVSPropertyOp4
 70
     1
102
RTVSPropertyOp5
 70
     1
102
RTVSPropertyOp6
 70
     1
102
RTVSPropertyOp7
 70
     1
102
RTVSPropertyOp8
 70
     1
102
RTVSPropertyOp9
 70
     1
102
RTVSPropertyOp10
 70
     1
102
RTVSPropertyOp11
 70
     1
102
RTVSPropertyOp12
 70
     1
102
RTVSPropertyOp13
 70
     1
102
RTVSPropertyOp14
 70
     1
102
RTVSPropertyOp15
 70
     1
102
RTVSPropertyOp16
 70
     1
102
RTVSPropertyOp17
 70
     1
102
RTVSPropertyOp18
 70
     1
102
RTVSPropertyOp19
 70
     1
102
RTVSPropertyOp20
 70
     1
102
RTVSPropertyOp21
 70
     1
102
RTVSPropertyOp22
 70
     1
102
RTVSPropertyOp23
 70
     1
102
RTVSPropertyOp24
 70
     1
102
RTVSPropertyOp25
 70
     1
102
RTVSPropertyOp26
 70
     1
102
RTVSPropertyOp27
 70
     1
102
RTVSPropertyOp28
 70
     1
102
RTVSPropertyOp29
 70
     1
102
RTVSPropertyOp30
 70
     1
102
RTVSPropertyOp31
 70
     1
102
RTVSPropertyOp32
 70
     1
  0
XRECORD
  5
401
102
{ACAD_REACTORS
330
400
102
}
330
400
100
AcDbXrecord
280
     1
102
RTVSPropertyOp0
 70
     1
102
RTVSPropertyOp1
 70
     1
102
RTVSPropertyOp2
 70
     1
102
RTVSPropertyOp3
 70
     1
102
RTVSPropertyOp4
 70
     1
102
RTVSPropertyOp5
 70
     1
102
RTVSPropertyOp6
 70
     1
102
RTVSPropertyOp7
 70
     1
102
RTVSPropertyOp8
 70
     1
102
RTVSPropertyOp9
 70
     1
102
RTVSPropertyOp10
 70
     1
102
RTVSPropertyOp11
 70
     1
102
RTVSPropertyOp12
 70
     1
102
RTVSPropertyOp13
 70
     1
102
RTVSPropertyOp14
 70
     1
102
RTVSPropertyOp15
 70
     1
102
RTVSPropertyOp16
 70
     1
102
RTVSPropertyOp17
 70
     1
102
RTVSPropertyOp18
 70
     1
102
RTVSPropertyOp19
 70
     1
102
RTVSPropertyOp20
 70
     1
102
RTVSPropertyOp21
 70
     1
102
RTVSPropertyOp22
 70
     1
102
RTVSPropertyOp23
 70
     1
102
RTVSPropertyOp24
 70
     1
102
RTVSPropertyOp25
 70
     1
102
RTVSPropertyOp26
 70
     1
102
RTVSPropertyOp27
 70
     1
102
RTVSPropertyOp28
 70
     1
102
RTVSPropertyOp29
 70
     1
102
RTVSPropertyOp30
 70
     1
102
RTVSPropertyOp31
 70
     1
102
RTVSPropertyOp32
 70
     1
  0
XRECORD
  5
409
102
{ACAD_REACTORS
330
408
102
}
330
408
100
AcDbXrecord
280
     1
102
RTVSPropertyOp0
 70
     1
102
RTVSPropertyOp1
 70
     1
102
RTVSPropertyOp2
 70
     1
102
RTVSPropertyOp3
 70
     1
102
RTVSPropertyOp4
 70
     1
102
RTVSPropertyOp5
 70
     1
102
RTVSPropertyOp6
 70
     1
102
RTVSPropertyOp7
 70
     1
102
RTVSPropertyOp8
 70
     1
102
RTVSPropertyOp9
 70
     1
102
RTVSPropertyOp10
 70
     1
102
RTVSPropertyOp11
 70
     1
102
RTVSPropertyOp12
 70
     1
102
RTVSPropertyOp13
 70
     1
102
RTVSPropertyOp14
 70
     1
102
RTVSPropertyOp15
 70
     1
102
RTVSPropertyOp16
 70
     1
102
RTVSPropertyOp17
 70
     1
102
RTVSPropertyOp18
 70
     1
102
RTVSPropertyOp19
 70
     1
102
RTVSPropertyOp20
 70
     1
102
RTVSPropertyOp21
 70
     1
102
RTVSPropertyOp22
 70
     1
102
RTVSPropertyOp23
 70
     1
102
RTVSPropertyOp24
 70
     1
102
RTVSPropertyOp25
 70
     1
102
RTVSPropertyOp26
 70
     1
102
RTVSPropertyOp27
 70
     1
102
RTVSPropertyOp28
 70
     1
102
RTVSPropertyOp29
 70
     1
102
RTVSPropertyOp30
 70
     1
102
RTVSPropertyOp31
 70
     1
102
RTVSPropertyOp32
 70
     1
  0
XRECORD
  5
425
102
{ACAD_REACTORS
330
424
102
}
330
424
100
AcDbXrecord
280
     1
102
RTVSPropertyOp0
 70
     0
102
RTVSPropertyOp1
 70
     0
102
RTVSPropertyOp2
 70
     0
102
RTVSPropertyOp3
 70
     0
102
RTVSPropertyOp4
 70
     0
102
RTVSPropertyOp5
 70
     0
102
RTVSPropertyOp6
 70
     0
102
RTVSPropertyOp7
 70
     0
102
RTVSPropertyOp8
 70
     0
102
RTVSPropertyOp9
 70
     0
102
RTVSPropertyOp10
 70
     0
102
RTVSPropertyOp11
 70
     0
102
RTVSPropertyOp12
 70
     0
102
RTVSPropertyOp13
 70
     0
102
RTVSPropertyOp14
 70
     2
102
RTVSPropertyOp15
 70
     0
102
RTVSPropertyOp16
 70
     0
102
RTVSPropertyOp17
 70
     0
102
RTVSPropertyOp18
 70
     0
102
RTVSPropertyOp19
 70
     0
102
RTVSPropertyOp20
 70
     0
102
RTVSPropertyOp21
 70
     0
102
RTVSPropertyOp22
 70
     0
102
RTVSPropertyOp23
 70
     0
102
RTVSPropertyOp24
 70
     0
102
RTVSPropertyOp25
 70
     0
102
RTVSPropertyOp26
 70
     0
102
RTVSPropertyOp27
 70
     0
102
RTVSPropertyOp28
 70
     0
102
RTVSPropertyOp29
 70
     0
102
RTVSPropertyOp30
 70
     0
102
RTVSPropertyOp31
 70
     0
102
RTVSPropertyOp32
 70
     0
  0
XRECORD
  5
415
102
{ACAD_REACTORS
330
414
102
}
330
414
100
AcDbXrecord
280
     1
102
RTVSPropertyOp0
 70
     1
102
RTVSPropertyOp1
 70
     1
102
RTVSPropertyOp2
 70
     1
102
RTVSPropertyOp3
 70
     1
102
RTVSPropertyOp4
 70
     1
102
RTVSPropertyOp5
 70
     1
102
RTVSPropertyOp6
 70
     1
102
RTVSPropertyOp7
 70
     1
102
RTVSPropertyOp8
 70
     1
102
RTVSPropertyOp9
 70
     1
102
RTVSPropertyOp10
 70
     1
102
RTVSPropertyOp11
 70
     1
102
RTVSPropertyOp12
 70
     1
102
RTVSPropertyOp13
 70
     1
102
RTVSPropertyOp14
 70
     1
102
RTVSPropertyOp15
 70
     1
102
RTVSPropertyOp16
 70
     1
102
RTVSPropertyOp17
 70
     1
102
RTVSPropertyOp18
 70
     1
102
RTVSPropertyOp19
 70
     1
102
RTVSPropertyOp20
 70
     1
102
RTVSPropertyOp21
 70
     1
102
RTVSPropertyOp22
 70
     1
102
RTVSPropertyOp23
 70
     1
102
RTVSPropertyOp24
 70
     1
102
RTVSPropertyOp25
 70
     1
102
RTVSPropertyOp26
 70
     1
102
RTVSPropertyOp27
 70
     1
102
RTVSPropertyOp28
 70
     1
102
RTVSPropertyOp29
 70
     1
102
RTVSPropertyOp30
 70
     1
102
RTVSPropertyOp31
 70
     1
102
RTVSPropertyOp32
 70
     1
  0
XRECORD
  5
427
102
{ACAD_REACTORS
330
426
102
}
330
426
100
AcDbXrecord
280
     1
102
RTVSPropertyOp0
 70
     0
102
RTVSPropertyOp1
 70
     0
102
RTVSPropertyOp2
 70
     0
102
RTVSPropertyOp3
 70
     0
102
RTVSPropertyOp4
 70
     0
102
RTVSPropertyOp5
 70
     0
102
RTVSPropertyOp6
 70
     0
102
RTVSPropertyOp7
 70
     0
102
RTVSPropertyOp8
 70
     0
102
RTVSPropertyOp9
 70
     0
102
RTVSPropertyOp10
 70
     0
102
RTVSPropertyOp11
 70
     0
102
RTVSPropertyOp12
 70
     0
102
RTVSPropertyOp13
 70
     0
102
RTVSPropertyOp14
 70
     2
102
RTVSPropertyOp15
 70
     0
102
RTVSPropertyOp16
 70
     0
102
RTVSPropertyOp17
 70
     0
102
RTVSPropertyOp18
 70
     0
102
RTVSPropertyOp19
 70
     0
102
RTVSPropertyOp20
 70
     0
102
RTVSPropertyOp21
 70
     0
102
RTVSPropertyOp22
 70
     0
102
RTVSPropertyOp23
 70
     0
102
RTVSPropertyOp24
 70
     0
102
RTVSPropertyOp25
 70
     0
102
RTVSPropertyOp26
 70
     0
102
RTVSPropertyOp27
 70
     0
102
RTVSPropertyOp28
 70
     0
102
RTVSPropertyOp29
 70
     0
102
RTVSPropertyOp30
 70
     0
102
RTVSPropertyOp31
 70
     0
102
RTVSPropertyOp32
 70
     0
  0
XRECORD
  5
40D
102
{ACAD_REACTORS
330
40C
102
}
330
40C
100
AcDbXrecord
280
     1
102
RTVSPropertyOp0
 70
     1
102
RTVSPropertyOp1
 70
     1
102
RTVSPropertyOp2
 70
     1
102
RTVSPropertyOp3
 70
     1
102
RTVSPropertyOp4
 70
     1
102
RTVSPropertyOp5
 70
     1
102
RTVSPropertyOp6
 70
     1
102
RTVSPropertyOp7
 70
     1
102
RTVSPropertyOp8
 70
     1
102
RTVSPropertyOp9
 70
     1
102
RTVSPropertyOp10
 70
     1
102
RTVSPropertyOp11
 70
     1
102
RTVSPropertyOp12
 70
     1
102
RTVSPropertyOp13
 70
     1
102
RTVSPropertyOp14
 70
     1
102
RTVSPropertyOp15
 70
     1
102
RTVSPropertyOp16
 70
     1
102
RTVSPropertyOp17
 70
     1
102
RTVSPropertyOp18
 70
     1
102
RTVSPropertyOp19
 70
     1
102
RTVSPropertyOp20
 70
     1
102
RTVSPropertyOp21
 70
     1
102
RTVSPropertyOp22
 70
     1
102
RTVSPropertyOp23
 70
     1
102
RTVSPropertyOp24
 70
     1
102
RTVSPropertyOp25
 70
     1
102
RTVSPropertyOp26
 70
     1
102
RTVSPropertyOp27
 70
     1
102
RTVSPropertyOp28
 70
     1
102
RTVSPropertyOp29
 70
     1
102
RTVSPropertyOp30
 70
     1
102
RTVSPropertyOp31
 70
     1
102
RTVSPropertyOp32
 70
     1
  0
XRECORD
  5
423
102
{ACAD_REACTORS
330
422
102
}
330
422
100
AcDbXrecord
280
     1
102
RTVSPropertyOp0
 70
     1
102
RTVSPropertyOp1
 70
     1
102
RTVSPropertyOp2
 70
     1
102
RTVSPropertyOp3
 70
     1
102
RTVSPropertyOp4
 70
     1
102
RTVSPropertyOp5
 70
     1
102
RTVSPropertyOp6
 70
     1
102
RTVSPropertyOp7
 70
     1
102
RTVSPropertyOp8
 70
     1
102
RTVSPropertyOp9
 70
     1
102
RTVSPropertyOp10
 70
     1
102
RTVSPropertyOp11
 70
     1
102
RTVSPropertyOp12
 70
     1
102
RTVSPropertyOp13
 70
     1
102
RTVSPropertyOp14
 70
     1
102
RTVSPropertyOp15
 70
     1
102
RTVSPropertyOp16
 70
     1
102
RTVSPropertyOp17
 70
     1
102
RTVSPropertyOp18
 70
     1
102
RTVSPropertyOp19
 70
     1
102
RTVSPropertyOp20
 70
     1
102
RTVSPropertyOp21
 70
     1
102
RTVSPropertyOp22
 70
     1
102
RTVSPropertyOp23
 70
     1
102
RTVSPropertyOp24
 70
     1
102
RTVSPropertyOp25
 70
     1
102
RTVSPropertyOp26
 70
     1
102
RTVSPropertyOp27
 70
     1
102
RTVSPropertyOp28
 70
     1
102
RTVSPropertyOp29
 70
     1
102
RTVSPropertyOp30
 70
     1
102
RTVSPropertyOp31
 70
     1
102
RTVSPropertyOp32
 70
     1
  0
XRECORD
  5
421
102
{ACAD_REACTORS
330
420
102
}
330
420
100
AcDbXrecord
280
     1
102
RTVSPropertyOp0
 70
     1
102
RTVSPropertyOp1
 70
     1
102
RTVSPropertyOp2
 70
     1
102
RTVSPropertyOp3
 70
     1
102
RTVSPropertyOp4
 70
     1
102
RTVSPropertyOp5
 70
     1
102
RTVSPropertyOp6
 70
     1
102
RTVSPropertyOp7
 70
     1
102
RTVSPropertyOp8
 70
     1
102
RTVSPropertyOp9
 70
     1
102
RTVSPropertyOp10
 70
     1
102
RTVSPropertyOp11
 70
     1
102
RTVSPropertyOp12
 70
     1
102
RTVSPropertyOp13
 70
     1
102
RTVSPropertyOp14
 70
     1
102
RTVSPropertyOp15
 70
     1
102
RTVSPropertyOp16
 70
     1
102
RTVSPropertyOp17
 70
     1
102
RTVSPropertyOp18
 70
     1
102
RTVSPropertyOp19
 70
     1
102
RTVSPropertyOp20
 70
     1
102
RTVSPropertyOp21
 70
     1
102
RTVSPropertyOp22
 70
     1
102
RTVSPropertyOp23
 70
     1
102
RTVSPropertyOp24
 70
     1
102
RTVSPropertyOp25
 70
     1
102
RTVSPropertyOp26
 70
     1
102
RTVSPropertyOp27
 70
     1
102
RTVSPropertyOp28
 70
     1
102
RTVSPropertyOp29
 70
     1
102
RTVSPropertyOp30
 70
     1
102
RTVSPropertyOp31
 70
     1
102
RTVSPropertyOp32
 70
     1
  0
XRECORD
  5
41B
102
{ACAD_REACTORS
330
41A
102
}
330
41A
100
AcDbXrecord
280
     1
102
RTVSPropertyOp0
 70
     1
102
RTVSPropertyOp1
 70
     1
102
RTVSPropertyOp2
 70
     1
102
RTVSPropertyOp3
 70
     1
102
RTVSPropertyOp4
 70
     1
102
RTVSPropertyOp5
 70
     1
102
RTVSPropertyOp6
 70
     1
102
RTVSPropertyOp7
 70
     1
102
RTVSPropertyOp8
 70
     1
102
RTVSPropertyOp9
 70
     1
102
RTVSPropertyOp10
 70
     1
102
RTVSPropertyOp11
 70
     1
102
RTVSPropertyOp12
 70
     1
102
RTVSPropertyOp13
 70
     1
102
RTVSPropertyOp14
 70
     1
102
RTVSPropertyOp15
 70
     1
102
RTVSPropertyOp16
 70
     1
102
RTVSPropertyOp17
 70
     1
102
RTVSPropertyOp18
 70
     1
102
RTVSPropertyOp19
 70
     1
102
RTVSPropertyOp20
 70
     1
102
RTVSPropertyOp21
 70
     1
102
RTVSPropertyOp22
 70
     1
102
RTVSPropertyOp23
 70
     1
102
RTVSPropertyOp24
 70
     1
102
RTVSPropertyOp25
 70
     1
102
RTVSPropertyOp26
 70
     1
102
RTVSPropertyOp27
 70
     1
102
RTVSPropertyOp28
 70
     1
102
RTVSPropertyOp29
 70
     1
102
RTVSPropertyOp30
 70
     1
102
RTVSPropertyOp31
 70
     1
102
RTVSPropertyOp32
 70
     1
  0
XRECORD
  5
41D
102
{ACAD_REACTORS
330
41C
102
}
330
41C
100
AcDbXrecord
280
     1
102
RTVSPropertyOp0
 70
     1
102
RTVSPropertyOp1
 70
     1
102
RTVSPropertyOp2
 70
     1
102
RTVSPropertyOp3
 70
     1
102
RTVSPropertyOp4
 70
     1
102
RTVSPropertyOp5
 70
     1
102
RTVSPropertyOp6
 70
     1
102
RTVSPropertyOp7
 70
     1
102
RTVSPropertyOp8
 70
     1
102
RTVSPropertyOp9
 70
     1
102
RTVSPropertyOp10
 70
     1
102
RTVSPropertyOp11
 70
     1
102
RTVSPropertyOp12
 70
     1
102
RTVSPropertyOp13
 70
     1
102
RTVSPropertyOp14
 70
     1
102
RTVSPropertyOp15
 70
     1
102
RTVSPropertyOp16
 70
     1
102
RTVSPropertyOp17
 70
     1
102
RTVSPropertyOp18
 70
     1
102
RTVSPropertyOp19
 70
     1
102
RTVSPropertyOp20
 70
     1
102
RTVSPropertyOp21
 70
     1
102
RTVSPropertyOp22
 70
     1
102
RTVSPropertyOp23
 70
     1
102
RTVSPropertyOp24
 70
     1
102
RTVSPropertyOp25
 70
     1
102
RTVSPropertyOp26
 70
     1
102
RTVSPropertyOp27
 70
     1
102
RTVSPropertyOp28
 70
     1
102
RTVSPropertyOp29
 70
     1
102
RTVSPropertyOp30
 70
     1
102
RTVSPropertyOp31
 70
     1
102
RTVSPropertyOp32
 70
     1
  0
XRECORD
  5
413
102
{ACAD_REACTORS
330
412
102
}
330
412
100
AcDbXrecord
280
     1
102
RTVSPropertyOp0
 70
     1
102
RTVSPropertyOp1
 70
     1
102
RTVSPropertyOp2
 70
     1
102
RTVSPropertyOp3
 70
     1
102
RTVSPropertyOp4
 70
     1
102
RTVSPropertyOp5
 70
     1
102
RTVSPropertyOp6
 70
     1
102
RTVSPropertyOp7
 70
     1
102
RTVSPropertyOp8
 70
     1
102
RTVSPropertyOp9
 70
     1
102
RTVSPropertyOp10
 70
     1
102
RTVSPropertyOp11
 70
     1
102
RTVSPropertyOp12
 70
     1
102
RTVSPropertyOp13
 70
     1
102
RTVSPropertyOp14
 70
     1
102
RTVSPropertyOp15
 70
     1
102
RTVSPropertyOp16
 70
     1
102
RTVSPropertyOp17
 70
     1
102
RTVSPropertyOp18
 70
     1
102
RTVSPropertyOp19
 70
     1
102
RTVSPropertyOp20
 70
     1
102
RTVSPropertyOp21
 70
     1
102
RTVSPropertyOp22
 70
     1
102
RTVSPropertyOp23
 70
     1
102
RTVSPropertyOp24
 70
     1
102
RTVSPropertyOp25
 70
     1
102
RTVSPropertyOp26
 70
     1
102
RTVSPropertyOp27
 70
     1
102
RTVSPropertyOp28
 70
     1
102
RTVSPropertyOp29
 70
     1
102
RTVSPropertyOp30
 70
     1
102
RTVSPropertyOp31
 70
     1
102
RTVSPropertyOp32
 70
     1
  0
XRECORD
  5
407
102
{ACAD_REACTORS
330
406
102
}
330
406
100
AcDbXrecord
280
     1
102
RTVSPropertyOp0
 70
     1
102
RTVSPropertyOp1
 70
     1
102
RTVSPropertyOp2
 70
     1
102
RTVSPropertyOp3
 70
     1
102
RTVSPropertyOp4
 70
     1
102
RTVSPropertyOp5
 70
     1
102
RTVSPropertyOp6
 70
     1
102
RTVSPropertyOp7
 70
     1
102
RTVSPropertyOp8
 70
     1
102
RTVSPropertyOp9
 70
     1
102
RTVSPropertyOp10
 70
     1
102
RTVSPropertyOp11
 70
     1
102
RTVSPropertyOp12
 70
     1
102
RTVSPropertyOp13
 70
     1
102
RTVSPropertyOp14
 70
     1
102
RTVSPropertyOp15
 70
     1
102
RTVSPropertyOp16
 70
     1
102
RTVSPropertyOp17
 70
     1
102
RTVSPropertyOp18
 70
     1
102
RTVSPropertyOp19
 70
     1
102
RTVSPropertyOp20
 70
     1
102
RTVSPropertyOp21
 70
     1
102
RTVSPropertyOp22
 70
     1
102
RTVSPropertyOp23
 70
     1
102
RTVSPropertyOp24
 70
     1
102
RTVSPropertyOp25
 70
     1
102
RTVSPropertyOp26
 70
     1
102
RTVSPropertyOp27
 70
     1
102
RTVSPropertyOp28
 70
     1
102
RTVSPropertyOp29
 70
     1
102
RTVSPropertyOp30
 70
     1
102
RTVSPropertyOp31
 70
     1
102
RTVSPropertyOp32
 70
     1
  0
XRECORD
  5
41F
102
{ACAD_REACTORS
330
41E
102
}
330
41E
100
AcDbXrecord
280
     1
102
RTVSPropertyOp0
 70
     1
102
RTVSPropertyOp1
 70
     1
102
RTVSPropertyOp2
 70
     1
102
RTVSPropertyOp3
 70
     1
102
RTVSPropertyOp4
 70
     1
102
RTVSPropertyOp5
 70
     1
102
RTVSPropertyOp6
 70
     1
102
RTVSPropertyOp7
 70
     1
102
RTVSPropertyOp8
 70
     1
102
RTVSPropertyOp9
 70
     1
102
RTVSPropertyOp10
 70
     1
102
RTVSPropertyOp11
 70
     1
102
RTVSPropertyOp12
 70
     1
102
RTVSPropertyOp13
 70
     1
102
RTVSPropertyOp14
 70
     1
102
RTVSPropertyOp15
 70
     1
102
RTVSPropertyOp16
 70
     1
102
RTVSPropertyOp17
 70
     1
102
RTVSPropertyOp18
 70
     1
102
RTVSPropertyOp19
 70
     1
102
RTVSPropertyOp20
 70
     1
102
RTVSPropertyOp21
 70
     1
102
RTVSPropertyOp22
 70
     1
102
RTVSPropertyOp23
 70
     1
102
RTVSPropertyOp24
 70
     1
102
RTVSPropertyOp25
 70
     1
102
RTVSPropertyOp26
 70
     1
102
RTVSPropertyOp27
 70
     1
102
RTVSPropertyOp28
 70
     1
102
RTVSPropertyOp29
 70
     1
102
RTVSPropertyOp30
 70
     1
102
RTVSPropertyOp31
 70
     1
102
RTVSPropertyOp32
 70
     1
  0
ENDSEC
  0
EOF
