  0
SECTION
  2
HEADER
  9
$ACADVER
  1
AC1018
  9
$ACADMAINTVER
 70
   104
  9
$DWGCODEPAGE
  3
ANSI_1252
  9
$LASTSAVEDBY
  1
jgayle
  9
$INSBASE
 10
0.0
 20
0.0
 30
0.0
  9
$EXTMIN
 10
1491.399251067813
 20
1972.368484371474
 30
0.0
  9
$EXTMAX
 10
1535.161903583765
 20
2025.291017034843
 30
0.0
  9
$LIMMIN
 10
0.0
 20
0.0
  9
$LIMMAX
 10
12.0
 20
9.0
  9
$ORTHOMODE
 70
     0
  9
$REGENMODE
 70
     1
  9
$FILLMODE
 70
     1
  9
$QTEXTMODE
 70
     0
  9
$MIRRTEXT
 70
     0
  9
$LTSCALE
 40
1.0
  9
$ATTMODE
 70
     1
  9
$TEXTSIZE
 40
4.478001636358612
  9
$TRACEWID
 40
0.05
  9
$TEXTSTYLE
  7
Standard
  9
$CLAYER
  8
0
  9
$CELTYPE
  6
ByLayer
  9
$CECOLOR
 62
   256
  9
$CELTSCALE
 40
1.0
  9
$DISPSILH
 70
     0
  9
$DIMSCALE
 40
1.0
  9
$DIMASZ
 40
0.875
  9
$DIMEXO
 40
0.0625
  9
$DIMDLI
 40
0.38
  9
$DIMRND
 40
0.0
  9
$DIMDLE
 40
0.0
  9
$DIMEXE
 40
0.0625
  9
$DIMTP
 40
0.0
  9
$DIMTM
 40
0.0
  9
$DIMTXT
 40
0.875
  9
$DIMCEN
 40
0.09
  9
$DIMTSZ
 40
0.0
  9
$DIMTOL
 70
     0
  9
$DIMLIM
 70
     0
  9
$DIMTIH
 70
     1
  9
$DIMTOH
 70
     1
  9
$DIMSE1
 70
     0
  9
$DIMSE2
 70
     0
  9
$DIMTAD
 70
     0
  9
$DIMZIN
 70
     0
  9
$DIMBLK
  1

  9
$DIMASO
 70
     1
  9
$DIMSHO
 70
     1
  9
$DIMPOST
  1
"
  9
$DIMAPOST
  1
mm
  9
$DIMALT
 70
     1
  9
$DIMALTD
 70
     0
  9
$DIMALTF
 40
25.4
  9
$DIMLFAC
 40
1.0
  9
$DIMTOFL
 70
     0
  9
$DIMTVP
 40
0.0
  9
$DIMTIX
 70
     0
  9
$DIMSOXD
 70
     0
  9
$DIMSAH
 70
     0
  9
$DIMBLK1
  1

  9
$DIMBLK2
  1

  9
$DIMSTYLE
  2
spec dim1
  9
$DIMCLRD
 70
     0
  9
$DIMCLRE
 70
   256
  9
$DIMCLRT
 70
     0
  9
$DIMTFAC
 40
1.0
  9
$DIMGAP
 40
0.09
  9
$DIMJUST
 70
     0
  9
$DIMSD1
 70
     0
  9
$DIMSD2
 70
     0
  9
$DIMTOLJ
 70
     1
  9
$DIMTZIN
 70
     0
  9
$DIMALTZ
 70
     0
  9
$DIMALTTZ
 70
     0
  9
$DIMUPT
 70
     0
  9
$DIMDEC
 70
     4
  9
$DIMTDEC
 70
     4
  9
$DIMALTU
 70
     2
  9
$DIMALTTD
 70
     0
  9
$DIMTXSTY
  7
Standard
  9
$DIMAUNIT
 70
     0
  9
$DIMADEC
 70
     0
  9
$DIMALTRND
 40
0.0
  9
$DIMAZIN
 70
     0
  9
$DIMDSEP
 70
    46
  9
$DIMATFIT
 70
     3
  9
$DIMFRAC
 70
     2
  9
$DIMLDRBLK
  1

  9
$DIMLUNIT
 70
     5
  9
$DIMLWD
 70
    -1
  9
$DIMLWE
 70
    -1
  9
$DIMTMOVE
 70
     0
  9
$LUNITS
 70
     2
  9
$LUPREC
 70
     4
  9
$SKETCHINC
 40
0.1
  9
$FILLETRAD
 40
0.0
  9
$AUNITS
 70
     0
  9
$AUPREC
 70
     0
  9
$MENU
  1
.
  9
$ELEVATION
 40
0.0
  9
$PELEVATION
 40
0.0
  9
$THICKNESS
 40
0.0
  9
$LIMCHECK
 70
     0
  9
$CHAMFERA
 40
0.0
  9
$CHAMFERB
 40
0.0726924715991377
  9
$CHAMFERC
 40
0.0
  9
$CHAMFERD
 40
0.0
  9
$SKPOLY
 70
     0
  9
$TDCREATE
 40
2455037.506831656
  9
$TDUCREATE
 40
2455037.673498322
  9
$TDUPDATE
 40
2456483.396999988
  9
$TDUUPDATE
 40
2456483.563666655
  9
$TDINDWG
 40
1.2065650926
  9
$TDUSRTIMER
 40
1.2065600231
  9
$USRTIMER
 70
     1
  9
$ANGBASE
 50
0.0
  9
$ANGDIR
 70
     0
  9
$PDMODE
 70
     0
  9
$PDSIZE
 40
0.0
  9
$PLINEWID
 40
0.0
  9
$SPLFRAME
 70
     0
  9
$SPLINETYPE
 70
     6
  9
$SPLINESEGS
 70
     8
  9
$HANDSEED
  5
DFE7
  9
$SURFTAB1
 70
     6
  9
$SURFTAB2
 70
     6
  9
$SURFTYPE
 70
     6
  9
$SURFU
 70
     6
  9
$SURFV
 70
     6
  9
$UCSBASE
  2

  9
$UCSNAME
  2

  9
$UCSORG
 10
0.0
 20
0.0
 30
0.0
  9
$UCSXDIR
 10
1.0
 20
0.0
 30
0.0
  9
$UCSYDIR
 10
0.0
 20
1.0
 30
0.0
  9
$UCSORTHOREF
  2

  9
$UCSORTHOVIEW
 70
     0
  9
$UCSORGTOP
 10
0.0
 20
0.0
 30
0.0
  9
$UCSORGBOTTOM
 10
0.0
 20
0.0
 30
0.0
  9
$UCSORGLEFT
 10
0.0
 20
0.0
 30
0.0
  9
$UCSORGRIGHT
 10
0.0
 20
0.0
 30
0.0
  9
$UCSORGFRONT
 10
0.0
 20
0.0
 30
0.0
  9
$UCSORGBACK
 10
0.0
 20
0.0
 30
0.0
  9
$PUCSBASE
  2

  9
$PUCSNAME
  2

  9
$PUCSORG
 10
0.0
 20
0.0
 30
0.0
  9
$PUCSXDIR
 10
1.0
 20
0.0
 30
0.0
  9
$PUCSYDIR
 10
0.0
 20
1.0
 30
0.0
  9
$PUCSORTHOREF
  2

  9
$PUCSORTHOVIEW
 70
     0
  9
$PUCSORGTOP
 10
0.0
 20
0.0
 30
0.0
  9
$PUCSORGBOTTOM
 10
0.0
 20
0.0
 30
0.0
  9
$PUCSORGLEFT
 10
0.0
 20
0.0
 30
0.0
  9
$PUCSORGRIGHT
 10
0.0
 20
0.0
 30
0.0
  9
$PUCSORGFRONT
 10
0.0
 20
0.0
 30
0.0
  9
$PUCSORGBACK
 10
0.0
 20
0.0
 30
0.0
  9
$USERI1
 70
     0
  9
$USERI2
 70
     0
  9
$USERI3
 70
     0
  9
$USERI4
 70
     0
  9
$USERI5
 70
     0
  9
$USERR1
 40
0.0
  9
$USERR2
 40
0.0
  9
$USERR3
 40
0.0
  9
$USERR4
 40
0.0
  9
$USERR5
 40
0.0
  9
$WORLDVIEW
 70
     1
  9
$SHADEDGE
 70
     3
  9
$SHADEDIF
 70
    70
  9
$TILEMODE
 70
     1
  9
$MAXACTVP
 70
    64
  9
$PINSBASE
 10
0.0
 20
0.0
 30
0.0
  9
$PLIMCHECK
 70
     0
  9
$PEXTMIN
 10
1.07500002421732
 20
0.8249999641433474
 30
0.0
  9
$PEXTMAX
 10
9.675000217955881
 20
7.424999677290128
 30
0.0
  9
$PLIMMIN
 10
-0.1249995194082185
 20
-0.1249999981226883
  9
$PLIMMAX
 10
10.87500024029589
 20
8.37499976158142
  9
$UNITMODE
 70
     0
  9
$VISRETAIN
 70
     1
  9
$PLINEGEN
 70
     0
  9
$PSLTSCALE
 70
     1
  9
$TREEDEPTH
 70
  3020
  9
$CMLSTYLE
  2
Standard
  9
$CMLJUST
 70
     0
  9
$CMLSCALE
 40
1.0
  9
$PROXYGRAPHICS
 70
     1
  9
$MEASUREMENT
 70
     0
  9
$CELWEIGHT
370
    -1
  9
$ENDCAPS
280
     0
  9
$JOINSTYLE
280
     0
  9
$LWDISPLAY
290
     0
  9
$INSUNITS
 70
     1
  9
$HYPERLINKBASE
  1

  9
$STYLESHEET
  1

  9
$XEDIT
290
     1
  9
$CEPSNTYPE
380
     0
  9
$PSTYLEMODE
290
     1
  9
$FINGERPRINTGUID
  2
{A55D1E79-140B-4AA1-A5FA-F48EE007CD73}
  9
$VERSIONGUID
  2
{1EDAF0A7-9706-47F2-88AA-681D382A8108}
  9
$EXTNAMES
290
     1
  9
$PSVPSCALE
 40
0.0
  9
$OLESTARTUP
290
     0
  9
$SORTENTS
280
   127
  9
$INDEXCTL
280
     0
  9
$HIDETEXT
280
     1
  9
$XCLIPFRAME
290
     0
  9
$HALOGAP
280
     0
  9
$OBSCOLOR
 70
   257
  9
$OBSLTYPE
280
     0
  9
$INTERSECTIONDISPLAY
280
     0
  9
$INTERSECTIONCOLOR
 70
   257
  9
$DIMASSOC
280
     2
  9
$PROJECTNAME
  1

  0
ENDSEC
  0
SECTION
  2
CLASSES
  0
CLASS
  1
ACDBDICTIONARYWDFLT
  2
AcDbDictionaryWithDefault
  3
ObjectDBX Classes
 90
        0
 91
        1
280
     0
281
     0
  0
CLASS
  1
DICTIONARYVAR
  2
AcDbDictionaryVar
  3
ObjectDBX Classes
 90
        0
 91
        7
280
     0
281
     0
  0
CLASS
  1
TABLESTYLE
  2
AcDbTableStyle
  3
ObjectDBX Classes
 90
     4095
 91
        1
280
     0
281
     0
  0
CLASS
  1
SORTENTSTABLE
  2
AcDbSortentsTable
  3
ObjectDBX Classes
 90
        0
 91
        6
280
     0
281
     0
  0
CLASS
  1
DIMASSOC
  2
AcDbDimAssoc
  3
"AcDbDimAssoc|Product Desc:     AcDim ARX App For Dimension|Company:          Autodesk, Inc.|WEB Address:      www.autodesk.com"
 90
        0
 91
        1
280
     0
281
     0
  0
CLASS
  1
MATERIAL
  2
AcDbMaterial
  3
ObjectDBX Classes
 90
     1153
 91
        3
280
     0
281
     0
  0
CLASS
  1
PLOTSETTINGS
  2
AcDbPlotSettings
  3
ObjectDBX Classes
 90
        0
 91
        1
280
     0
281
     0
  0
CLASS
  1
VISUALSTYLE
  2
AcDbVisualStyle
  3
ObjectDBX Classes
 90
     4095
 91
       24
280
     0
281
     0
  0
CLASS
  1
SCALE
  2
AcDbScale
  3
ObjectDBX Classes
 90
     1153
 91
       17
280
     0
281
     0
  0
CLASS
  1
MLEADERSTYLE
  2
AcDbMLeaderStyle
  3
ACDB_MLEADERSTYLE_CLASS
 90
     4095
 91
        1
280
     0
281
     0
  0
CLASS
  1
CELLSTYLEMAP
  2
AcDbCellStyleMap
  3
ObjectDBX Classes
 90
     1152
 91
        1
280
     0
281
     0
  0
ENDSEC
  0
SECTION
  2
TABLES
  0
TABLE
  2
VPORT
  5
8
330
0
100
AcDbSymbolTable
 70
     1
  0
VPORT
  5
DF4E
330
8
100
AcDbSymbolTableRecord
100
AcDbViewportTableRecord
  2
*Active
 70
     0
 10
0.0
 20
0.0
 11
1.0
 21
1.0
 12
1531.056134271192
 22
2002.286302587216
 13
0.0
 23
0.0
 14
0.5
 24
0.5
 15
0.5
 25
0.5
 16
0.0
 26
0.0
 36
1.0
 17
0.0
 27
0.0
 37
0.0
 40
83.82654187233406
 41
1.973111395646606
 42
50.0
 43
0.0
 44
0.0
 50
0.0
 51
0.0
 71
     0
 72
 20000
 73
     1
 74
     3
 75
     0
 76
     0
 77
     0
 78
     0
281
     0
 65
     1
110
0.0
120
0.0
130
0.0
111
1.0
121
0.0
131
0.0
112
0.0
122
1.0
132
0.0
 79
     0
146
0.0
1001
ACAD_NAV_VCDISPLAY
1070
     3
  0
ENDTAB
  0
TABLE
  2
LTYPE
  5
5
330
0
100
AcDbSymbolTable
 70
    15
  0
LTYPE
  5
14
330
5
100
AcDbSymbolTableRecord
100
AcDbLinetypeTableRecord
  2
ByBlock
 70
     0
  3

 72
    65
 73
     0
 40
0.0
  0
LTYPE
  5
15
330
5
100
AcDbSymbolTableRecord
100
AcDbLinetypeTableRecord
  2
ByLayer
 70
     0
  3

 72
    65
 73
     0
 40
0.0
  0
LTYPE
  5
16
330
5
100
AcDbSymbolTableRecord
100
AcDbLinetypeTableRecord
  2
Continuous
 70
     0
  3
Solid line
 72
    65
 73
     0
 40
0.0
  0
LTYPE
  5
14F
330
5
100
AcDbSymbolTableRecord
100
AcDbLinetypeTableRecord
  2
DASHED
 70
     0
  3
-- -- -- -- -- -- -- -- -- --
 72
    65
 73
     2
 40
3.0
 49
2.0
 74
     0
 49
-1.0
 74
     0
  0
LTYPE
  5
150
330
5
100
AcDbSymbolTableRecord
100
AcDbLinetypeTableRecord
  2
\U+7834\U+7DDA
 70
     0
  3
- - - -
 72
    65
 73
     2
 40
1.25
 49
0.5
 74
     0
 49
-0.75
 74
     0
1001
AcadStringInfo
1000
MIFCodePage
1070
     1
  0
LTYPE
  5
151
330
5
100
AcDbSymbolTableRecord
100
AcDbLinetypeTableRecord
  2
\U+4E2D\U+5FC3\U+7DDA
 70
     0
  3
-.-.-
 72
    65
 73
     4
 40
5.0
 49
3.0
 74
     0
 49
-0.75
 74
     0
 49
0.5
 74
     0
 49
-0.75
 74
     0
1001
AcadStringInfo
1000
MIFCodePage
1070
     1
  0
LTYPE
  5
43A9
330
5
100
AcDbSymbolTableRecord
100
AcDbLinetypeTableRecord
  2
ACAD_ISO04W100
 70
     0
  3
ISO long-dash dot ____ . ____ . ____ . ____ . _
 72
    65
 73
     4
 40
30.5
 49
24.0
 74
     0
 49
-3.0
 74
     0
 49
0.5
 74
     0
 49
-3.0
 74
     0
  0
LTYPE
  5
43AA
330
5
100
AcDbSymbolTableRecord
100
AcDbLinetypeTableRecord
  2
CENTERX2
 70
     0
  3
Center (2x) ________  __  ________  __  _____
 72
    65
 73
     4
 40
4.0
 49
2.5
 74
     0
 49
-0.5
 74
     0
 49
0.5
 74
     0
 49
-0.5
 74
     0
  0
LTYPE
  5
43AB
330
5
100
AcDbSymbolTableRecord
100
AcDbLinetypeTableRecord
  2
ACAD_ISO03W100
 70
     0
  3
ISO dash space __    __    __    __    __    __
 72
    65
 73
     2
 40
30.0
 49
12.0
 74
     0
 49
-18.0
 74
     0
  0
LTYPE
  5
43AC
330
5
100
AcDbSymbolTableRecord
100
AcDbLinetypeTableRecord
  2
HIDDEN
 70
     0
  3
Hidden __ __ __ __ __ __ __ __ __ __ __ __ __ _
 72
    65
 73
     2
 40
9.524999999999998
 49
6.349999999999999
 74
     0
 49
-3.174999999999999
 74
     0
  0
LTYPE
  5
43AD
330
5
100
AcDbSymbolTableRecord
100
AcDbLinetypeTableRecord
  2
CENTER
 70
     0
  3
Center ____ _ ____ _ ____ _ ____ _ ____ _ ____
 72
    65
 73
     4
 40
50.8
 49
31.75
 74
     0
 49
-6.349999999999999
 74
     0
 49
6.349999999999999
 74
     0
 49
-6.349999999999999
 74
     0
  0
LTYPE
  5
43AE
330
5
100
AcDbSymbolTableRecord
100
AcDbLinetypeTableRecord
  2
AM_ISO08W050
 70
     0
  3
____ . ____ . ____ . ____ . ____ . ____ . ____
 72
    65
 73
     4
 40
18.0
 49
12.0
 74
     0
 49
-1.5
 74
     0
 49
3.0
 74
     0
 49
-1.5
 74
     0
  0
LTYPE
  5
43AF
330
5
100
AcDbSymbolTableRecord
100
AcDbLinetypeTableRecord
  2
CENTER2
 70
     0
  3
Center (.5x) ___ _ ___ _ ___ _ ___ _ ___ _ ___
 72
    65
 73
     4
 40
28.575
 49
19.05
 74
     0
 49
-3.174999999999998
 74
     0
 49
3.174999999999998
 74
     0
 49
-3.174999999999998
 74
     0
  0
LTYPE
  5
43B0
330
5
100
AcDbSymbolTableRecord
100
AcDbLinetypeTableRecord
  2
Amzigzag2
 70
     0
  3
/\/-/\/-/\/-/\/-/\/-/\/
 72
    65
 73
     2
 40
0.4401
 49
0.0001
 74
     4
 75
   136
340
43D2
 46
0.0016
 50
0.0
 44
0.0
 45
0.0
 49
-0.4400000000000003
 74
     0
  0
LTYPE
  5
741A
330
5
100
AcDbSymbolTableRecord
100
AcDbLinetypeTableRecord
  2
PHANTOM
 70
     0
  3
----- - - ----- - - ----- - -
 72
    65
 73
     6
 40
12.0
 49
7.0
 74
     0
 49
-1.0
 74
     0
 49
1.0
 74
     0
 49
-1.0
 74
     0
 49
1.0
 74
     0
 49
-1.0
 74
     0
  0
LTYPE
  5
D5BD
330
5
100
AcDbSymbolTableRecord
100
AcDbLinetypeTableRecord
  2
DASH_CENTER
 70
     0
  3
Dash_Center
 72
    65
 73
     4
 40
14.0
 49
11.0
 74
     0
 49
-1.0
 74
     0
 49
1.0
 74
     0
 49
-1.0
 74
     0
  0
LTYPE
  5
D5BE
330
5
100
AcDbSymbolTableRecord
100
AcDbLinetypeTableRecord
  2
CENTER_DASH_DASH
 70
     0
  3
Center_Dash_Dash
 72
    65
 73
     6
 40
14.0
 49
9.0
 74
     0
 49
-1.0
 74
     0
 49
1.0
 74
     0
 49
-1.0
 74
     0
 49
1.0
 74
     0
 49
-1.0
 74
     0
  0
ENDTAB
  0
TABLE
  2
LAYER
  5
2
102
{ACAD_XDICTIONARY
360
97
102
}
330
0
100
AcDbSymbolTable
 70
    19
  0
LAYER
  5
10
330
2
100
AcDbSymbolTableRecord
100
AcDbLayerTableRecord
  2
0
 70
     0
 62
     7
  6
Continuous
370
    -3
390
F
  0
LAYER
  5
9F
330
2
100
AcDbSymbolTableRecord
100
AcDbLayerTableRecord
  2
Defpoints
 70
     0
 62
     7
  6
Continuous
290
     0
370
    -3
390
F
  0
LAYER
  5
152
330
2
100
AcDbSymbolTableRecord
100
AcDbLayerTableRecord
  2
product
 70
     0
 62
     7
  6
Continuous
370
    18
390
F
  0
LAYER
  5
153
330
2
100
AcDbSymbolTableRecord
100
AcDbLayerTableRecord
  2
dimensions
 70
     0
 62
     7
  6
Continuous
370
     9
390
F
1001
AcAecLayerStandard
1000

1000

  0
LAYER
  5
43B1
330
2
100
AcDbSymbolTableRecord
100
AcDbLayerTableRecord
  2
CENTER
 70
     0
 62
     6
  6
ACAD_ISO04W100
370
    -3
390
F
  0
LAYER
  5
43B4
330
2
100
AcDbSymbolTableRecord
100
AcDbLayerTableRecord
  2
\U+6807\U+6CE8
 70
     0
 62
     6
  6
Continuous
370
    -3
390
F
1001
AcadStringInfo
1000
MIFCodePage
1070
     5
  0
LAYER
  5
43B7
330
2
100
AcDbSymbolTableRecord
100
AcDbLayerTableRecord
  2
1710
 70
     0
 62
     7
  6
Continuous
370
    -3
390
F
  0
LAYER
  5
43BA
330
2
100
AcDbSymbolTableRecord
100
AcDbLayerTableRecord
  2
\U+4E0A\U+578B\U+7EBF
 70
     0
 62
     7
  6
Continuous
370
    -3
390
F
1001
AcadStringInfo
1000
MIFCodePage
1070
     5
  0
LAYER
  5
43BD
330
2
100
AcDbSymbolTableRecord
100
AcDbLayerTableRecord
  2
\U+56FE\U+5C421
 70
     0
 62
     7
  6
Continuous
370
    -3
390
F
1001
AcadStringInfo
1000
MIFCodePage
1070
     5
  0
LAYER
  5
43C0
330
2
100
AcDbSymbolTableRecord
100
AcDbLayerTableRecord
  2
\U+56FE\U+5C422
 70
     0
 62
   170
  6
CENTER
370
    -3
390
F
1001
AcadStringInfo
1000
MIFCodePage
1070
     5
  0
LAYER
  5
43C3
330
2
100
AcDbSymbolTableRecord
100
AcDbLayerTableRecord
  2
epron
 70
     0
 62
     7
  6
Continuous
370
    -3
390
F
  0
LAYER
  5
43C6
330
2
100
AcDbSymbolTableRecord
100
AcDbLayerTableRecord
  2
BANE_KANAGU
 70
     0
 62
     1
  6
Continuous
370
    -3
390
F
  0
LAYER
  5
43C9
330
2
100
AcDbSymbolTableRecord
100
AcDbLayerTableRecord
  2
AM_7
 70
     0
 62
     4
  6
AM_ISO08W050
370
    25
390
F
  0
LAYER
  5
43CC
330
2
100
AcDbSymbolTableRecord
100
AcDbLayerTableRecord
  2
AM_INV
 70
     0
 62
   253
  6
Continuous
370
     0
390
F
  0
LAYER
  5
43CF
330
2
100
AcDbSymbolTableRecord
100
AcDbLayerTableRecord
  2
\U+88D9\U+677F
 70
     0
 62
   255
  6
Continuous
370
    -3
390
F
1001
AcadStringInfo
1000
MIFCodePage
1070
     5
  0
LAYER
  5
D5BF
330
2
100
AcDbSymbolTableRecord
100
AcDbLayerTableRecord
  2
1
 70
     0
 62
     7
  6
Continuous
370
    -3
390
F
  0
LAYER
  5
D79C
330
2
100
AcDbSymbolTableRecord
100
AcDbLayerTableRecord
  2
\U+6C34\U+6813
 70
     0
 62
     7
  6
Continuous
370
    -3
390
F
1001
AcadStringInfo
1000
MIFCodePage
1070
     1
  0
LAYER
  5
D79D
330
2
100
AcDbSymbolTableRecord
100
AcDbLayerTableRecord
  2
\U+30DC\U+30A6\U+30EB
 70
     0
 62
     7
  6
Continuous
370
    -3
390
F
1001
AcadStringInfo
1000
MIFCodePage
1070
     1
  0
LAYER
  5
D79E
330
2
100
AcDbSymbolTableRecord
100
AcDbLayerTableRecord
  2
\U+6392\U+6C34\U+91D1\U+5177
 70
     0
 62
     7
  6
Continuous
370
    -3
390
F
1001
AcadStringInfo
1000
MIFCodePage
1070
     1
  0
ENDTAB
  0
TABLE
  2
STYLE
  5
3
330
0
100
AcDbSymbolTable
 70
     8
  0
STYLE
  5
11
330
3
100
AcDbSymbolTableRecord
100
AcDbTextStyleTableRecord
  2
Standard
 70
     0
 40
0.0
 41
1.0
 50
0.0
 71
     0
 42
4.478001636358612
  3
arial.ttf
  4

1001
ACAD
1000
Arial
1071
       34
  0
STYLE
  5
43D2
330
3
100
AcDbSymbolTableRecord
100
AcDbTextStyleTableRecord
  2

 70
     1
 40
0.0
 41
1.0
 50
0.0
 71
     0
 42
6.0
  3
genltshp.shx
  4

  0
STYLE
  5
43D3
330
3
100
AcDbSymbolTableRecord
100
AcDbTextStyleTableRecord
  2
\U+6837\U+5F0F 5
 70
     0
 40
3.0
 41
1.0
 50
0.0
 71
     0
 42
3.0
  3
SimSun.ttf
  4

1001
ACAD
1000
SimSun
1071
    34306
1001
AcadStringInfo
1000
MIFCodePage
1070
     5
  0
STYLE
  5
CB32
330
3
100
AcDbSymbolTableRecord
100
AcDbTextStyleTableRecord
  2
SLDTEXTSTYLE0
 70
     0
 40
0.0
 41
0.75
 50
0.0
 71
     0
 42
0.2
  3
TXT
  4

  0
STYLE
  5
CD6D
330
3
100
AcDbSymbolTableRecord
100
AcDbTextStyleTableRecord
  2
border text
 70
     0
 40
0.0
 41
1.0
 50
0.0
 71
     0
 42
0.2
  3
arialbd.ttf
  4

1001
ACAD
1000
Arial
1071
 33554466
  0
STYLE
  5
D0B8
330
3
100
AcDbSymbolTableRecord
100
AcDbTextStyleTableRecord
  2
TSTANDARD
 70
     4
 40
0.0
 41
1.0
 50
0.0
 71
     0
 42
3.0
  3
monotxt.shx
  4
extfont.shx
  0
STYLE
  5
D0B9
330
3
100
AcDbSymbolTableRecord
100
AcDbTextStyleTableRecord
  2
\U+30D7\U+30E9\U+30C6\U+30C3\U+30AF\U+8A2D\U+8A08
 70
     0
 40
0.0
 41
0.8
 50
0.0
 71
     0
 42
2.5
  3
txt.shx
  4
bigfont.shx
1001
AcadStringInfo
1000
MIFCodePage
1070
     1
  0
STYLE
  5
DD5C
330
3
100
AcDbSymbolTableRecord
100
AcDbTextStyleTableRecord
  2
faucet
 70
     0
 40
0.0
 41
1.0
 50
0.0
 71
     0
 42
0.875
  3
arial.ttf
  4

1001
ACAD
1000
Arial
1071
       34
  0
ENDTAB
  0
TABLE
  2
VIEW
  5
6
330
0
100
AcDbSymbolTable
 70
     0
  0
ENDTAB
  0
TABLE
  2
UCS
  5
7
330
0
100
AcDbSymbolTable
 70
     0
  0
ENDTAB
  0
TABLE
  2
APPID
  5
9
330
0
100
AcDbSymbolTable
 70
    20
  0
APPID
  5
12
330
9
100
AcDbSymbolTableRecord
100
AcDbRegAppTableRecord
  2
ACAD
 70
     0
  0
APPID
  5
8F
330
9
100
AcDbSymbolTableRecord
100
AcDbRegAppTableRecord
  2
ACAD_PSEXT
 70
     0
  0
APPID
  5
156
330
9
100
AcDbSymbolTableRecord
100
AcDbRegAppTableRecord
  2
ACAD_DSTYLE_DIMEXT_LENGTH
 70
     0
  0
APPID
  5
157
330
9
100
AcDbSymbolTableRecord
100
AcDbRegAppTableRecord
  2
ACAD_DSTYLE_DIMEXT_ENABLED
 70
     0
  0
APPID
  5
158
330
9
100
AcDbSymbolTableRecord
100
AcDbRegAppTableRecord
  2
ACAD_DSTYLE_DIMJOGGED_JOGANGLE_SYMBOL
 70
     0
  0
APPID
  5
159
330
9
100
AcDbSymbolTableRecord
100
AcDbRegAppTableRecord
  2
ACAD_DSTYLE_DIMARC_LENGTH_SYMBOL
 70
     0
  0
APPID
  5
15A
330
9
100
AcDbSymbolTableRecord
100
AcDbRegAppTableRecord
  2
AcAecLayerStandard
 70
     0
  0
APPID
  5
348
330
9
100
AcDbSymbolTableRecord
100
AcDbRegAppTableRecord
  2
ACAD_DIMASSOC_CALC_DIMLFAC
 70
     0
  0
APPID
  5
349
330
9
100
AcDbSymbolTableRecord
100
AcDbRegAppTableRecord
  2
ACAD_DIMASSOC_DIMLFAC
 70
     0
  0
APPID
  5
34A
330
9
100
AcDbSymbolTableRecord
100
AcDbRegAppTableRecord
  2
ACAD_DIMASSOC_OVERRIDDEN_DIMLFAC
 70
     0
  0
APPID
  5
370
330
9
100
AcDbSymbolTableRecord
100
AcDbRegAppTableRecord
  2
ACAD_DSTYLE_DIMTEXT_FILL
 70
     0
  0
APPID
  5
373
330
9
100
AcDbSymbolTableRecord
100
AcDbRegAppTableRecord
  2
ACAD_DSTYLE_DIM_LINETYPE
 70
     0
  0
APPID
  5
374
330
9
100
AcDbSymbolTableRecord
100
AcDbRegAppTableRecord
  2
ACAD_DSTYLE_DIM_EXT1_LINETYPE
 70
     0
  0
APPID
  5
375
330
9
100
AcDbSymbolTableRecord
100
AcDbRegAppTableRecord
  2
ACAD_DSTYLE_DIM_EXT2_LINETYPE
 70
     0
  0
APPID
  5
43D4
330
9
100
AcDbSymbolTableRecord
100
AcDbRegAppTableRecord
  2
AcadStringInfo
 70
     0
  0
APPID
  5
43D5
330
9
100
AcDbSymbolTableRecord
100
AcDbRegAppTableRecord
  2
GENIUS_GENBH_13
 70
     0
  0
APPID
  5
BA33
330
9
100
AcDbSymbolTableRecord
100
AcDbRegAppTableRecord
  2
DCO15
 70
     0
  0
APPID
  5
D004
330
9
100
AcDbSymbolTableRecord
100
AcDbRegAppTableRecord
  2
ACAD_EXEMPT_FROM_CAD_STANDARDS
 70
     0
  0
APPID
  5
DFA6
330
9
100
AcDbSymbolTableRecord
100
AcDbRegAppTableRecord
  2
ACAD_NAV_VCDISPLAY
 70
     0
  0
APPID
  5
DFE6
330
9
100
AcDbSymbolTableRecord
100
AcDbRegAppTableRecord
  2
ACAD_MLEADERVER
 70
     0
  0
ENDTAB
  0
TABLE
  2
DIMSTYLE
  5
A
330
0
100
AcDbSymbolTable
 70
     9
100
AcDbDimStyleTable
 71
     3
340
BF09
340
27
340
C09A
  0
DIMSTYLE
105
27
330
A
100
AcDbSymbolTableRecord
100
AcDbDimStyleTableRecord
  2
Standard
 70
     0
  3
"
  4
mm
 44
0.0625
171
     0
177
   256
274
     0
276
     2
277
     5
340
11
371
    -1
372
    -1
1001
ACAD_DSTYLE_DIMJOGGED_JOGANGLE_SYMBOL
1070
   384
1040
0.7853981633974483
1001
ACAD_DSTYLE_DIMEXT_LENGTH
1070
   378
1040
0.18
1001
ACAD_DSTYLE_DIM_LINETYPE
1070
   380
1005
15
1001
ACAD_DSTYLE_DIM_EXT1_LINETYPE
1070
   381
1005
15
1001
ACAD_DSTYLE_DIM_EXT2_LINETYPE
1070
   382
1005
15
  0
DIMSTYLE
105
BF09
330
A
100
AcDbSymbolTableRecord
100
AcDbDimStyleTableRecord
  2
spec dim1
 70
     0
  3
"
  4
mm
 41
0.875
 44
0.0625
140
0.875
170
     1
171
     0
177
   256
274
     0
276
     2
277
     5
340
11
371
    -1
372
    -1
1001
ACAD_DSTYLE_DIMJOGGED_JOGANGLE_SYMBOL
1070
   384
1040
0.7853981633974483
1001
ACAD_DSTYLE_DIMEXT_LENGTH
1070
   378
1040
0.18
1001
ACAD_DSTYLE_DIM_LINETYPE
1070
   380
1005
15
1001
ACAD_DSTYLE_DIM_EXT1_LINETYPE
1070
   381
1005
15
1001
ACAD_DSTYLE_DIM_EXT2_LINETYPE
1070
   382
1005
15
  0
DIMSTYLE
105
C09A
330
A
100
AcDbSymbolTableRecord
100
AcDbDimStyleTableRecord
  2
spec dim2
 70
     0
  3
"
  4
mm
 41
1.8
 44
0.0625
140
1.8
170
     1
171
     0
177
   256
274
     0
276
     2
277
     5
340
11
371
    -1
372
    -1
1001
ACAD_DSTYLE_DIMJOGGED_JOGANGLE_SYMBOL
1070
   384
1040
0.7853981633974483
1001
ACAD_DSTYLE_DIMEXT_LENGTH
1070
   378
1040
0.18
1001
ACAD_DSTYLE_DIM_LINETYPE
1070
   380
1005
15
1001
ACAD_DSTYLE_DIM_EXT1_LINETYPE
1070
   381
1005
15
1001
ACAD_DSTYLE_DIM_EXT2_LINETYPE
1070
   382
1005
15
  0
DIMSTYLE
105
CB33
330
A
100
AcDbSymbolTableRecord
100
AcDbDimStyleTableRecord
  2
SLDDIMSTYLE1
 70
     0
 41
6.0
 44
0.0
 73
     0
 77
     1
 78
    12
140
3.5
143
0.0393700787
144
5.0
147
0.875
170
     1
173
     1
271
     1
272
     1
284
    12
340
CB32
341
CAD4
343
CAD4
344
CAD4
  0
DIMSTYLE
105
D0BA
330
A
100
AcDbSymbolTableRecord
100
AcDbDimStyleTableRecord
  2
HARA
 70
     0
 41
5.0
 42
4.0
 43
45.0
 44
0.0
 73
     0
 74
     0
 77
     3
 78
     8
 79
     2
140
8.0
141
0.0
147
4.0
172
     1
176
     1
177
     1
178
     1
179
     1
271
     1
272
     1
279
     2
284
     8
340
11
341
D09C
342
D09C
1001
ACAD_DSTYLE_DIMJOGGED_JOGANGLE_SYMBOL
1070
   384
1040
0.7853981633974483
1001
ACAD_DSTYLE_DIMEXT_LENGTH
1070
   378
1040
0.0
  0
DIMSTYLE
105
D0BB
330
A
100
AcDbSymbolTableRecord
100
AcDbDimStyleTableRecord
  2
\U+30D7\U+30E9\U+30C6\U+30C3\U+30AF\U+8A2D\U+8A08
 70
     0
 41
17.0
 42
20.0
 43
120.0
 44
10.0
 73
     0
 74
     0
 77
     1
 78
     8
 79
     2
140
45.0
141
0.1
143
0.03937007874016
147
15.0
171
     3
172
     1
271
     2
272
     2
274
     3
279
     2
284
     8
340
D0B9
341
D09C
342
D0AD
1001
AcadStringInfo
1000
MIFCodePage
1070
     1
  0
DIMSTYLE
105
D0BC
330
A
100
AcDbSymbolTableRecord
100
AcDbDimStyleTableRecord
  2
YANA
 70
     0
 41
20.0
 42
10.0
 43
120.0
 44
0.0
 73
     0
 74
     0
 77
     3
 78
     8
140
20.0
141
0.0
147
4.0
172
     1
173
     1
176
   256
177
   256
178
   256
271
     2
272
     2
279
     2
284
     8
340
11
341
D0B2
343
D0B2
344
D0B2
  0
DIMSTYLE
105
D14C
330
A
100
AcDbSymbolTableRecord
100
AcDbDimStyleTableRecord
  2
asada
 70
     0
 41
10.0
 42
10.0
 43
120.0
 44
0.0
 73
     0
 74
     0
 77
     3
 78
     8
140
20.0
141
0.0
147
4.0
172
     1
173
     1
176
   256
177
   256
178
   256
271
     0
272
     0
279
     2
284
     8
340
11
341
D0B2
343
D0B2
344
D0B2
371
    13
372
    13
1001
ACAD_DSTYLE_DIMEXT_LENGTH
1070
   378
1040
0.0
  0
DIMSTYLE
105
DD5D
330
A
100
AcDbSymbolTableRecord
100
AcDbDimStyleTableRecord
  2
Faucets
 70
     0
  3
"
  4
mm
 41
0.25
 42
0.25
 44
0.125
140
0.25
170
     1
171
     0
177
   256
274
     0
276
     2
277
     5
340
DD5C
371
    -1
372
    -1
1001
ACAD_DSTYLE_DIMJOGGED_JOGANGLE_SYMBOL
1070
   384
1040
0.7853981633974483
1001
ACAD_DSTYLE_DIMEXT_LENGTH
1070
   378
1040
0.18
1001
ACAD_DSTYLE_DIM_LINETYPE
1070
   380
1005
15
1001
ACAD_DSTYLE_DIM_EXT1_LINETYPE
1070
   381
1005
15
1001
ACAD_DSTYLE_DIM_EXT2_LINETYPE
1070
   382
1005
15
  0
ENDTAB
  0
TABLE
  2
BLOCK_RECORD
  5
1
330
0
100
AcDbSymbolTable
 70
    13
  0
BLOCK_RECORD
  5
1F
102
{ACAD_XDICTIONARY
360
D19F
102
}
330
1
100
AcDbSymbolTableRecord
100
AcDbBlockTableRecord
  2
*Model_Space
340
22
  0
BLOCK_RECORD
  5
DF2E
330
1
100
AcDbSymbolTableRecord
100
AcDbBlockTableRecord
  2
*Paper_Space
340
DF2F
  0
BLOCK_RECORD
  5
B2
102
{ACAD_XDICTIONARY
360
B3
102
}
330
1
100
AcDbSymbolTableRecord
100
AcDbBlockTableRecord
  2
A$C75E7028D
340
0
  0
BLOCK_RECORD
  5
4311
102
{ACAD_XDICTIONARY
360
4312
102
}
330
1
100
AcDbSymbolTableRecord
100
AcDbBlockTableRecord
  2
A$C36E445EB
340
0
  0
BLOCK_RECORD
  5
CAD4
330
1
100
AcDbSymbolTableRecord
100
AcDbBlockTableRecord
  2
_Closed
340
0
  0
BLOCK_RECORD
  5
CF27
330
1
100
AcDbSymbolTableRecord
100
AcDbBlockTableRecord
  2
A$C59837DCE
340
0
1001
ACAD
1000
DesignCenter Data
1002
{
1070
     1
1070
     1
1002
}
  0
BLOCK_RECORD
  5
D09C
330
1
100
AcDbSymbolTableRecord
100
AcDbBlockTableRecord
  2
_Open30
340
0
  0
BLOCK_RECORD
  5
D0A2
330
1
100
AcDbSymbolTableRecord
100
AcDbBlockTableRecord
  2
SW_CENTERMARKSYMBOL_0
340
0
102
{BLKREFS
331
D0C4
331
D0CC
331
D0D4
331
D0DC
102
}
  0
BLOCK_RECORD
  5
D0AD
330
1
100
AcDbSymbolTableRecord
100
AcDbBlockTableRecord
  2
_Dot
340
0
  0
BLOCK_RECORD
  5
D0B2
330
1
100
AcDbSymbolTableRecord
100
AcDbBlockTableRecord
  2
_OPEN
340
0
  0
BLOCK_RECORD
  5
D0BD
102
{ACAD_XDICTIONARY
360
D0E4
102
}
330
1
100
AcDbSymbolTableRecord
100
AcDbBlockTableRecord
  2
A$C29194996
340
0
  0
BLOCK_RECORD
  5
D14D
102
{ACAD_XDICTIONARY
360
D154
102
}
330
1
100
AcDbSymbolTableRecord
100
AcDbBlockTableRecord
  2
A$C765D10C3
340
0
  0
BLOCK_RECORD
  5
D204
102
{ACAD_XDICTIONARY
360
D20D
102
}
330
1
100
AcDbSymbolTableRecord
100
AcDbBlockTableRecord
  2
A$C1E0F3B8E
340
0
1001
ACAD
1000
DesignCenter Data
1002
{
1070
     1
1070
     1
1002
}
  0
BLOCK_RECORD
  5
DA20
330
1
100
AcDbSymbolTableRecord
100
AcDbBlockTableRecord
  2
*D11
340
0
  0
BLOCK_RECORD
  5
DE90
330
1
100
AcDbSymbolTableRecord
100
AcDbBlockTableRecord
  2
*D12
340
0
  0
ENDTAB
  0
ENDSEC
  0
SECTION
  2
BLOCKS
  0
BLOCK
  5
20
330
1F
100
AcDbEntity
  8
0
100
AcDbBlockBegin
  2
*Model_Space
 70
     0
 10
0.0
 20
0.0
 30
0.0
  3
*Model_Space
  1

  0
ENDBLK
  5
21
330
1F
100
AcDbEntity
  8
0
100
AcDbBlockEnd
  0
BLOCK
  5
DF30
330
DF2E
100
AcDbEntity
 67
     1
  8
0
100
AcDbBlockBegin
  2
*Paper_Space
 70
     0
 10
0.0
 20
0.0
 30
0.0
  3
*Paper_Space
  1

  0
ENDBLK
  5
DF31
330
DF2E
100
AcDbEntity
 67
     1
  8
0
100
AcDbBlockEnd
  0
BLOCK
  5
B5
330
B2
100
AcDbEntity
  8
0
100
AcDbBlockBegin
  2
A$C75E7028D
 70
     0
 10
0.0
 20
0.0
 30
0.0
  3
A$C75E7028D
  1

  0
LINE
  5
B6
330
B2
100
AcDbEntity
  8
0
  6
DASHED
 62
     4
 48
2.0
100
AcDbLine
 10
-7.99999999999747
 20
20.00000000000114
 30
0.0
 11
8.000000000002543
 21
19.99999999999898
 31
0.0
  0
LINE
  5
B7
330
B2
100
AcDbEntity
  8
0
  6
DASHED
 62
     4
 48
2.0
100
AcDbLine
 10
10.00000000000227
 20
17.99999999999875
 30
0.0
 11
9.999999999997228
 21
-18.00000000000136
 31
0.0
  0
ARC
  5
B8
330
B2
100
AcDbEntity
  8
0
  6
DASHED
 62
     4
 48
2.0
100
AcDbCircle
 10
8.000000000002273
 20
17.99999999999897
 30
0.0
 40
2.0
100
AcDbArc
 50
359.9999999999935
 51
89.99999999999266
  0
LINE
  5
B9
330
B2
100
AcDbEntity
  8
0
  6
DASHED
 62
     4
 48
2.0
100
AcDbLine
 10
-8.000000000002728
 20
-19.99999999999875
 30
0.0
 11
7.99999999999693
 21
-20.00000000000114
 31
0.0
  0
ARC
  5
BA
330
B2
100
AcDbEntity
  8
0
  6
DASHED
 62
     4
 48
2.0
100
AcDbCircle
 10
-8.000000000002444
 20
-17.99999999999875
 30
0.0
 40
2.0
100
AcDbArc
 50
179.9999999999935
 51
269.9999999999919
  0
ARC
  5
BB
330
B2
100
AcDbEntity
  8
0
  6
DASHED
 62
     4
 48
2.0
100
AcDbCircle
 10
7.999999999997228
 20
-18.00000000000114
 30
0.0
 40
2.0
100
AcDbArc
 50
269.9999999999919
 51
359.9999999999935
  0
LINE
  5
BC
330
B2
100
AcDbEntity
  8
0
  6
DASHED
 62
     4
 48
2.0
100
AcDbLine
 10
-9.999999999997726
 20
18.00000000000136
 30
0.0
 11
-10.00000000000244
 21
-17.99999999999852
 31
0.0
  0
ARC
  5
BD
330
B2
100
AcDbEntity
  8
0
  6
DASHED
 62
     4
 48
2.0
100
AcDbCircle
 10
-7.999999999997726
 20
18.00000000000114
 30
0.0
 40
2.0
100
AcDbArc
 50
89.99999999999266
 51
179.9999999999935
  0
LINE
  5
BE
330
B2
100
AcDbEntity
  8
0
  6
\U+4E2D\U+5FC3\U+7DDA
 62
     4
 48
0.5
100
AcDbLine
 10
-8.389327847191253
 20
0.0000000000011369
 30
0.0
 11
8.389327847191168
 21
-0.0000000000010232
 31
0.0
  0
LINE
  5
BF
330
B2
100
AcDbEntity
  8
0
  6
\U+4E2D\U+5FC3\U+7DDA
 62
     4
 48
0.5
100
AcDbLine
 10
0.0000000000013074
 20
9.671579624598507
 30
0.0
 11
-0.0000000000013074
 21
-9.671579624598507
 31
0.0
  0
CIRCLE
  5
C0
330
B2
100
AcDbEntity
  8
0
  6
DASHED
 62
     4
 48
2.0
100
AcDbCircle
 10
0.0
 20
0.0
 30
0.0
 40
5.0
  0
POINT
  5
C1
330
B2
100
AcDbEntity
  8
Defpoints
  6
ByBlock
 62
     4
 48
2.0
100
AcDbPoint
 10
9.999999999996958
 20
-20.00000000000148
 30
0.0
 50
269.9999999999922
  0
POINT
  5
C2
330
B2
100
AcDbEntity
  8
0
  6
DASHED
 62
     4
 48
5.0
100
AcDbPoint
 10
-10.00000000000271
 20
-19.99999999999852
 30
0.0
 50
269.9999999999922
  0
POINT
  5
C3
330
B2
100
AcDbEntity
  8
0
  6
DASHED
 62
     4
 48
5.0
100
AcDbPoint
 10
10.00000000000254
 20
19.99999999999875
 30
0.0
 50
269.9999999999922
  0
CIRCLE
  5
C4
330
B2
100
AcDbEntity
  8
0
  6
DASHED
 62
     4
 48
2.0
100
AcDbCircle
 10
0.0
 20
0.0
 30
0.0
 40
4.0
  0
ENDBLK
  5
C5
330
B2
100
AcDbEntity
  8
0
100
AcDbBlockEnd
  0
BLOCK
  5
4314
330
4311
100
AcDbEntity
  8
0
 62
     2
370
    -3
100
AcDbBlockBegin
  2
A$C36E445EB
 70
     0
 10
0.0
 20
0.0
 30
0.0
  3
A$C36E445EB
  1

  0
LINE
  5
4315
102
{ACAD_REACTORS
330
4322
102
}
330
4311
100
AcDbEntity
  8
0
  6
ByBlock
100
AcDbLine
 10
14.61553282762179
 20
27.73352210156736
 30
0.0
 11
20.23930918623228
 21
3.374270481937855
 31
0.0
  0
LINE
  5
4316
102
{ACAD_REACTORS
330
4322
102
}
330
4311
100
AcDbEntity
  8
0
  6
ByBlock
100
AcDbLine
 10
13.64116276285495
 20
27.50857104722673
 30
0.0
 11
19.26493912143633
 21
3.149319427593582
 31
0.0
  0
LINE
  5
4317
330
4311
100
AcDbEntity
  8
0
  6
ByBlock
100
AcDbLine
 10
-0.000018144142814
 20
24.35925628641053
 30
0.0
 11
5.623758214438566
 21
0.0000046667810238
 31
0.0
  0
LINE
  5
4318
330
4311
100
AcDbEntity
  8
0
  6
ByBlock
100
AcDbLine
 10
20.23930918623228
 20
3.374270481937855
 30
0.0
 11
5.623758214438566
 21
0.0000046667810238
 31
0.0
  0
LINE
  5
4319
330
4311
100
AcDbEntity
  8
epron
  6
CENTER2
 62
     1
100
AcDbLine
 10
7.890199119574388
 20
13.35205512625907
 30
0.0
 11
1.878025298181455
 21
11.96403543138149
 31
0.0
  0
LINE
  5
431A
330
4311
100
AcDbEntity
  8
\U+56FE\U+5C422
 48
0.2
100
AcDbLine
 10
4.416196884296367
 20
16.65523494540321
 30
0.0
 11
3.44182681950042
 21
16.43028389106257
 31
0.0
  0
LINE
  5
431B
330
4311
100
AcDbEntity
  8
\U+56FE\U+5C422
 48
0.2
100
AcDbLine
 10
6.215805319050557
 20
8.860274427122931
 30
0.0
 11
5.241435254254611
 21
8.635323372782295
 31
0.0
  0
LINE
  5
431C
330
4311
100
AcDbEntity
  8
epron
  6
CENTER2
 62
     1
100
AcDbLine
 10
22.73837887422997
 20
13.18796315044165
 30
0.0
 11
13.64256524736993
 21
11.08802911159
 31
0.0
  0
LINE
  5
431D
102
{ACAD_REACTORS
330
4322
102
}
330
4311
100
AcDbEntity
  8
0
  6
ByBlock
100
AcDbLine
 10
17.31494547973852
 20
16.0410813241433
 30
0.0
 11
16.34057541500078
 21
15.81613026980267
 31
0.0
  0
LINE
  5
431E
102
{ACAD_REACTORS
330
4322
102
}
330
4311
100
AcDbEntity
  8
0
  6
ByBlock
100
AcDbLine
 10
14.61553282762179
 20
27.73352210156736
 30
0.0
 11
-0.000018144142814
 21
24.35925628641053
 31
0.0
  0
LINE
  5
431F
330
4311
100
AcDbEntity
  8
0
  6
ByBlock
100
AcDbLine
 10
1.529742857557719
 20
24.71242944173355
 30
0.0
 11
7.153519216197308
 21
0.353177822104044
 31
0.0
  0
LINE
  5
4320
330
4311
100
AcDbEntity
  8
0
  6
ByBlock
100
AcDbLine
 10
2.504112922382772
 20
24.93738049608146
 30
0.0
 11
8.127889280964152
 21
0.57812887644468
 31
0.0
  0
LINE
  5
4321
330
4311
100
AcDbEntity
  8
\U+6807\U+6CE8
  6
ByBlock
100
AcDbLine
 10
4.341631036892066
 20
12.53280363192607
 30
0.0
 11
4.341631036892066
 21
12.53280363192607
 31
0.0
  0
HATCH
  5
4322
330
4311
100
AcDbEntity
  8
\U+6807\U+6CE8
  6
ByBlock
100
AcDbHatch
 10
0.0
 20
0.0
 30
0.0
210
0.0
220
0.0
230
1.0
  2
ANSI31
 70
     0
 71
     1
 91
        1
 92
        7
 72
     0
 73
     1
 93
        4
 10
14.61553282762179
 20
27.73352210156736
 10
13.64116276285475
 20
27.50857104722755
 10
16.34057541497539
 20
15.8161302697968
 10
17.31494547975441
 20
16.04108132414697
 97
        4
330
431E
330
4315
330
431D
330
4316
 75
     0
 76
     1
 52
5.0
 41
0.5
 77
     0
 78
     1
 53
140.0
 43
52567.55519395428
 44
3843.430503517029
 45
1.020425330377379
 46
1.216095553451377
 79
     0
 47
0.0924411634878856
 98
        1
 10
15.12777253420791
 20
23.40409978697426
  0
ENDBLK
  5
4323
330
4311
100
AcDbEntity
  8
0
 62
     2
370
    -3
100
AcDbBlockEnd
  0
BLOCK
  5
CAD5
330
CAD4
100
AcDbEntity
  8
0
100
AcDbBlockBegin
  2
_Closed
 70
     0
 10
0.0
 20
0.0
 30
0.0
  3
_Closed
  1

  0
LINE
  5
CAD6
330
CAD4
100
AcDbEntity
  8
0
  6
ByBlock
 62
     0
370
    -2
100
AcDbLine
 10
-1.0
 20
0.166667
 30
0.0
 11
0.0
 21
0.0
 31
0.0
  0
LINE
  5
CAD7
330
CAD4
100
AcDbEntity
  8
0
  6
ByBlock
 62
     0
370
    -2
100
AcDbLine
 10
0.0
 20
0.0
 30
0.0
 11
-1.0
 21
-0.166667
 31
0.0
  0
LINE
  5
CAD8
330
CAD4
100
AcDbEntity
  8
0
  6
ByBlock
 62
     0
370
    -2
100
AcDbLine
 10
-1.0
 20
0.166667
 30
0.0
 11
-1.0
 21
-0.166667
 31
0.0
  0
LINE
  5
CAD9
330
CAD4
100
AcDbEntity
  8
0
  6
ByBlock
 62
     0
370
    -2
100
AcDbLine
 10
0.0
 20
0.0
 30
0.0
 11
-1.0
 21
0.0
 31
0.0
  0
ENDBLK
  5
CADA
330
CAD4
100
AcDbEntity
  8
0
100
AcDbBlockEnd
  0
BLOCK
  5
CFFF
330
CF27
100
AcDbEntity
  8
0
100
AcDbBlockBegin
  2
A$C59837DCE
 70
     0
 10
0.0
 20
0.0
 30
0.0
  3
A$C59837DCE
  1

  0
SPLINE
  5
CF28
330
CF27
100
AcDbEntity
  8
0
  6
Continuous
 62
     7
370
    15
100
AcDbSpline
210
0.0
220
0.0
230
1.0
 70
    24
 71
     1
 72
     4
 73
     2
 74
     0
 42
0.0000000001
 43
0.0000000001
 40
0.0
 40
0.0
 40
1.0
 40
1.0
 10
0.4328254585079776
 20
1.12035551251688
 30
0.0
 10
0.4328254585079776
 20
0.1278365125169785
 30
0.0
  0
SPLINE
  5
CF29
330
CF27
100
AcDbEntity
  8
0
  6
Continuous
 62
     7
370
    15
100
AcDbSpline
210
0.0
220
0.0
230
1.0
 70
    24
 71
     1
 72
     4
 73
     2
 74
     0
 42
0.0000000001
 43
0.0000000001
 40
0.0
 40
0.0
 40
1.0
 40
1.0
 10
15.28090969850791
 20
0.1278365125169785
 30
0.0
 10
15.28090969850791
 20
1.12035551251688
 30
0.0
  0
SPLINE
  5
CF2A
330
CF27
100
AcDbEntity
  8
0
  6
Continuous
 62
     7
370
    15
100
AcDbSpline
210
0.0
220
0.0
230
1.0
 70
    24
 71
     1
 72
     4
 73
     2
 74
     0
 42
0.0000000001
 43
0.0000000001
 40
0.0
 40
0.0
 40
1.0
 40
1.0
 10
15.7137351511642
 20
2.311378312517035
 30
0.0
 10
15.55233128305121
 20
4.619561162563286
 30
0.0
  0
SPLINE
  5
CF2B
330
CF27
100
AcDbEntity
  8
0
  6
Continuous
 62
     7
370
    15
100
AcDbSpline
210
0.0
220
0.0
230
1.0
 70
    24
 71
     1
 72
     4
 73
     2
 74
     0
 42
0.0000000001
 43
0.0000000001
 40
0.0
 40
0.0
 40
1.0
 40
1.0
 10
0.1614038739649004
 20
4.619561162563286
 30
0.0
 10
0.0000000058519163
 20
2.311378312517035
 30
0.0
  0
SPLINE
  5
CF2C
330
CF27
100
AcDbEntity
  8
0
  6
Continuous
 62
     7
370
    15
100
AcDbSpline
210
0.0
220
0.0
230
1.0
 70
     8
 71
     3
 72
    61
 73
    57
 74
     0
 42
0.0000000001
 43
0.0000000001
 40
0.0
 40
0.0
 40
0.0
 40
0.0
 40
0.0110636040993485
 40
0.0207801350492238
 40
0.0290105332348229
 40
0.0356348927141204
 40
0.0410552330220031
 40
0.0464877875107977
 40
0.0595808414556809
 40
0.0728816570716498
 40
0.0930337652880357
 40
0.1131921074723222
 40
0.1333597781297958
 40
0.1575630106806185
 40
0.1817732032626309
 40
0.2059919467759642
 40
0.2302232408796284
 40
0.2544657794648634
 40
0.2787113777917148
 40
0.3029669023773958
 40
0.3272368594388793
 40
0.3515067820918841
 40
0.3757854584092366
 40
0.400075123817704
 40
0.4243616221642567
 40
0.4486587534061889
 40
0.4729556791968264
 40
0.4972507681488324
 40
0.5215541545966916
 40
0.5458479307250856
 40
0.5701437374579354
 40
0.5944373573796679
 40
0.6187202717415891
 40
0.6430055900120334
 40
0.6672790129002909
 40
0.6915431060661485
 40
0.7158065086655344
 40
0.7400559916625752
 40
0.7642944366777776
 40
0.7885280073706258
 40
0.8127538845885101
 40
0.8369666684945228
 40
0.8611699903287489
 40
0.8813346753811313
 40
0.9014979199666695
 40
0.9216534294800508
 40
0.9284240550631153
 40
0.9350596278872814
 40
0.9414172790925059
 40
0.9475064219034761
 40
0.9536727979864329
 40
0.9600660765740599
 40
0.9680122042524576
 40
0.9774030202194733
 40
0.9881125582882454
 40
1.0
 40
1.0
 40
1.0
 40
1.0
 10
15.47659272669534
 20
4.693348073297784
 30
0.0
 10
15.47521246534325
 20
4.693367158426781
 30
0.0
 10
15.4726199993579
 20
4.693403004933088
 30
0.0
 10
15.45955554589091
 20
4.69341957266306
 30
0.0
 10
15.44364294685306
 20
4.693424096081344
 30
0.0
 10
15.42690874942468
 20
4.693423869151502
 30
0.0
 10
15.41021415027126
 20
4.693423902690483
 30
0.0
 10
15.38403031852294
 20
4.693423891643305
 30
0.0
 10
15.34194874087688
 20
4.693423897858565
 30
0.0
 10
15.26527213170425
 20
4.693423895525484
 30
0.0
 10
15.15506023924399
 20
4.693423896444301
 30
0.0
 10
15.0014762813355
 20
4.693423896168269
 30
0.0
 10
14.8070404559237
 20
4.693423896246713
 30
0.0
 10
14.56552480902428
 20
4.693423896223293
 30
0.0
 10
14.27096009421325
 20
4.693423896231479
 30
0.0
 10
13.93916651207883
 20
4.693423896230797
 30
0.0
 10
13.57200124294195
 20
4.693423896232616
 30
0.0
 10
13.17157352747699
 20
4.693423896233525
 30
0.0
 10
12.74018773537864
 20
4.693423896234662
 30
0.0
 10
12.28029802291689
 20
4.693423896235572
 30
0.0
 10
11.79456050271096
 20
4.693423896236708
 30
0.0
 10
11.28578256441255
 20
4.693423896237391
 30
0.0
 10
10.7569285069037
 20
4.6934238962383
 30
0.0
 10
10.21107989100619
 20
4.693423896238755
 30
0.0
 10
9.65139001494299
 20
4.693423896239437
 30
0.0
 10
9.081195551265182
 20
4.693423896239664
 30
0.0
 10
8.503803240797878
 20
4.693423896239892
 30
0.0
 10
7.922593519094561
 20
4.693423896240119
 30
0.0
 10
7.341025449494736
 20
4.693423896239892
 30
0.0
 10
6.762457044927714
 20
4.693423896239664
 30
0.0
 10
6.190338885415258
 20
4.693423896239437
 30
0.0
 10
5.628009071446285
 20
4.693423896238982
 30
0.0
 10
5.078732573574598
 20
4.6934238962383
 30
0.0
 10
4.545769265882427
 20
4.693423896237618
 30
0.0
 10
4.032197192760122
 20
4.693423896236936
 30
0.0
 10
3.541002809604151
 20
4.693423896235799
 30
0.0
 10
3.075033156094832
 20
4.693423896234889
 30
0.0
 10
2.636979510269611
 20
4.693423896233753
 30
0.0
 10
2.229371220830216
 20
4.693423896232616
 30
0.0
 10
1.854502919030664
 20
4.693423896231252
 30
0.0
 10
1.514524847099664
 20
4.693423896230797
 30
0.0
 10
1.211386563568112
 20
4.693423896227159
 30
0.0
 10
0.9614723376871552
 20
4.693423896234662
 30
0.0
 10
0.7588696112557046
 20
4.693423896206013
 30
0.0
 10
0.5974393956910263
 20
4.693423896303784
 30
0.0
 10
0.4944142387812463
 20
4.693423896015701
 30
0.0
 10
0.4319843966000008
 20
4.693423896457943
 30
0.0
 10
0.3984538424563197
 20
4.693423895359728
 30
0.0
 10
0.3691212792252827
 20
4.693423899255094
 30
0.0
 10
0.3433611110610855
 20
4.693423885367565
 30
0.0
 10
0.3203803798014633
 20
4.693423938017076
 30
0.0
 10
0.2980064370449327
 20
4.693423823411876
 30
0.0
 10
0.2761856238971632
 20
4.693421407825326
 30
0.0
 10
0.2564538355038621
 20
4.693412397100246
 30
0.0
 10
0.2412158973509122
 20
4.693392599957405
 30
0.0
 10
0.238546632560201
 20
4.693363422491756
 30
0.0
 10
0.2371424303207732
 20
4.693348073297784
 30
0.0
  0
SPLINE
  5
CF2D
330
CF27
100
AcDbEntity
  8
0
  6
Continuous
 62
     7
370
    15
100
AcDbSpline
210
0.0
220
0.0
230
1.0
 70
    24
 71
     1
 72
     4
 73
     2
 74
     0
 42
0.0000000001
 43
0.0000000001
 40
0.0
 40
0.0
 40
1.0
 40
1.0
 10
15.40001197850802
 20
1.12035551251688
 30
0.0
 10
15.40001197850802
 20
2.311378312517035
 30
0.0
  0
SPLINE
  5
CF2E
330
CF27
100
AcDbEntity
  8
0
  6
Continuous
 62
     7
370
    15
100
AcDbSpline
210
0.0
220
0.0
230
1.0
 70
    24
 71
     1
 72
     4
 73
     2
 74
     0
 42
0.0000000001
 43
0.0000000001
 40
0.0
 40
0.0
 40
1.0
 40
1.0
 10
0.3137231785080985
 20
2.311378312517035
 30
0.0
 10
0.3137231785080985
 20
1.12035551251688
 30
0.0
  0
LINE
  5
CF2F
330
CF27
100
AcDbEntity
  8
0
  6
Continuous
 62
     7
370
    15
100
AcDbLine
 10
3.801338793300146
 20
0.1278365125169785
 30
0.0
 11
3.801338793300146
 21
0.0000000653169536
 31
0.0
  0
LINE
  5
CF30
330
CF27
100
AcDbEntity
  8
0
  6
Continuous
 62
     7
370
    15
100
AcDbLine
 10
3.814402146054817
 20
0.1278365125169785
 30
0.0
 11
3.814402146054817
 21
0.0000000653169536
 31
0.0
  0
LINE
  5
CF31
330
CF27
100
AcDbEntity
  8
0
  6
Continuous
 62
     7
370
    15
100
AcDbLine
 10
3.814402146054817
 20
0.0000000653169536
 30
0.0
 11
3.801338793300146
 21
0.0000000653169536
 31
0.0
  0
LINE
  5
CF32
330
CF27
100
AcDbEntity
  8
0
  6
Continuous
 62
     7
370
    15
100
AcDbLine
 10
3.827442314343443
 20
0.1278365125169785
 30
0.0
 11
3.827442314343443
 21
0.0000000653169536
 31
0.0
  0
LINE
  5
CF33
330
CF27
100
AcDbEntity
  8
0
  6
Continuous
 62
     7
370
    15
100
AcDbLine
 10
3.827442314343443
 20
0.0000000653169536
 30
0.0
 11
3.814402146054817
 21
0.0000000653169536
 31
0.0
  0
LINE
  5
CF34
330
CF27
100
AcDbEntity
  8
0
  6
Continuous
 62
     7
370
    15
100
AcDbLine
 10
3.841641630820504
 20
0.1278365125169785
 30
0.0
 11
3.841641630820504
 21
0.0000000653169536
 31
0.0
  0
LINE
  5
CF35
330
CF27
100
AcDbEntity
  8
0
  6
Continuous
 62
     7
370
    15
100
AcDbLine
 10
3.841641630820504
 20
0.0000000653169536
 30
0.0
 11
3.827442314343443
 21
0.0000000653169536
 31
0.0
  0
LINE
  5
CF36
330
CF27
100
AcDbEntity
  8
0
  6
Continuous
 62
     7
370
    15
100
AcDbLine
 10
3.787162661288903
 20
0.1278365125169785
 30
0.0
 11
3.787162661288903
 21
0.0000000653169536
 31
0.0
  0
LINE
  5
CF37
330
CF27
100
AcDbEntity
  8
0
  6
Continuous
 62
     7
370
    15
100
AcDbLine
 10
3.801338793300146
 20
0.0000000653169536
 30
0.0
 11
3.787162661288903
 21
0.0000000653169536
 31
0.0
  0
LINE
  5
CF38
330
CF27
100
AcDbEntity
  8
0
  6
Continuous
 62
     7
370
    15
100
AcDbLine
 10
3.775361079423873
 20
0.1278365125169785
 30
0.0
 11
3.775361079423873
 21
0.0000000653169536
 31
0.0
  0
LINE
  5
CF39
330
CF27
100
AcDbEntity
  8
0
  6
Continuous
 62
     7
370
    15
100
AcDbLine
 10
3.787162661288903
 20
0.0000000653169536
 30
0.0
 11
3.775361079423873
 21
0.0000000653169536
 31
0.0
  0
LINE
  5
CF3A
330
CF27
100
AcDbEntity
  8
0
  6
Continuous
 62
     7
370
    15
100
AcDbLine
 10
3.853420251453599
 20
0.1278365125169785
 30
0.0
 11
3.853420251453599
 21
0.0000000653169536
 31
0.0
  0
LINE
  5
CF3B
330
CF27
100
AcDbEntity
  8
0
  6
Continuous
 62
     7
370
    15
100
AcDbLine
 10
3.853420251453599
 20
0.0000000653169536
 30
0.0
 11
3.841641630820504
 21
0.0000000653169536
 31
0.0
  0
LINE
  5
CF3C
330
CF27
100
AcDbEntity
  8
0
  6
Continuous
 62
     7
370
    15
100
AcDbLine
 10
3.868618784424143
 20
0.1278365125169785
 30
0.0
 11
3.868618784424143
 21
0.0000000653169536
 31
0.0
  0
LINE
  5
CF3D
330
CF27
100
AcDbEntity
  8
0
  6
Continuous
 62
     7
370
    15
100
AcDbLine
 10
3.868618784424143
 20
0.0000000653169536
 30
0.0
 11
3.853420251453599
 21
0.0000000653169536
 31
0.0
  0
LINE
  5
CF3E
330
CF27
100
AcDbEntity
  8
0
  6
Continuous
 62
     7
370
    15
100
AcDbLine
 10
3.760185507685264
 20
0.1278365125169785
 30
0.0
 11
3.760185507685264
 21
0.0000000653169536
 31
0.0
  0
LINE
  5
CF3F
330
CF27
100
AcDbEntity
  8
0
  6
Continuous
 62
     7
370
    15
100
AcDbLine
 10
3.775361079423873
 20
0.0000000653169536
 30
0.0
 11
3.760185507685264
 21
0.0000000653169536
 31
0.0
  0
LINE
  5
CF40
330
CF27
100
AcDbEntity
  8
0
  6
Continuous
 62
     7
370
    15
100
AcDbLine
 10
3.749759352393994
 20
0.1278365125169785
 30
0.0
 11
3.749759352393994
 21
0.0000000653169536
 31
0.0
  0
LINE
  5
CF41
330
CF27
100
AcDbEntity
  8
0
  6
Continuous
 62
     7
370
    15
100
AcDbLine
 10
3.760185507685264
 20
0.0000000653169536
 30
0.0
 11
3.749759352393994
 21
0.0000000653169536
 31
0.0
  0
LINE
  5
CF42
330
CF27
100
AcDbEntity
  8
0
  6
Continuous
 62
     7
370
    15
100
AcDbLine
 10
3.879022422902153
 20
0.1278365125169785
 30
0.0
 11
3.879022422902153
 21
0.0000000653169536
 31
0.0
  0
LINE
  5
CF43
330
CF27
100
AcDbEntity
  8
0
  6
Continuous
 62
     7
370
    15
100
AcDbLine
 10
3.879022422902153
 20
0.0000000653169536
 30
0.0
 11
3.868618784424143
 21
0.0000000653169536
 31
0.0
  0
LINE
  5
CF44
330
CF27
100
AcDbEntity
  8
0
  6
Continuous
 62
     7
370
    15
100
AcDbLine
 10
3.895073802159686
 20
0.1278365125169785
 30
0.0
 11
3.895073802159686
 21
0.0000000653169536
 31
0.0
  0
LINE
  5
CF45
330
CF27
100
AcDbEntity
  8
0
  6
Continuous
 62
     7
370
    15
100
AcDbLine
 10
3.895073802159686
 20
0.0000000653169536
 30
0.0
 11
3.879022422902153
 21
0.0000000653169536
 31
0.0
  0
LINE
  5
CF46
330
CF27
100
AcDbEntity
  8
0
  6
Continuous
 62
     7
370
    15
100
AcDbLine
 10
3.733730489949721
 20
0.1278365125169785
 30
0.0
 11
3.733730489949721
 21
0.0000000653169536
 31
0.0
  0
LINE
  5
CF47
330
CF27
100
AcDbEntity
  8
0
  6
Continuous
 62
     7
370
    15
100
AcDbLine
 10
3.749759352393994
 20
0.0000000653169536
 30
0.0
 11
3.733730489949721
 21
0.0000000653169536
 31
0.0
  0
LINE
  5
CF48
330
CF27
100
AcDbEntity
  8
0
  6
Continuous
 62
     7
370
    15
100
AcDbLine
 10
3.904002265752296
 20
0.1278365125169785
 30
0.0
 11
3.904002265752296
 21
0.0000000653169536
 31
0.0
  0
LINE
  5
CF49
330
CF27
100
AcDbEntity
  8
0
  6
Continuous
 62
     7
370
    15
100
AcDbLine
 10
3.904002265752296
 20
0.0000000653169536
 30
0.0
 11
3.895073802159686
 21
0.0000000653169536
 31
0.0
  0
LINE
  5
CF4A
330
CF27
100
AcDbEntity
  8
0
  6
Continuous
 62
     7
370
    15
100
AcDbLine
 10
3.724780170823805
 20
0.1278365125169785
 30
0.0
 11
3.724780170823805
 21
0.0000000653169536
 31
0.0
  0
LINE
  5
CF4B
330
CF27
100
AcDbEntity
  8
0
  6
Continuous
 62
     7
370
    15
100
AcDbLine
 10
3.733730489949721
 20
0.0000000653169536
 30
0.0
 11
3.724780170823805
 21
0.0000000653169536
 31
0.0
  0
LINE
  5
CF4C
330
CF27
100
AcDbEntity
  8
0
  6
Continuous
 62
     7
370
    15
100
AcDbLine
 10
3.920751907784051
 20
0.1278365125169785
 30
0.0
 11
3.920751907784051
 21
0.0000000653169536
 31
0.0
  0
LINE
  5
CF4D
330
CF27
100
AcDbEntity
  8
0
  6
Continuous
 62
     7
370
    15
100
AcDbLine
 10
3.920751907784051
 20
0.0000000653169536
 30
0.0
 11
3.904002265752296
 21
0.0000000653169536
 31
0.0
  0
LINE
  5
CF4E
330
CF27
100
AcDbEntity
  8
0
  6
Continuous
 62
     7
370
    15
100
AcDbLine
 10
3.708052384325128
 20
0.1278365125169785
 30
0.0
 11
3.708052384325128
 21
0.0000000653169536
 31
0.0
  0
LINE
  5
CF4F
330
CF27
100
AcDbEntity
  8
0
  6
Continuous
 62
     7
370
    15
100
AcDbLine
 10
3.724780170823805
 20
0.0000000653169536
 30
0.0
 11
3.708052384325128
 21
0.0000000653169536
 31
0.0
  0
LINE
  5
CF50
330
CF27
100
AcDbEntity
  8
0
  6
Continuous
 62
     7
370
    15
100
AcDbLine
 10
3.700664097844764
 20
0.1278365125169785
 30
0.0
 11
3.700664097844764
 21
0.0000000653169536
 31
0.0
  0
LINE
  5
CF51
330
CF27
100
AcDbEntity
  8
0
  6
Continuous
 62
     7
370
    15
100
AcDbLine
 10
3.708052384325128
 20
0.0000000653169536
 30
0.0
 11
3.700664097844764
 21
0.0000000653169536
 31
0.0
  0
LINE
  5
CF52
330
CF27
100
AcDbEntity
  8
0
  6
Continuous
 62
     7
370
    15
100
AcDbLine
 10
3.928119210444265
 20
0.1278365125169785
 30
0.0
 11
3.928119210444265
 21
0.0000000653169536
 31
0.0
  0
LINE
  5
CF53
330
CF27
100
AcDbEntity
  8
0
  6
Continuous
 62
     7
370
    15
100
AcDbLine
 10
3.928119210444265
 20
0.0000000653169536
 30
0.0
 11
3.920751907784051
 21
0.0000000653169536
 31
0.0
  0
LINE
  5
CF54
330
CF27
100
AcDbEntity
  8
0
  6
Continuous
 62
     7
370
    15
100
AcDbLine
 10
3.945405807039605
 20
0.1278365125169785
 30
0.0
 11
3.945405807039605
 21
0.0000000653169536
 31
0.0
  0
LINE
  5
CF55
330
CF27
100
AcDbEntity
  8
0
  6
Continuous
 62
     7
370
    15
100
AcDbLine
 10
3.945405807039605
 20
0.0000000653169536
 30
0.0
 11
3.928119210444265
 21
0.0000000653169536
 31
0.0
  0
LINE
  5
CF56
330
CF27
100
AcDbEntity
  8
0
  6
Continuous
 62
     7
370
    15
100
AcDbLine
 10
3.683398485069801
 20
0.1278365125169785
 30
0.0
 11
3.683398485069801
 21
0.0000000653169536
 31
0.0
  0
LINE
  5
CF57
330
CF27
100
AcDbEntity
  8
0
  6
Continuous
 62
     7
370
    15
100
AcDbLine
 10
3.700664097844764
 20
0.0000000653169536
 30
0.0
 11
3.683398485069801
 21
0.0000000653169536
 31
0.0
  0
LINE
  5
CF58
330
CF27
100
AcDbEntity
  8
0
  6
Continuous
 62
     7
370
    15
100
AcDbLine
 10
3.951140997687843
 20
0.1278365125169785
 30
0.0
 11
3.951140997687843
 21
0.0000000653169536
 31
0.0
  0
LINE
  5
CF59
330
CF27
100
AcDbEntity
  8
0
  6
Continuous
 62
     7
370
    15
100
AcDbLine
 10
3.951140997687843
 20
0.0000000653169536
 30
0.0
 11
3.945405807039605
 21
0.0000000653169536
 31
0.0
  0
LINE
  5
CF5A
330
CF27
100
AcDbEntity
  8
0
  6
Continuous
 62
     7
370
    15
100
AcDbLine
 10
3.677643384437033
 20
0.1278365125169785
 30
0.0
 11
3.677643384437033
 21
0.0000000653169536
 31
0.0
  0
LINE
  5
CF5B
330
CF27
100
AcDbEntity
  8
0
  6
Continuous
 62
     7
370
    15
100
AcDbLine
 10
3.683398485069801
 20
0.0000000653169536
 30
0.0
 11
3.677643384437033
 21
0.0000000653169536
 31
0.0
  0
LINE
  5
CF5C
330
CF27
100
AcDbEntity
  8
0
  6
Continuous
 62
     7
370
    15
100
AcDbLine
 10
3.968798069452532
 20
0.1278365125169785
 30
0.0
 11
3.968798069452532
 21
0.0000000653169536
 31
0.0
  0
LINE
  5
CF5D
330
CF27
100
AcDbEntity
  8
0
  6
Continuous
 62
     7
370
    15
100
AcDbLine
 10
3.968798069452532
 20
0.0000000653169536
 30
0.0
 11
3.951140997687843
 21
0.0000000653169536
 31
0.0
  0
LINE
  5
CF5E
330
CF27
100
AcDbEntity
  8
0
  6
Continuous
 62
     7
370
    15
100
AcDbLine
 10
3.660006222656647
 20
0.1278365125169785
 30
0.0
 11
3.660006222656647
 21
0.0000000653169536
 31
0.0
  0
LINE
  5
CF5F
330
CF27
100
AcDbEntity
  8
0
  6
Continuous
 62
     7
370
    15
100
AcDbLine
 10
3.677643384437033
 20
0.0000000653169536
 30
0.0
 11
3.660006222656647
 21
0.0000000653169536
 31
0.0
  0
LINE
  5
CF60
330
CF27
100
AcDbEntity
  8
0
  6
Continuous
 62
     7
370
    15
100
AcDbLine
 10
3.972845915013522
 20
0.1278365125169785
 30
0.0
 11
3.972845915013522
 21
0.0000000653169536
 31
0.0
  0
LINE
  5
CF61
330
CF27
100
AcDbEntity
  8
0
  6
Continuous
 62
     7
370
    15
100
AcDbLine
 10
3.972845915013522
 20
0.0000000653169536
 30
0.0
 11
3.968798069452532
 21
0.0000000653169536
 31
0.0
  0
LINE
  5
CF62
330
CF27
100
AcDbEntity
  8
0
  6
Continuous
 62
     7
370
    15
100
AcDbLine
 10
3.655939732683691
 20
0.1278365125169785
 30
0.0
 11
3.655939732683691
 21
0.0000000653169536
 31
0.0
  0
LINE
  5
CF63
330
CF27
100
AcDbEntity
  8
0
  6
Continuous
 62
     7
370
    15
100
AcDbLine
 10
3.660006222656647
 20
0.0000000653169536
 30
0.0
 11
3.655939732683691
 21
0.0000000653169536
 31
0.0
  0
LINE
  5
CF64
330
CF27
100
AcDbEntity
  8
0
  6
Continuous
 62
     7
370
    15
100
AcDbLine
 10
3.990703414712925
 20
0.1278365125169785
 30
0.0
 11
3.990703414712925
 21
0.0000000653169536
 31
0.0
  0
LINE
  5
CF65
330
CF27
100
AcDbEntity
  8
0
  6
Continuous
 62
     7
370
    15
100
AcDbLine
 10
3.990703414712925
 20
0.0000000653169536
 30
0.0
 11
3.972845915013522
 21
0.0000000653169536
 31
0.0
  0
LINE
  5
CF66
330
CF27
100
AcDbEntity
  8
0
  6
Continuous
 62
     7
370
    15
100
AcDbLine
 10
3.638100877396482
 20
0.1278365125169785
 30
0.0
 11
3.638100877396482
 21
0.0000000653169536
 31
0.0
  0
LINE
  5
CF67
330
CF27
100
AcDbEntity
  8
0
  6
Continuous
 62
     7
370
    15
100
AcDbLine
 10
3.655939732683691
 20
0.0000000653169536
 30
0.0
 11
3.638100877396482
 21
0.0000000653169536
 31
0.0
  0
LINE
  5
CF68
330
CF27
100
AcDbEntity
  8
0
  6
Continuous
 62
     7
370
    15
100
AcDbLine
 10
3.993024932232628
 20
0.1278365125169785
 30
0.0
 11
3.993024932232628
 21
0.0000000653169536
 31
0.0
  0
LINE
  5
CF69
330
CF27
100
AcDbEntity
  8
0
  6
Continuous
 62
     7
370
    15
100
AcDbLine
 10
3.993024932232628
 20
0.0000000653169536
 30
0.0
 11
3.990703414712925
 21
0.0000000653169536
 31
0.0
  0
LINE
  5
CF6A
330
CF27
100
AcDbEntity
  8
0
  6
Continuous
 62
     7
370
    15
100
AcDbLine
 10
3.635762160590047
 20
0.1278365125169785
 30
0.0
 11
3.635762160590047
 21
0.0000000653169536
 31
0.0
  0
LINE
  5
CF6B
330
CF27
100
AcDbEntity
  8
0
  6
Continuous
 62
     7
370
    15
100
AcDbLine
 10
3.638100877396482
 20
0.0000000653169536
 30
0.0
 11
3.635762160590047
 21
0.0000000653169536
 31
0.0
  0
LINE
  5
CF6C
330
CF27
100
AcDbEntity
  8
0
  6
Continuous
 62
     7
370
    15
100
AcDbLine
 10
4.010910882354437
 20
0.0000000653169536
 30
0.0
 11
4.010910882354437
 21
0.1278365125169785
 31
0.0
  0
LINE
  5
CF6D
330
CF27
100
AcDbEntity
  8
0
  6
Continuous
 62
     7
370
    15
100
AcDbLine
 10
4.010910882354437
 20
0.0000000653169536
 30
0.0
 11
3.993024932232628
 21
0.0000000653169536
 31
0.0
  0
LINE
  5
CF6E
330
CF27
100
AcDbEntity
  8
0
  6
Continuous
 62
     7
370
    15
100
AcDbLine
 10
3.617893409754969
 20
0.1278365125169785
 30
0.0
 11
3.617893409754969
 21
0.0000000653169536
 31
0.0
  0
LINE
  5
CF6F
330
CF27
100
AcDbEntity
  8
0
  6
Continuous
 62
     7
370
    15
100
AcDbLine
 10
3.635762160590047
 20
0.0000000653169536
 30
0.0
 11
3.617893409754969
 21
0.0000000653169536
 31
0.0
  0
LINE
  5
CF70
330
CF27
100
AcDbEntity
  8
0
  6
Continuous
 62
     7
370
    15
100
AcDbLine
 10
3.617304989216336
 20
0.1278365125169785
 30
0.0
 11
3.617304989216336
 21
0.0000000653169536
 31
0.0
  0
LINE
  5
CF71
330
CF27
100
AcDbEntity
  8
0
  6
Continuous
 62
     7
370
    15
100
AcDbLine
 10
3.617893409754969
 20
0.0000000653169536
 30
0.0
 11
3.617304989216336
 21
0.0000000653169536
 31
0.0
  0
LINE
  5
CF72
330
CF27
100
AcDbEntity
  8
0
  6
Continuous
 62
     7
370
    15
100
AcDbLine
 10
4.01148371436011
 20
0.0000000653169536
 30
0.0
 11
4.01148371436011
 21
0.1278365125169785
 31
0.0
  0
LINE
  5
CF73
330
CF27
100
AcDbEntity
  8
0
  6
Continuous
 62
     7
370
    15
100
AcDbLine
 10
4.01148371436011
 20
0.0000000653169536
 30
0.0
 11
4.010910882354437
 21
0.0000000653169536
 31
0.0
  0
LINE
  5
CF74
330
CF27
100
AcDbEntity
  8
0
  6
Continuous
 62
     7
370
    15
100
AcDbLine
 10
4.029225863459487
 20
0.0000000653169536
 30
0.0
 11
4.029225863459487
 21
0.1278365125169785
 31
0.0
  0
LINE
  5
CF75
330
CF27
100
AcDbEntity
  8
0
  6
Continuous
 62
     7
370
    15
100
AcDbLine
 10
4.029225863459487
 20
0.0000000653169536
 30
0.0
 11
4.01148371436011
 21
0.0000000653169536
 31
0.0
  0
LINE
  5
CF76
330
CF27
100
AcDbEntity
  8
0
  6
Continuous
 62
     7
370
    15
100
AcDbLine
 10
3.59957842864992
 20
0.1278365125169785
 30
0.0
 11
3.59957842864992
 21
0.0000000653169536
 31
0.0
  0
LINE
  5
CF77
330
CF27
100
AcDbEntity
  8
0
  6
Continuous
 62
     7
370
    15
100
AcDbLine
 10
3.617304989216336
 20
0.0000000653169536
 30
0.0
 11
3.59957842864992
 21
0.0000000653169536
 31
0.0
  0
LINE
  5
CF78
330
CF27
100
AcDbEntity
  8
0
  6
Continuous
 62
     7
370
    15
100
AcDbLine
 10
4.0454719747338
 20
0.0000000653169536
 30
0.0
 11
4.0454719747338
 21
0.1278365125169785
 31
0.0
  0
LINE
  5
CF79
330
CF27
100
AcDbEntity
  8
0
  6
Continuous
 62
     7
370
    15
100
AcDbLine
 10
4.0454719747338
 20
0.0000000653169536
 30
0.0
 11
4.029225863459487
 21
0.0000000653169536
 31
0.0
  0
LINE
  5
CF7A
330
CF27
100
AcDbEntity
  8
0
  6
Continuous
 62
     7
370
    15
100
AcDbLine
 10
3.583332317375607
 20
0.1278365125169785
 30
0.0
 11
3.583332317375607
 21
0.0000000653169536
 31
0.0
  0
LINE
  5
CF7B
330
CF27
100
AcDbEntity
  8
0
  6
Continuous
 62
     7
370
    15
100
AcDbLine
 10
3.59957842864992
 20
0.0000000653169536
 30
0.0
 11
3.583332317375607
 21
0.0000000653169536
 31
0.0
  0
LINE
  5
CF7C
330
CF27
100
AcDbEntity
  8
0
  6
Continuous
 62
     7
370
    15
100
AcDbLine
 10
4.059492757240832
 20
0.0000000653169536
 30
0.0
 11
4.059492757240832
 21
0.1278365125169785
 31
0.0
  0
LINE
  5
CF7D
330
CF27
100
AcDbEntity
  8
0
  6
Continuous
 62
     7
370
    15
100
AcDbLine
 10
4.059492757240832
 20
0.0000000653169536
 30
0.0
 11
4.0454719747338
 21
0.0000000653169536
 31
0.0
  0
LINE
  5
CF7E
330
CF27
100
AcDbEntity
  8
0
  6
Continuous
 62
     7
370
    15
100
AcDbLine
 10
3.569311534868575
 20
0.1278365125169785
 30
0.0
 11
3.569311534868575
 21
0.0000000653169536
 31
0.0
  0
LINE
  5
CF7F
330
CF27
100
AcDbEntity
  8
0
  6
Continuous
 62
     7
370
    15
100
AcDbLine
 10
3.583332317375607
 20
0.0000000653169536
 30
0.0
 11
3.569311534868575
 21
0.0000000653169536
 31
0.0
  0
LINE
  5
CF80
330
CF27
100
AcDbEntity
  8
0
  6
Continuous
 62
     7
370
    15
100
AcDbLine
 10
4.071153183203023
 20
0.0000000653169536
 30
0.0
 11
4.071153183203023
 21
0.1278365125169785
 31
0.0
  0
LINE
  5
CF81
330
CF27
100
AcDbEntity
  8
0
  6
Continuous
 62
     7
370
    15
100
AcDbLine
 10
4.071153183203023
 20
0.0000000653169536
 30
0.0
 11
4.059492757240832
 21
0.0000000653169536
 31
0.0
  0
LINE
  5
CF82
330
CF27
100
AcDbEntity
  8
0
  6
Continuous
 62
     7
370
    15
100
AcDbLine
 10
3.557651108906384
 20
0.1278365125169785
 30
0.0
 11
3.557651108906384
 21
0.0000000653169536
 31
0.0
  0
LINE
  5
CF83
330
CF27
100
AcDbEntity
  8
0
  6
Continuous
 62
     7
370
    15
100
AcDbLine
 10
3.569311534868575
 20
0.0000000653169536
 30
0.0
 11
3.557651108906384
 21
0.0000000653169536
 31
0.0
  0
LINE
  5
CF84
330
CF27
100
AcDbEntity
  8
0
  6
Continuous
 62
     7
370
    15
100
AcDbLine
 10
4.080340956271129
 20
0.0000000653169536
 30
0.0
 11
4.080340956271129
 21
0.1278365125169785
 31
0.0
  0
LINE
  5
CF85
330
CF27
100
AcDbEntity
  8
0
  6
Continuous
 62
     7
370
    15
100
AcDbLine
 10
4.080340956271129
 20
0.0000000653169536
 30
0.0
 11
4.071153183203023
 21
0.0000000653169536
 31
0.0
  0
LINE
  5
CF86
330
CF27
100
AcDbEntity
  8
0
  6
Continuous
 62
     7
370
    15
100
AcDbLine
 10
3.548463335838277
 20
0.1278365125169785
 30
0.0
 11
3.548463335838277
 21
0.0000000653169536
 31
0.0
  0
LINE
  5
CF87
330
CF27
100
AcDbEntity
  8
0
  6
Continuous
 62
     7
370
    15
100
AcDbLine
 10
3.557651108906384
 20
0.0000000653169536
 30
0.0
 11
3.548463335838277
 21
0.0000000653169536
 31
0.0
  0
LINE
  5
CF88
330
CF27
100
AcDbEntity
  8
0
  6
Continuous
 62
     7
370
    15
100
AcDbLine
 10
4.086967593249255
 20
0.0000000653169536
 30
0.0
 11
4.086967593249255
 21
0.1278365125169785
 31
0.0
  0
LINE
  5
CF89
330
CF27
100
AcDbEntity
  8
0
  6
Continuous
 62
     7
370
    15
100
AcDbLine
 10
4.086967593249255
 20
0.0000000653169536
 30
0.0
 11
4.080340956271129
 21
0.0000000653169536
 31
0.0
  0
LINE
  5
CF8A
330
CF27
100
AcDbEntity
  8
0
  6
Continuous
 62
     7
370
    15
100
AcDbLine
 10
3.541836698860151
 20
0.1278365125169785
 30
0.0
 11
3.541836698860151
 21
0.0000000653169536
 31
0.0
  0
LINE
  5
CF8B
330
CF27
100
AcDbEntity
  8
0
  6
Continuous
 62
     7
370
    15
100
AcDbLine
 10
3.548463335838277
 20
0.0000000653169536
 30
0.0
 11
3.541836698860151
 21
0.0000000653169536
 31
0.0
  0
LINE
  5
CF8C
330
CF27
100
AcDbEntity
  8
0
  6
Continuous
 62
     7
370
    15
100
AcDbLine
 10
4.090969275988527
 20
0.0000000653169536
 30
0.0
 11
4.090969275988527
 21
0.1278365125169785
 31
0.0
  0
LINE
  5
CF8D
330
CF27
100
AcDbEntity
  8
0
  6
Continuous
 62
     7
370
    15
100
AcDbLine
 10
4.090969275988527
 20
0.0000000653169536
 30
0.0
 11
4.086967593249255
 21
0.0000000653169536
 31
0.0
  0
LINE
  5
CF8E
330
CF27
100
AcDbEntity
  8
0
  6
Continuous
 62
     7
370
    15
100
AcDbLine
 10
3.53783501612088
 20
0.1278365125169785
 30
0.0
 11
3.53783501612088
 21
0.0000000653169536
 31
0.0
  0
LINE
  5
CF8F
330
CF27
100
AcDbEntity
  8
0
  6
Continuous
 62
     7
370
    15
100
AcDbLine
 10
3.541836698860151
 20
0.0000000653169536
 30
0.0
 11
3.53783501612088
 21
0.0000000653169536
 31
0.0
  0
LINE
  5
CF90
330
CF27
100
AcDbEntity
  8
0
  6
Continuous
 62
     7
370
    15
100
AcDbLine
 10
4.092307466037482
 20
0.0000000653169536
 30
0.0
 11
4.092307466037482
 21
0.1278365125169785
 31
0.0
  0
LINE
  5
CF91
330
CF27
100
AcDbEntity
  8
0
  6
Continuous
 62
     7
370
    15
100
AcDbLine
 10
4.092307466037482
 20
0.0000000653169536
 30
0.0
 11
4.090969275988527
 21
0.0000000653169536
 31
0.0
  0
LINE
  5
CF92
330
CF27
100
AcDbEntity
  8
0
  6
Continuous
 62
     7
370
    15
100
AcDbLine
 10
3.536496826071925
 20
0.1278365125169785
 30
0.0
 11
3.536496826071925
 21
0.0000000653169536
 31
0.0
  0
LINE
  5
CF93
330
CF27
100
AcDbEntity
  8
0
  6
Continuous
 62
     7
370
    15
100
AcDbLine
 10
3.53783501612088
 20
0.0000000653169536
 30
0.0
 11
3.536496826071925
 21
0.0000000653169536
 31
0.0
  0
LINE
  5
CF94
330
CF27
100
AcDbEntity
  8
0
  6
Continuous
 62
     7
370
    15
100
AcDbLine
 10
11.88626965820708
 20
0.1278365125169785
 30
0.0
 11
11.88626965820708
 21
0.0000000653169536
 31
0.0
  0
LINE
  5
CF95
330
CF27
100
AcDbEntity
  8
0
  6
Continuous
 62
     7
370
    15
100
AcDbLine
 10
11.89933301096153
 20
0.1278365125169785
 30
0.0
 11
11.89933301096153
 21
0.0000000653169536
 31
0.0
  0
LINE
  5
CF96
330
CF27
100
AcDbEntity
  8
0
  6
Continuous
 62
     7
370
    15
100
AcDbLine
 10
11.89933301096153
 20
0.0000000653169536
 30
0.0
 11
11.88626965820708
 21
0.0000000653169536
 31
0.0
  0
LINE
  5
CF97
330
CF27
100
AcDbEntity
  8
0
  6
Continuous
 62
     7
370
    15
100
AcDbLine
 10
11.91237317925015
 20
0.1278365125169785
 30
0.0
 11
11.91237317925015
 21
0.0000000653169536
 31
0.0
  0
LINE
  5
CF98
330
CF27
100
AcDbEntity
  8
0
  6
Continuous
 62
     7
370
    15
100
AcDbLine
 10
11.91237317925015
 20
0.0000000653169536
 30
0.0
 11
11.89933301096153
 21
0.0000000653169536
 31
0.0
  0
LINE
  5
CF99
330
CF27
100
AcDbEntity
  8
0
  6
Continuous
 62
     7
370
    15
100
AcDbLine
 10
11.92657249572721
 20
0.1278365125169785
 30
0.0
 11
11.92657249572721
 21
0.0000000653169536
 31
0.0
  0
LINE
  5
CF9A
330
CF27
100
AcDbEntity
  8
0
  6
Continuous
 62
     7
370
    15
100
AcDbLine
 10
11.92657249572721
 20
0.0000000653169536
 30
0.0
 11
11.91237317925015
 21
0.0000000653169536
 31
0.0
  0
LINE
  5
CF9B
330
CF27
100
AcDbEntity
  8
0
  6
Continuous
 62
     7
370
    15
100
AcDbLine
 10
11.87209352619561
 20
0.1278365125169785
 30
0.0
 11
11.87209352619561
 21
0.0000000653169536
 31
0.0
  0
LINE
  5
CF9C
330
CF27
100
AcDbEntity
  8
0
  6
Continuous
 62
     7
370
    15
100
AcDbLine
 10
11.88626965820708
 20
0.0000000653169536
 30
0.0
 11
11.87209352619561
 21
0.0000000653169536
 31
0.0
  0
LINE
  5
CF9D
330
CF27
100
AcDbEntity
  8
0
  6
Continuous
 62
     7
370
    15
100
AcDbLine
 10
11.93835111636053
 20
0.1278365125169785
 30
0.0
 11
11.93835111636053
 21
0.0000000653169536
 31
0.0
  0
LINE
  5
CF9E
330
CF27
100
AcDbEntity
  8
0
  6
Continuous
 62
     7
370
    15
100
AcDbLine
 10
11.93835111636053
 20
0.0000000653169536
 30
0.0
 11
11.92657249572721
 21
0.0000000653169536
 31
0.0
  0
LINE
  5
CF9F
330
CF27
100
AcDbEntity
  8
0
  6
Continuous
 62
     7
370
    15
100
AcDbLine
 10
11.86029194433081
 20
0.1278365125169785
 30
0.0
 11
11.86029194433081
 21
0.0000000653169536
 31
0.0
  0
LINE
  5
CFA0
330
CF27
100
AcDbEntity
  8
0
  6
Continuous
 62
     7
370
    15
100
AcDbLine
 10
11.87209352619561
 20
0.0000000653169536
 30
0.0
 11
11.86029194433081
 21
0.0000000653169536
 31
0.0
  0
LINE
  5
CFA1
330
CF27
100
AcDbEntity
  8
0
  6
Continuous
 62
     7
370
    15
100
AcDbLine
 10
11.95354964933085
 20
0.1278365125169785
 30
0.0
 11
11.95354964933085
 21
0.0000000653169536
 31
0.0
  0
LINE
  5
CFA2
330
CF27
100
AcDbEntity
  8
0
  6
Continuous
 62
     7
370
    15
100
AcDbLine
 10
11.95354964933085
 20
0.0000000653169536
 30
0.0
 11
11.93835111636053
 21
0.0000000653169536
 31
0.0
  0
LINE
  5
CFA3
330
CF27
100
AcDbEntity
  8
0
  6
Continuous
 62
     7
370
    15
100
AcDbLine
 10
11.8451163725922
 20
0.1278365125169785
 30
0.0
 11
11.8451163725922
 21
0.0000000653169536
 31
0.0
  0
LINE
  5
CFA4
330
CF27
100
AcDbEntity
  8
0
  6
Continuous
 62
     7
370
    15
100
AcDbLine
 10
11.86029194433081
 20
0.0000000653169536
 30
0.0
 11
11.8451163725922
 21
0.0000000653169536
 31
0.0
  0
LINE
  5
CFA5
330
CF27
100
AcDbEntity
  8
0
  6
Continuous
 62
     7
370
    15
100
AcDbLine
 10
11.83469021730093
 20
0.1278365125169785
 30
0.0
 11
11.83469021730093
 21
0.0000000653169536
 31
0.0
  0
LINE
  5
CFA6
330
CF27
100
AcDbEntity
  8
0
  6
Continuous
 62
     7
370
    15
100
AcDbLine
 10
11.8451163725922
 20
0.0000000653169536
 30
0.0
 11
11.83469021730093
 21
0.0000000653169536
 31
0.0
  0
LINE
  5
CFA7
330
CF27
100
AcDbEntity
  8
0
  6
Continuous
 62
     7
370
    15
100
AcDbLine
 10
11.96395328780886
 20
0.1278365125169785
 30
0.0
 11
11.96395328780886
 21
0.0000000653169536
 31
0.0
  0
LINE
  5
CFA8
330
CF27
100
AcDbEntity
  8
0
  6
Continuous
 62
     7
370
    15
100
AcDbLine
 10
11.96395328780886
 20
0.0000000653169536
 30
0.0
 11
11.95354964933085
 21
0.0000000653169536
 31
0.0
  0
LINE
  5
CFA9
330
CF27
100
AcDbEntity
  8
0
  6
Continuous
 62
     7
370
    15
100
AcDbLine
 10
11.98000466706662
 20
0.1278365125169785
 30
0.0
 11
11.98000466706662
 21
0.0000000653169536
 31
0.0
  0
LINE
  5
CFAA
330
CF27
100
AcDbEntity
  8
0
  6
Continuous
 62
     7
370
    15
100
AcDbLine
 10
11.98000466706662
 20
0.0000000653169536
 30
0.0
 11
11.96395328780886
 21
0.0000000653169536
 31
0.0
  0
LINE
  5
CFAB
330
CF27
100
AcDbEntity
  8
0
  6
Continuous
 62
     7
370
    15
100
AcDbLine
 10
11.81866135485643
 20
0.1278365125169785
 30
0.0
 11
11.81866135485643
 21
0.0000000653169536
 31
0.0
  0
LINE
  5
CFAC
330
CF27
100
AcDbEntity
  8
0
  6
Continuous
 62
     7
370
    15
100
AcDbLine
 10
11.83469021730093
 20
0.0000000653169536
 30
0.0
 11
11.81866135485643
 21
0.0000000653169536
 31
0.0
  0
LINE
  5
CFAD
330
CF27
100
AcDbEntity
  8
0
  6
Continuous
 62
     7
370
    15
100
AcDbLine
 10
11.98893313065923
 20
0.1278365125169785
 30
0.0
 11
11.98893313065923
 21
0.0000000653169536
 31
0.0
  0
LINE
  5
CFAE
330
CF27
100
AcDbEntity
  8
0
  6
Continuous
 62
     7
370
    15
100
AcDbLine
 10
11.98893313065923
 20
0.0000000653169536
 30
0.0
 11
11.98000466706662
 21
0.0000000653169536
 31
0.0
  0
LINE
  5
CFAF
330
CF27
100
AcDbEntity
  8
0
  6
Continuous
 62
     7
370
    15
100
AcDbLine
 10
11.80971103573051
 20
0.1278365125169785
 30
0.0
 11
11.80971103573051
 21
0.0000000653169536
 31
0.0
  0
LINE
  5
CFB0
330
CF27
100
AcDbEntity
  8
0
  6
Continuous
 62
     7
370
    15
100
AcDbLine
 10
11.81866135485643
 20
0.0000000653169536
 30
0.0
 11
11.80971103573051
 21
0.0000000653169536
 31
0.0
  0
LINE
  5
CFB1
330
CF27
100
AcDbEntity
  8
0
  6
Continuous
 62
     7
370
    15
100
AcDbLine
 10
12.00568277269099
 20
0.1278365125169785
 30
0.0
 11
12.00568277269099
 21
0.0000000653169536
 31
0.0
  0
LINE
  5
CFB2
330
CF27
100
AcDbEntity
  8
0
  6
Continuous
 62
     7
370
    15
100
AcDbLine
 10
12.00568277269099
 20
0.0000000653169536
 30
0.0
 11
11.98893313065923
 21
0.0000000653169536
 31
0.0
  0
LINE
  5
CFB3
330
CF27
100
AcDbEntity
  8
0
  6
Continuous
 62
     7
370
    15
100
AcDbLine
 10
11.79298324923206
 20
0.1278365125169785
 30
0.0
 11
11.79298324923206
 21
0.0000000653169536
 31
0.0
  0
LINE
  5
CFB4
330
CF27
100
AcDbEntity
  8
0
  6
Continuous
 62
     7
370
    15
100
AcDbLine
 10
11.80971103573051
 20
0.0000000653169536
 30
0.0
 11
11.79298324923206
 21
0.0000000653169536
 31
0.0
  0
LINE
  5
CFB5
330
CF27
100
AcDbEntity
  8
0
  6
Continuous
 62
     7
370
    15
100
AcDbLine
 10
12.01305007535097
 20
0.1278365125169785
 30
0.0
 11
12.01305007535097
 21
0.0000000653169536
 31
0.0
  0
LINE
  5
CFB6
330
CF27
100
AcDbEntity
  8
0
  6
Continuous
 62
     7
370
    15
100
AcDbLine
 10
12.01305007535097
 20
0.0000000653169536
 30
0.0
 11
12.00568277269099
 21
0.0000000653169536
 31
0.0
  0
LINE
  5
CFB7
330
CF27
100
AcDbEntity
  8
0
  6
Continuous
 62
     7
370
    15
100
AcDbLine
 10
11.78559496275147
 20
0.1278365125169785
 30
0.0
 11
11.78559496275147
 21
0.0000000653169536
 31
0.0
  0
LINE
  5
CFB8
330
CF27
100
AcDbEntity
  8
0
  6
Continuous
 62
     7
370
    15
100
AcDbLine
 10
11.79298324923206
 20
0.0000000653169536
 30
0.0
 11
11.78559496275147
 21
0.0000000653169536
 31
0.0
  0
LINE
  5
CFB9
330
CF27
100
AcDbEntity
  8
0
  6
Continuous
 62
     7
370
    15
100
AcDbLine
 10
12.03033667194631
 20
0.1278365125169785
 30
0.0
 11
12.03033667194631
 21
0.0000000653169536
 31
0.0
  0
LINE
  5
CFBA
330
CF27
100
AcDbEntity
  8
0
  6
Continuous
 62
     7
370
    15
100
AcDbLine
 10
12.03033667194631
 20
0.0000000653169536
 30
0.0
 11
12.01305007535097
 21
0.0000000653169536
 31
0.0
  0
LINE
  5
CFBB
330
CF27
100
AcDbEntity
  8
0
  6
Continuous
 62
     7
370
    15
100
AcDbLine
 10
11.76832934997651
 20
0.1278365125169785
 30
0.0
 11
11.76832934997651
 21
0.0000000653169536
 31
0.0
  0
LINE
  5
CFBC
330
CF27
100
AcDbEntity
  8
0
  6
Continuous
 62
     7
370
    15
100
AcDbLine
 10
11.78559496275147
 20
0.0000000653169536
 30
0.0
 11
11.76832934997651
 21
0.0000000653169536
 31
0.0
  0
LINE
  5
CFBD
330
CF27
100
AcDbEntity
  8
0
  6
Continuous
 62
     7
370
    15
100
AcDbLine
 10
11.76257424934374
 20
0.1278365125169785
 30
0.0
 11
11.76257424934374
 21
0.0000000653169536
 31
0.0
  0
LINE
  5
CFBE
330
CF27
100
AcDbEntity
  8
0
  6
Continuous
 62
     7
370
    15
100
AcDbLine
 10
11.76832934997651
 20
0.0000000653169536
 30
0.0
 11
11.76257424934374
 21
0.0000000653169536
 31
0.0
  0
LINE
  5
CFBF
330
CF27
100
AcDbEntity
  8
0
  6
Continuous
 62
     7
370
    15
100
AcDbLine
 10
12.03607186259478
 20
0.1278365125169785
 30
0.0
 11
12.03607186259478
 21
0.0000000653169536
 31
0.0
  0
LINE
  5
CFC0
330
CF27
100
AcDbEntity
  8
0
  6
Continuous
 62
     7
370
    15
100
AcDbLine
 10
12.03607186259478
 20
0.0000000653169536
 30
0.0
 11
12.03033667194631
 21
0.0000000653169536
 31
0.0
  0
LINE
  5
CFC1
330
CF27
100
AcDbEntity
  8
0
  6
Continuous
 62
     7
370
    15
100
AcDbLine
 10
12.05372893435947
 20
0.1278365125169785
 30
0.0
 11
12.05372893435947
 21
0.0000000653169536
 31
0.0
  0
LINE
  5
CFC2
330
CF27
100
AcDbEntity
  8
0
  6
Continuous
 62
     7
370
    15
100
AcDbLine
 10
12.05372893435947
 20
0.0000000653169536
 30
0.0
 11
12.03607186259478
 21
0.0000000653169536
 31
0.0
  0
LINE
  5
CFC3
330
CF27
100
AcDbEntity
  8
0
  6
Continuous
 62
     7
370
    15
100
AcDbLine
 10
11.74493708756358
 20
0.1278365125169785
 30
0.0
 11
11.74493708756358
 21
0.0000000653169536
 31
0.0
  0
LINE
  5
CFC4
330
CF27
100
AcDbEntity
  8
0
  6
Continuous
 62
     7
370
    15
100
AcDbLine
 10
11.76257424934374
 20
0.0000000653169536
 30
0.0
 11
11.74493708756358
 21
0.0000000653169536
 31
0.0
  0
LINE
  5
CFC5
330
CF27
100
AcDbEntity
  8
0
  6
Continuous
 62
     7
370
    15
100
AcDbLine
 10
11.74087059759063
 20
0.1278365125169785
 30
0.0
 11
11.74087059759063
 21
0.0000000653169536
 31
0.0
  0
LINE
  5
CFC6
330
CF27
100
AcDbEntity
  8
0
  6
Continuous
 62
     7
370
    15
100
AcDbLine
 10
11.74493708756358
 20
0.0000000653169536
 30
0.0
 11
11.74087059759063
 21
0.0000000653169536
 31
0.0
  0
LINE
  5
CFC7
330
CF27
100
AcDbEntity
  8
0
  6
Continuous
 62
     7
370
    15
100
AcDbLine
 10
12.05777677992046
 20
0.1278365125169785
 30
0.0
 11
12.05777677992046
 21
0.0000000653169536
 31
0.0
  0
LINE
  5
CFC8
330
CF27
100
AcDbEntity
  8
0
  6
Continuous
 62
     7
370
    15
100
AcDbLine
 10
12.05777677992046
 20
0.0000000653169536
 30
0.0
 11
12.05372893435947
 21
0.0000000653169536
 31
0.0
  0
LINE
  5
CFC9
330
CF27
100
AcDbEntity
  8
0
  6
Continuous
 62
     7
370
    15
100
AcDbLine
 10
12.07563427961963
 20
0.1278365125169785
 30
0.0
 11
12.07563427961963
 21
0.0000000653169536
 31
0.0
  0
LINE
  5
CFCA
330
CF27
100
AcDbEntity
  8
0
  6
Continuous
 62
     7
370
    15
100
AcDbLine
 10
12.07563427961963
 20
0.0000000653169536
 30
0.0
 11
12.05777677992046
 21
0.0000000653169536
 31
0.0
  0
LINE
  5
CFCB
330
CF27
100
AcDbEntity
  8
0
  6
Continuous
 62
     7
370
    15
100
AcDbLine
 10
11.72303174230319
 20
0.1278365125169785
 30
0.0
 11
11.72303174230319
 21
0.0000000653169536
 31
0.0
  0
LINE
  5
CFCC
330
CF27
100
AcDbEntity
  8
0
  6
Continuous
 62
     7
370
    15
100
AcDbLine
 10
11.74087059759063
 20
0.0000000653169536
 30
0.0
 11
11.72303174230319
 21
0.0000000653169536
 31
0.0
  0
LINE
  5
CFCD
330
CF27
100
AcDbEntity
  8
0
  6
Continuous
 62
     7
370
    15
100
AcDbLine
 10
12.07795579713934
 20
0.1278365125169785
 30
0.0
 11
12.07795579713934
 21
0.0000000653169536
 31
0.0
  0
LINE
  5
CFCE
330
CF27
100
AcDbEntity
  8
0
  6
Continuous
 62
     7
370
    15
100
AcDbLine
 10
12.07795579713934
 20
0.0000000653169536
 30
0.0
 11
12.07563427961963
 21
0.0000000653169536
 31
0.0
  0
LINE
  5
CFCF
330
CF27
100
AcDbEntity
  8
0
  6
Continuous
 62
     7
370
    15
100
AcDbLine
 10
11.72069302549676
 20
0.1278365125169785
 30
0.0
 11
11.72069302549676
 21
0.0000000653169536
 31
0.0
  0
LINE
  5
CFD0
330
CF27
100
AcDbEntity
  8
0
  6
Continuous
 62
     7
370
    15
100
AcDbLine
 10
11.72303174230319
 20
0.0000000653169536
 30
0.0
 11
11.72069302549676
 21
0.0000000653169536
 31
0.0
  0
LINE
  5
CFD1
330
CF27
100
AcDbEntity
  8
0
  6
Continuous
 62
     7
370
    15
100
AcDbLine
 10
12.09584174726137
 20
0.1278365125169785
 30
0.0
 11
12.09584174726137
 21
0.0000000653169536
 31
0.0
  0
LINE
  5
CFD2
330
CF27
100
AcDbEntity
  8
0
  6
Continuous
 62
     7
370
    15
100
AcDbLine
 10
12.09584174726137
 20
0.0000000653169536
 30
0.0
 11
12.07795579713934
 21
0.0000000653169536
 31
0.0
  0
LINE
  5
CFD3
330
CF27
100
AcDbEntity
  8
0
  6
Continuous
 62
     7
370
    15
100
AcDbLine
 10
11.70282427466168
 20
0.1278365125169785
 30
0.0
 11
11.70282427466168
 21
0.0000000653169536
 31
0.0
  0
LINE
  5
CFD4
330
CF27
100
AcDbEntity
  8
0
  6
Continuous
 62
     7
370
    15
100
AcDbLine
 10
11.70282427466168
 20
0.0000000653169536
 30
0.0
 11
11.72069302549676
 21
0.0000000653169536
 31
0.0
  0
LINE
  5
CFD5
330
CF27
100
AcDbEntity
  8
0
  6
Continuous
 62
     7
370
    15
100
AcDbLine
 10
12.09641457926705
 20
0.1278365125169785
 30
0.0
 11
12.09641457926705
 21
0.0000000653169536
 31
0.0
  0
LINE
  5
CFD6
330
CF27
100
AcDbEntity
  8
0
  6
Continuous
 62
     7
370
    15
100
AcDbLine
 10
12.09641457926705
 20
0.0000000653169536
 30
0.0
 11
12.09584174726137
 21
0.0000000653169536
 31
0.0
  0
LINE
  5
CFD7
330
CF27
100
AcDbEntity
  8
0
  6
Continuous
 62
     7
370
    15
100
AcDbLine
 10
11.70223585412327
 20
0.0000000653169536
 30
0.0
 11
11.70223585412327
 21
0.1278365125169785
 31
0.0
  0
LINE
  5
CFD8
330
CF27
100
AcDbEntity
  8
0
  6
Continuous
 62
     7
370
    15
100
AcDbLine
 10
11.70282427466168
 20
0.0000000653169536
 30
0.0
 11
11.70223585412327
 21
0.0000000653169536
 31
0.0
  0
LINE
  5
CFD9
330
CF27
100
AcDbEntity
  8
0
  6
Continuous
 62
     7
370
    15
100
AcDbLine
 10
12.1141567283662
 20
0.1278365125169785
 30
0.0
 11
12.1141567283662
 21
0.0000000653169536
 31
0.0
  0
LINE
  5
CFDA
330
CF27
100
AcDbEntity
  8
0
  6
Continuous
 62
     7
370
    15
100
AcDbLine
 10
12.1141567283662
 20
0.0000000653169536
 30
0.0
 11
12.09641457926705
 21
0.0000000653169536
 31
0.0
  0
LINE
  5
CFDB
330
CF27
100
AcDbEntity
  8
0
  6
Continuous
 62
     7
370
    15
100
AcDbLine
 10
11.68450929355663
 20
0.0000000653169536
 30
0.0
 11
11.68450929355663
 21
0.1278365125169785
 31
0.0
  0
LINE
  5
CFDC
330
CF27
100
AcDbEntity
  8
0
  6
Continuous
 62
     7
370
    15
100
AcDbLine
 10
11.70223585412327
 20
0.0000000653169536
 30
0.0
 11
11.68450929355663
 21
0.0000000653169536
 31
0.0
  0
LINE
  5
CFDD
330
CF27
100
AcDbEntity
  8
0
  6
Continuous
 62
     7
370
    15
100
AcDbLine
 10
12.13040283964051
 20
0.1278365125169785
 30
0.0
 11
12.13040283964051
 21
0.0000000653169536
 31
0.0
  0
LINE
  5
CFDE
330
CF27
100
AcDbEntity
  8
0
  6
Continuous
 62
     7
370
    15
100
AcDbLine
 10
12.13040283964051
 20
0.0000000653169536
 30
0.0
 11
12.1141567283662
 21
0.0000000653169536
 31
0.0
  0
LINE
  5
CFDF
330
CF27
100
AcDbEntity
  8
0
  6
Continuous
 62
     7
370
    15
100
AcDbLine
 10
11.66826318228254
 20
0.0000000653169536
 30
0.0
 11
11.66826318228254
 21
0.1278365125169785
 31
0.0
  0
LINE
  5
CFE0
330
CF27
100
AcDbEntity
  8
0
  6
Continuous
 62
     7
370
    15
100
AcDbLine
 10
11.68450929355663
 20
0.0000000653169536
 30
0.0
 11
11.66826318228254
 21
0.0000000653169536
 31
0.0
  0
LINE
  5
CFE1
330
CF27
100
AcDbEntity
  8
0
  6
Continuous
 62
     7
370
    15
100
AcDbLine
 10
12.14442362214754
 20
0.1278365125169785
 30
0.0
 11
12.14442362214754
 21
0.0000000653169536
 31
0.0
  0
LINE
  5
CFE2
330
CF27
100
AcDbEntity
  8
0
  6
Continuous
 62
     7
370
    15
100
AcDbLine
 10
12.14442362214754
 20
0.0000000653169536
 30
0.0
 11
12.13040283964051
 21
0.0000000653169536
 31
0.0
  0
LINE
  5
CFE3
330
CF27
100
AcDbEntity
  8
0
  6
Continuous
 62
     7
370
    15
100
AcDbLine
 10
11.65424239977528
 20
0.0000000653169536
 30
0.0
 11
11.65424239977528
 21
0.1278365125169785
 31
0.0
  0
LINE
  5
CFE4
330
CF27
100
AcDbEntity
  8
0
  6
Continuous
 62
     7
370
    15
100
AcDbLine
 10
11.66826318228254
 20
0.0000000653169536
 30
0.0
 11
11.65424239977528
 21
0.0000000653169536
 31
0.0
  0
LINE
  5
CFE5
330
CF27
100
AcDbEntity
  8
0
  6
Continuous
 62
     7
370
    15
100
AcDbLine
 10
12.15608404810973
 20
0.1278365125169785
 30
0.0
 11
12.15608404810973
 21
0.0000000653169536
 31
0.0
  0
LINE
  5
CFE6
330
CF27
100
AcDbEntity
  8
0
  6
Continuous
 62
     7
370
    15
100
AcDbLine
 10
12.15608404810973
 20
0.0000000653169536
 30
0.0
 11
12.14442362214754
 21
0.0000000653169536
 31
0.0
  0
LINE
  5
CFE7
330
CF27
100
AcDbEntity
  8
0
  6
Continuous
 62
     7
370
    15
100
AcDbLine
 10
11.64258197381309
 20
0.0000000653169536
 30
0.0
 11
11.64258197381309
 21
0.1278365125169785
 31
0.0
  0
LINE
  5
CFE8
330
CF27
100
AcDbEntity
  8
0
  6
Continuous
 62
     7
370
    15
100
AcDbLine
 10
11.65424239977528
 20
0.0000000653169536
 30
0.0
 11
11.64258197381309
 21
0.0000000653169536
 31
0.0
  0
LINE
  5
CFE9
330
CF27
100
AcDbEntity
  8
0
  6
Continuous
 62
     7
370
    15
100
AcDbLine
 10
12.16527182117784
 20
0.1278365125169785
 30
0.0
 11
12.16527182117784
 21
0.0000000653169536
 31
0.0
  0
LINE
  5
CFEA
330
CF27
100
AcDbEntity
  8
0
  6
Continuous
 62
     7
370
    15
100
AcDbLine
 10
12.16527182117784
 20
0.0000000653169536
 30
0.0
 11
12.15608404810973
 21
0.0000000653169536
 31
0.0
  0
LINE
  5
CFEB
330
CF27
100
AcDbEntity
  8
0
  6
Continuous
 62
     7
370
    15
100
AcDbLine
 10
11.63339420074499
 20
0.0000000653169536
 30
0.0
 11
11.63339420074499
 21
0.1278365125169785
 31
0.0
  0
LINE
  5
CFEC
330
CF27
100
AcDbEntity
  8
0
  6
Continuous
 62
     7
370
    15
100
AcDbLine
 10
11.64258197381309
 20
0.0000000653169536
 30
0.0
 11
11.63339420074499
 21
0.0000000653169536
 31
0.0
  0
LINE
  5
CFED
330
CF27
100
AcDbEntity
  8
0
  6
Continuous
 62
     7
370
    15
100
AcDbLine
 10
12.17189845815619
 20
0.1278365125169785
 30
0.0
 11
12.17189845815619
 21
0.0000000653169536
 31
0.0
  0
LINE
  5
CFEE
330
CF27
100
AcDbEntity
  8
0
  6
Continuous
 62
     7
370
    15
100
AcDbLine
 10
12.17189845815619
 20
0.0000000653169536
 30
0.0
 11
12.16527182117784
 21
0.0000000653169536
 31
0.0
  0
LINE
  5
CFEF
330
CF27
100
AcDbEntity
  8
0
  6
Continuous
 62
     7
370
    15
100
AcDbLine
 10
11.62676756376686
 20
0.0000000653169536
 30
0.0
 11
11.62676756376686
 21
0.1278365125169785
 31
0.0
  0
LINE
  5
CFF0
330
CF27
100
AcDbEntity
  8
0
  6
Continuous
 62
     7
370
    15
100
AcDbLine
 10
11.63339420074499
 20
0.0000000653169536
 30
0.0
 11
11.62676756376686
 21
0.0000000653169536
 31
0.0
  0
LINE
  5
CFF1
330
CF27
100
AcDbEntity
  8
0
  6
Continuous
 62
     7
370
    15
100
AcDbLine
 10
12.17590014089523
 20
0.1278365125169785
 30
0.0
 11
12.17590014089523
 21
0.0000000653169536
 31
0.0
  0
LINE
  5
CFF2
330
CF27
100
AcDbEntity
  8
0
  6
Continuous
 62
     7
370
    15
100
AcDbLine
 10
12.17590014089523
 20
0.0000000653169536
 30
0.0
 11
12.17189845815619
 21
0.0000000653169536
 31
0.0
  0
LINE
  5
CFF3
330
CF27
100
AcDbEntity
  8
0
  6
Continuous
 62
     7
370
    15
100
AcDbLine
 10
11.62276588102759
 20
0.0000000653169536
 30
0.0
 11
11.62276588102759
 21
0.1278365125169785
 31
0.0
  0
LINE
  5
CFF4
330
CF27
100
AcDbEntity
  8
0
  6
Continuous
 62
     7
370
    15
100
AcDbLine
 10
11.62676756376686
 20
0.0000000653169536
 30
0.0
 11
11.62276588102759
 21
0.0000000653169536
 31
0.0
  0
LINE
  5
CFF5
330
CF27
100
AcDbEntity
  8
0
  6
Continuous
 62
     7
370
    15
100
AcDbLine
 10
12.17723833094442
 20
0.1278365125169785
 30
0.0
 11
12.17723833094442
 21
0.0000000653169536
 31
0.0
  0
LINE
  5
CFF6
330
CF27
100
AcDbEntity
  8
0
  6
Continuous
 62
     7
370
    15
100
AcDbLine
 10
12.17723833094442
 20
0.0000000653169536
 30
0.0
 11
12.17590014089523
 21
0.0000000653169536
 31
0.0
  0
LINE
  5
CFF7
330
CF27
100
AcDbEntity
  8
0
  6
Continuous
 62
     7
370
    15
100
AcDbLine
 10
11.62142769097863
 20
0.0000000653169536
 30
0.0
 11
11.62142769097863
 21
0.1278365125169785
 31
0.0
  0
LINE
  5
CFF8
330
CF27
100
AcDbEntity
  8
0
  6
Continuous
 62
     7
370
    15
100
AcDbLine
 10
11.62276588102759
 20
0.0000000653169536
 30
0.0
 11
11.62142769097863
 21
0.0000000653169536
 31
0.0
  0
LINE
  5
CFF9
330
CF27
100
AcDbEntity
  8
0
  6
Continuous
 62
     7
370
    15
100
AcDbLine
 10
0.4328254585079776
 20
0.1278365125169785
 30
0.0
 11
15.28090969850814
 21
0.1278365125169785
 31
0.0
  0
LINE
  5
CFFA
330
CF27
100
AcDbEntity
  8
0
  6
Continuous
 62
     7
370
    15
100
AcDbLine
 10
0.1614038739623993
 20
4.619561162563286
 30
0.0
 11
15.55233128305372
 21
4.619561162563286
 31
0.0
  0
LINE
  5
CFFB
330
CF27
100
AcDbEntity
  8
0
  6
Continuous
 62
     7
370
    15
100
AcDbLine
 10
15.7137351511642
 20
2.311378312517035
 30
0.0
 11
0.0000000058521437
 21
2.311378312517035
 31
0.0
  0
SPLINE
  5
CFFC
330
CF27
100
AcDbEntity
  8
0
  6
Continuous
 62
     7
370
    15
100
AcDbSpline
210
0.0
220
0.0
230
1.0
 70
     8
 71
     3
 72
    12
 73
     8
 74
     0
 42
0.0000000001
 43
0.0000000001
 40
0.0
 40
0.0
 40
0.0
 40
0.0
 40
0.2178843681884009
 40
0.4598780107323777
 40
0.6877974860429676
 40
0.8526353553532278
 40
1.0
 40
1.0
 40
1.0
 40
1.0
 10
0.2372242607164026
 20
4.692910572585105
 30
0.0
 10
0.2288285178310616
 20
4.691945288540637
 30
0.0
 10
0.2111080288909761
 20
4.689907910137435
 30
0.0
 10
0.1879539053827557
 20
4.675408420568828
 30
0.0
 10
0.172225518533196
 20
4.656395778761179
 30
0.0
 10
0.1637452837394449
 20
4.637124780060958
 30
0.0
 10
0.162154669604206
 20
4.625193106018741
 30
0.0
 10
0.1614038739623993
 20
4.619561162563286
 30
0.0
  0
SPLINE
  5
CFFD
330
CF27
100
AcDbEntity
  8
0
  6
Continuous
 62
     7
370
    15
100
AcDbSpline
210
0.0
220
0.0
230
1.0
 70
     8
 71
     3
 72
    12
 73
     8
 74
     0
 42
0.0000000001
 43
0.0000000001
 40
0.0
 40
0.0
 40
0.0
 40
0.0
 40
0.1473646442554857
 40
0.3122025131280437
 40
0.5401219878334392
 40
0.7821156297348504
 40
1.0
 40
1.0
 40
1.0
 40
1.0
 10
15.55233128305372
 20
4.619561162563286
 30
0.0
 10
15.55158048741191
 20
4.625193106018741
 30
0.0
 10
15.54998987327667
 20
4.637124780060958
 30
0.0
 10
15.54150963848292
 20
4.656395778760497
 30
0.0
 10
15.52578125163427
 20
4.675408420572011
 30
0.0
 10
15.50262712803214
 20
4.689907910180636
 30
0.0
 10
15.48490663898746
 20
4.691945288588385
 30
0.0
 10
15.4765108959989
 20
4.692910572641267
 30
0.0
  0
LINE
  5
CFFE
330
CF27
100
AcDbEntity
  8
0
  6
Continuous
 62
     7
370
    15
100
AcDbLine
 10
15.40001197850802
 20
1.12035551251688
 30
0.0
 11
0.3137231785080985
 21
1.12035551251688
 31
0.0
  0
ENDBLK
  5
D000
330
CF27
100
AcDbEntity
  8
0
100
AcDbBlockEnd
  0
BLOCK
  5
D09D
330
D09C
100
AcDbEntity
  8
0
100
AcDbBlockBegin
  2
_Open30
 70
     0
 10
0.0
 20
0.0
 30
0.0
  3
_Open30
  1

  0
LINE
  5
D09E
330
D09C
100
AcDbEntity
  8
0
  6
ByBlock
 62
     0
370
    -2
100
AcDbLine
 10
-1.0
 20
0.26794919
 30
0.0
 11
0.0
 21
0.0
 31
0.0
  0
LINE
  5
D09F
330
D09C
100
AcDbEntity
  8
0
  6
ByBlock
 62
     0
370
    -2
100
AcDbLine
 10
0.0
 20
0.0
 30
0.0
 11
-1.0
 21
-0.26794919
 31
0.0
  0
LINE
  5
D0A0
330
D09C
100
AcDbEntity
  8
0
  6
ByBlock
 62
     0
370
    -2
100
AcDbLine
 10
0.0
 20
0.0
 30
0.0
 11
-1.0
 21
0.0
 31
0.0
  0
ENDBLK
  5
D0A1
330
D09C
100
AcDbEntity
  8
0
100
AcDbBlockEnd
  0
BLOCK
  5
D0A3
330
D0A2
100
AcDbEntity
  8
0
100
AcDbBlockBegin
  2
SW_CENTERMARKSYMBOL_0
 70
     0
 10
0.0
 20
0.0
 30
0.0
  3
SW_CENTERMARKSYMBOL_0
  1

  0
LINE
  5
D0A4
330
D0A2
100
AcDbEntity
  8
0
  6
Continuous
 62
     0
370
     0
100
AcDbLine
 10
0.0
 20
0.0
 30
0.0
 11
0.0
 21
0.5000000000000005
 31
0.0
  0
LINE
  5
D0A5
330
D0A2
100
AcDbEntity
  8
0
  6
Continuous
 62
     0
370
     0
100
AcDbLine
 10
0.0
 20
0.0
 30
0.0
 11
-0.5000000000000005
 21
0.0
 31
0.0
  0
LINE
  5
D0A6
330
D0A2
100
AcDbEntity
  8
0
  6
Continuous
 62
     0
370
     0
100
AcDbLine
 10
0.0
 20
0.0
 30
0.0
 11
0.0
 21
-0.5000000000000005
 31
0.0
  0
LINE
  5
D0A7
330
D0A2
100
AcDbEntity
  8
0
  6
Continuous
 62
     0
370
     0
100
AcDbLine
 10
0.0
 20
0.0
 30
0.0
 11
0.5000000000000005
 21
0.0
 31
0.0
  0
LINE
  5
D0A8
330
D0A2
100
AcDbEntity
  8
0
  6
Continuous
 62
     0
370
     0
100
AcDbLine
 10
0.0
 20
1.0
 30
0.0
 11
0.0
 21
6.901599360511545
 31
0.0
  0
LINE
  5
D0A9
330
D0A2
100
AcDbEntity
  8
0
  6
Continuous
 62
     0
370
     0
100
AcDbLine
 10
-1.0
 20
0.0
 30
0.0
 11
-6.901599360511531
 21
0.0
 31
0.0
  0
LINE
  5
D0AA
330
D0A2
100
AcDbEntity
  8
0
  6
Continuous
 62
     0
370
     0
100
AcDbLine
 10
0.0
 20
-1.0
 30
0.0
 11
0.0
 21
-6.901599360511517
 31
0.0
  0
LINE
  5
D0AB
330
D0A2
100
AcDbEntity
  8
0
  6
Continuous
 62
     0
370
     0
100
AcDbLine
 10
1.0
 20
0.0
 30
0.0
 11
6.901599360511517
 21
0.0
 31
0.0
  0
ENDBLK
  5
D0AC
330
D0A2
100
AcDbEntity
  8
0
100
AcDbBlockEnd
  0
BLOCK
  5
D0AE
330
D0AD
100
AcDbEntity
  8
0
100
AcDbBlockBegin
  2
_Dot
 70
     0
 10
0.0
 20
0.0
 30
0.0
  3
_Dot
  1

  0
LWPOLYLINE
  5
D0AF
330
D0AD
100
AcDbEntity
  8
0
  6
Continuous
 62
     0
100
AcDbPolyline
 90
        2
 70
     1
 43
0.5
 10
-0.25
 20
0.0
 42
1.0
 10
0.25
 20
0.0
 42
1.0
  0
LINE
  5
D0B0
330
D0AD
100
AcDbEntity
  8
0
  6
Continuous
 62
     0
370
    -2
100
AcDbLine
 10
-0.5
 20
0.0
 30
0.0
 11
-1.0
 21
0.0
 31
0.0
  0
ENDBLK
  5
D0B1
330
D0AD
100
AcDbEntity
  8
0
100
AcDbBlockEnd
  0
BLOCK
  5
D0B3
330
D0B2
100
AcDbEntity
  8
0
100
AcDbBlockBegin
  2
_OPEN
 70
     0
 10
0.0
 20
0.0
 30
0.0
  3
_OPEN
  1

  0
LINE
  5
D0B4
330
D0B2
100
AcDbEntity
  8
0
  6
ByBlock
 62
     0
100
AcDbLine
 10
-1.0
 20
0.1666666666666666
 30
0.0
 11
0.0
 21
0.0
 31
0.0
  0
LINE
  5
D0B5
330
D0B2
100
AcDbEntity
  8
0
  6
ByBlock
 62
     0
100
AcDbLine
 10
0.0
 20
0.0
 30
0.0
 11
-1.0
 21
-0.1666666666666666
 31
0.0
  0
LINE
  5
D0B6
330
D0B2
100
AcDbEntity
  8
0
  6
ByBlock
 62
     0
100
AcDbLine
 10
0.0
 20
0.0
 30
0.0
 11
-1.0
 21
0.0
 31
0.0
  0
ENDBLK
  5
D0B7
330
D0B2
100
AcDbEntity
  8
0
100
AcDbBlockEnd
  0
BLOCK
  5
D0E6
330
D0BD
100
AcDbEntity
  8
0
100
AcDbBlockBegin
  2
A$C29194996
 70
     0
 10
0.0
 20
0.0
 30
0.0
  3
A$C29194996
  1

  0
CIRCLE
  5
D0BE
330
D0BD
100
AcDbEntity
  8
0
  6
Continuous
 62
     7
100
AcDbCircle
 10
198.427764208222
 20
198.4277667568223
 30
0.0
 40
195.4620937494679
  0
CIRCLE
  5
D0BF
330
D0BD
100
AcDbEntity
  8
0
  6
Continuous
 62
     7
100
AcDbCircle
 10
198.427764208222
 20
198.4277667568223
 30
0.0
 40
198.4277666215075
  0
CIRCLE
  5
D0C0
330
D0BD
100
AcDbEntity
  8
0
  6
HIDDEN
 48
5.0
370
    13
100
AcDbCircle
 10
198.427764208222
 20
198.4277667568223
 30
0.0
 40
37.5
  0
CIRCLE
  5
D0C1
330
D0BD
100
AcDbEntity
  8
0
100
AcDbCircle
 10
198.427764208222
 20
198.4277667568223
 30
0.0
 40
27.5
  0
CIRCLE
  5
D0C2
330
D0BD
100
AcDbEntity
  8
0
  6
HIDDEN
 48
5.0
370
    13
100
AcDbCircle
 10
198.4277642082229
 20
198.427766756822
 30
0.0
 40
188.4277666215084
  0
CIRCLE
  5
D0C3
330
D0BD
100
AcDbEntity
  8
0
  6
CENTERX2
 48
5.0
370
    13
100
AcDbCircle
 10
198.4277642082229
 20
198.4277667568213
 30
0.0
 40
143.9999999999981
  0
INSERT
  5
D0C4
330
D0BD
100
AcDbEntity
  8
0
  6
HIDDEN
 62
     7
 48
10.0
370
    13
100
AcDbBlockReference
  2
SW_CENTERMARKSYMBOL_0
 10
300.2511406990848
 20
300.2511432476826
 30
0.0
 41
0.5000000000000844
 42
0.5000000000000844
 43
0.5000000000000844
 50
225.0
  0
LINE
  5
D0C5
330
D0BD
100
AcDbEntity
  8
0
  6
HIDDEN
 62
     7
 48
10.0
370
    13
100
AcDbLine
 10
301.4885781140701
 20
287.6999984295302
 30
0.0
 11
300.0743643198894
 21
286.2857846353494
 31
0.0
  0
LINE
  5
D0C6
330
D0BD
100
AcDbEntity
  8
0
  6
HIDDEN
 62
     7
 48
5.0
370
    13
100
AcDbLine
 10
300.0743643198894
 20
286.2857846353494
 30
0.0
 11
285.9322289332344
 21
300.4279200220043
 31
0.0
  0
LINE
  5
D0C7
330
D0BD
100
AcDbEntity
  8
0
  6
HIDDEN
 62
     7
 48
5.0
370
    13
100
AcDbLine
 10
300.0743642408643
 20
314.5700553296341
 30
0.0
 11
314.2164996275192
 21
300.4279199429792
 31
0.0
  0
LINE
  5
D0C8
330
D0BD
100
AcDbEntity
  8
0
  6
HIDDEN
 62
     7
 48
5.0
370
    13
100
AcDbLine
 10
301.4885781140701
 20
287.6999984295302
 30
0.0
 11
314.2164996275192
 21
300.4279199429792
 31
0.0
  0
LINE
  5
D0C9
330
D0BD
100
AcDbEntity
  8
0
  6
HIDDEN
 62
     7
 48
5.0
370
    13
100
AcDbLine
 10
285.9322289332344
 20
300.4279200220043
 30
0.0
 11
300.0743642408643
 21
314.5700553296341
 31
0.0
  0
LINE
  5
D0CA
330
D0BD
100
AcDbEntity
  8
0
  6
HIDDEN
 62
     7
 48
5.0
370
    13
100
AcDbLine
 10
299.0137038372768
 20
313.5093949260462
 30
0.0
 11
313.1558392239317
 21
299.3672595393913
 31
0.0
  0
CIRCLE
  5
D0CB
330
D0BD
100
AcDbEntity
  8
0
  6
HIDDEN
 48
5.0
370
    13
100
AcDbCircle
 10
300.0743640037881
 20
300.4279199429792
 30
0.0
 40
2.0
  0
INSERT
  5
D0CC
330
D0BD
100
AcDbEntity
  8
0
  6
CENTER
 62
     7
370
    13
100
AcDbBlockReference
  2
SW_CENTERMARKSYMBOL_0
 10
96.60438771736245
 20
300.2511432476839
 30
0.0
 41
0.5000000000000844
 42
0.5000000000000844
 43
0.5000000000000844
 50
315.0
  0
LINE
  5
D0CD
330
D0BD
100
AcDbEntity
  8
0
  6
HIDDEN
 62
     7
 48
5.0
370
    13
100
AcDbLine
 10
109.3323092308114
 20
301.6653573579662
 30
0.0
 11
110.7465230249922
 21
300.2511435637854
 31
0.0
  0
LINE
  5
D0CE
330
D0BD
100
AcDbEntity
  8
0
  6
HIDDEN
 62
     7
 48
5.0
370
    13
100
AcDbLine
 10
110.7465230249922
 20
300.2511435637854
 30
0.0
 11
96.60438763833736
 21
286.1090081771304
 31
0.0
  0
LINE
  5
D0CF
330
D0BD
100
AcDbEntity
  8
0
  6
HIDDEN
 62
     7
 48
5.0
370
    13
100
AcDbLine
 10
82.46225233070754
 20
300.2511434847599
 30
0.0
 11
96.60438771736245
 21
314.3932788714149
 31
0.0
  0
LINE
  5
D0D0
330
D0BD
100
AcDbEntity
  8
0
  6
HIDDEN
 62
     7
 48
5.0
370
    13
100
AcDbLine
 10
109.3323092308114
 20
301.6653573579662
 30
0.0
 11
96.60438771736245
 21
314.3932788714149
 31
0.0
  0
LINE
  5
D0D1
330
D0BD
100
AcDbEntity
  8
0
  6
HIDDEN
 62
     7
 48
5.0
370
    13
100
AcDbLine
 10
96.60438763833736
 20
286.1090081771304
 30
0.0
 11
82.46225233070754
 21
300.2511434847599
 31
0.0
  0
LINE
  5
D0D2
330
D0BD
100
AcDbEntity
  8
0
  6
HIDDEN
 62
     7
 48
5.0
370
    13
100
AcDbLine
 10
83.522912734295
 20
299.1904830811725
 30
0.0
 11
97.66504812094991
 21
313.3326184678275
 31
0.0
  0
CIRCLE
  5
D0D3
330
D0BD
100
AcDbEntity
  8
0
  6
HIDDEN
 48
5.0
370
    13
100
AcDbCircle
 10
96.60438771736245
 20
300.2511432476839
 30
0.0
 40
2.0
  0
INSERT
  5
D0D4
330
D0BD
100
AcDbEntity
  8
0
  6
CENTER
 62
     7
370
    13
100
AcDbBlockReference
  2
SW_CENTERMARKSYMBOL_0
 10
96.60438771736199
 20
96.60439026595941
 30
0.0
 41
0.5000000000000844
 42
0.5000000000000844
 43
0.5000000000000844
 50
45.0
  0
LINE
  5
D0D5
330
D0BD
100
AcDbEntity
  8
0
  6
HIDDEN
 62
     7
 48
5.0
370
    13
100
AcDbLine
 10
95.19017360707948
 20
109.3323117794084
 30
0.0
 11
96.60438740126028
 21
110.7465255735892
 31
0.0
  0
LINE
  5
D0D6
330
D0BD
100
AcDbEntity
  8
0
  6
HIDDEN
 62
     7
 48
5.0
370
    13
100
AcDbLine
 10
96.60438740126028
 20
110.7465255735892
 30
0.0
 11
110.7465227879156
 21
96.60439018693388
 31
0.0
  0
LINE
  5
D0D7
330
D0BD
100
AcDbEntity
  8
0
  6
HIDDEN
 62
     7
 48
5.0
370
    13
100
AcDbLine
 10
96.60438748028582
 20
82.4622548793045
 30
0.0
 11
82.46225209363093
 21
96.60439026595941
 31
0.0
  0
LINE
  5
D0D8
330
D0BD
100
AcDbEntity
  8
0
  6
HIDDEN
 62
     7
 48
5.0
370
    13
100
AcDbLine
 10
95.19017360707948
 20
109.3323117794084
 30
0.0
 11
82.46225209363093
 21
96.60439026595941
 31
0.0
  0
LINE
  5
D0D9
330
D0BD
100
AcDbEntity
  8
0
  6
HIDDEN
 62
     7
 48
5.0
370
    13
100
AcDbLine
 10
110.7465227879156
 20
96.60439018693388
 30
0.0
 11
96.60438748028582
 21
82.4622548793045
 31
0.0
  0
LINE
  5
D0DA
330
D0BD
100
AcDbEntity
  8
0
  6
HIDDEN
 62
     7
 48
5.0
370
    13
100
AcDbLine
 10
97.66504788387329
 20
83.52291528289198
 30
0.0
 11
83.52291249721838
 21
97.66505066954687
 31
0.0
  0
CIRCLE
  5
D0DB
330
D0BD
100
AcDbEntity
  8
0
  6
HIDDEN
 48
5.0
370
    13
100
AcDbCircle
 10
96.60438771736199
 20
96.60439026595941
 30
0.0
 40
2.0
  0
INSERT
  5
D0DC
330
D0BD
100
AcDbEntity
  8
0
  6
HIDDEN
 62
     7
 48
10.0
370
    13
100
AcDbBlockReference
  2
SW_CENTERMARKSYMBOL_0
 10
300.2511406990857
 20
96.60439026596078
 30
0.0
 41
0.5000000000000844
 42
0.5000000000000844
 43
0.5000000000000844
 50
135.0
  0
LINE
  5
D0DD
330
D0BD
100
AcDbEntity
  8
0
  6
HIDDEN
 62
     7
 48
10.0
370
    13
100
AcDbLine
 10
287.6999958809338
 20
95.3669528509754
 30
0.0
 11
286.285782086753
 21
96.7811666451562
 31
0.0
  0
LINE
  5
D0DE
330
D0BD
100
AcDbEntity
  8
0
  6
HIDDEN
 62
     7
 48
5.0
370
    13
100
AcDbLine
 10
286.285782086753
 20
96.7811666451562
 30
0.0
 11
300.4279174734074
 21
110.9233020318111
 31
0.0
  0
LINE
  5
D0DF
330
D0BD
100
AcDbEntity
  8
0
  6
HIDDEN
 62
     7
 48
5.0
370
    13
100
AcDbLine
 10
314.5700527810372
 20
96.7811667241815
 30
0.0
 11
300.4279173943824
 21
82.63903133752638
 31
0.0
  0
LINE
  5
D0E0
330
D0BD
100
AcDbEntity
  8
0
  6
HIDDEN
 62
     7
 48
5.0
370
    13
100
AcDbLine
 10
287.6999958809338
 20
95.3669528509754
 30
0.0
 11
300.4279173943824
 21
82.63903133752638
 31
0.0
  0
LINE
  5
D0E1
330
D0BD
100
AcDbEntity
  8
0
  6
HIDDEN
 62
     7
 48
5.0
370
    13
100
AcDbLine
 10
300.4279174734074
 20
110.9233020318111
 30
0.0
 11
314.5700527810372
 21
96.7811667241815
 31
0.0
  0
LINE
  5
D0E2
330
D0BD
100
AcDbEntity
  8
0
  6
HIDDEN
 62
     7
 48
5.0
370
    13
100
AcDbLine
 10
313.5093923774498
 20
97.84182712776896
 30
0.0
 11
299.3672569907949
 21
83.69969174111384
 31
0.0
  0
CIRCLE
  5
D0E3
330
D0BD
100
AcDbEntity
  8
0
  6
HIDDEN
 48
5.0
370
    13
100
AcDbCircle
 10
300.4279173943824
 20
96.78116696125744
 30
0.0
 40
2.0
  0
ENDBLK
  5
D0E7
330
D0BD
100
AcDbEntity
  8
0
100
AcDbBlockEnd
  0
BLOCK
  5
D156
330
D14D
100
AcDbEntity
  8
0
 62
     1
100
AcDbBlockBegin
  2
A$C765D10C3
 70
     0
 10
0.0
 20
0.0
 30
0.0
  3
A$C765D10C3
  1

  0
CIRCLE
  5
D14E
330
D14D
100
AcDbEntity
  8
0
  6
Continuous
 62
     7
100
AcDbCircle
 10
198.4277677845803
 20
198.4277656389522
 30
0.0
 40
195.4620937494679
  0
CIRCLE
  5
D14F
330
D14D
100
AcDbEntity
  8
0
  6
Continuous
 62
     7
100
AcDbCircle
 10
198.4277677845803
 20
198.4277656389522
 30
0.0
 40
198.4277666215075
  0
CIRCLE
  5
D150
330
D14D
100
AcDbEntity
  8
0
  6
Continuous
 62
     7
100
AcDbCircle
 10
198.4277677845803
 20
198.4277656389522
 30
0.0
 40
177.4708305608898
  0
CIRCLE
  5
D151
330
D14D
100
AcDbEntity
  8
0
  6
HIDDEN
 48
5.0
370
    13
100
AcDbCircle
 10
198.4277677845803
 20
198.4277656389522
 30
0.0
 40
37.5
  0
CIRCLE
  5
D152
330
D14D
100
AcDbEntity
  8
0
100
AcDbCircle
 10
198.4277677845803
 20
198.4277656389522
 30
0.0
 40
27.5
  0
CIRCLE
  5
D153
330
D14D
100
AcDbEntity
  8
0
  6
HIDDEN
 48
5.0
370
    13
100
AcDbCircle
 10
198.4277677845812
 20
198.427765638952
 30
0.0
 40
188.4277666215084
  0
ENDBLK
  5
D157
330
D14D
100
AcDbEntity
  8
0
 62
     1
100
AcDbBlockEnd
  0
BLOCK
  5
D20F
330
D204
100
AcDbEntity
  8
0
100
AcDbBlockBegin
  2
A$C1E0F3B8E
 70
     0
 10
0.0
 20
0.0
 30
0.0
  3
A$C1E0F3B8E
  1

  0
LINE
  5
D205
330
D204
100
AcDbEntity
  8
0
100
AcDbLine
 10
0.2499999999997726
 20
1.960000464718632
 30
0.0
 11
2.470000000000027
 21
1.960000464718632
 31
0.0
  0
ARC
  5
D206
330
D204
100
AcDbEntity
  8
0
100
AcDbCircle
 10
2.470000000000027
 20
1.710000464718632
 30
0.0
 40
0.25
100
AcDbArc
 50
0.0
 51
90.0
  0
LINE
  5
D207
330
D204
100
AcDbEntity
  8
0
100
AcDbLine
 10
2.720000000000027
 20
1.710000464718632
 30
0.0
 11
2.720000000000254
 21
0.2500004647192782
 31
0.0
  0
LINE
  5
D208
330
D204
100
AcDbEntity
  8
0
100
AcDbLine
 10
-0.0000000000002274
 20
1.710000464718632
 30
0.0
 11
0.0
 21
0.250000464718596
 31
0.0
  0
ARC
  5
D209
330
D204
100
AcDbEntity
  8
0
100
AcDbCircle
 10
0.2499999999997726
 20
1.710000464718632
 30
0.0
 40
0.25
100
AcDbArc
 50
90.0
 51
180.0
  0
LINE
  5
D20A
330
D204
100
AcDbEntity
  8
0
100
AcDbLine
 10
0.25
 20
0.000000464718596
 30
0.0
 11
2.470000000000254
 21
0.0000004647192782
 31
0.0
  0
ARC
  5
D20B
330
D204
100
AcDbEntity
  8
0
100
AcDbCircle
 10
2.470000000000254
 20
0.2500004647192782
 30
0.0
 40
0.25
100
AcDbArc
 50
270.0
 51
0.0
  0
ARC
  5
D20C
330
D204
100
AcDbEntity
  8
0
100
AcDbCircle
 10
0.25
 20
0.250000464718596
 30
0.0
 40
0.25
100
AcDbArc
 50
180.000000000013
 51
270.0
  0
ENDBLK
  5
D210
330
D204
100
AcDbEntity
  8
0
100
AcDbBlockEnd
  0
BLOCK
  5
DA2B
330
DA20
100
AcDbEntity
  8
0
100
AcDbBlockBegin
  2
*D11
 70
     1
 10
0.0
 20
0.0
 30
0.0
  3
*D11
  1

  0
LINE
  5
DEAB
330
DA20
100
AcDbEntity
  8
0
440
 16777216
100
AcDbLine
 10
1520.871209935157
 20
2012.976687992555
 30
0.0
 11
1530.107802287721
 21
2012.976687992555
 31
0.0
  0
LINE
  5
DEAC
330
DA20
100
AcDbEntity
  8
0
440
 16777216
100
AcDbLine
 10
1520.871209935157
 20
1995.260187992555
 30
0.0
 11
1530.107802287721
 21
1995.260187992555
 31
0.0
  0
LINE
  5
DEAD
330
DA20
100
AcDbEntity
  8
0
 62
     0
440
 16777216
100
AcDbLine
 10
1530.045302287721
 20
2012.101687992555
 30
0.0
 11
1530.045302287721
 21
2004.774860229936
 31
0.0
  0
LINE
  5
DEAE
330
DA20
100
AcDbEntity
  8
0
 62
     0
440
 16777216
100
AcDbLine
 10
1530.045302287721
 20
1996.135187992555
 30
0.0
 11
1530.045302287721
 21
2003.462015755175
 31
0.0
  0
SOLID
  5
DEAF
330
DA20
100
AcDbEntity
  8
0
 62
     0
440
 16777216
100
AcDbTrace
 10
1529.899468954388
 20
2012.101687992555
 30
0.0
 11
1530.191135621054
 21
2012.101687992555
 31
0.0
 12
1530.045302287721
 22
2012.976687992555
 32
0.0
 13
1530.045302287721
 23
2012.976687992555
 33
0.0
  0
SOLID
  5
DEB0
330
DA20
100
AcDbEntity
  8
0
 62
     0
440
 16777216
100
AcDbTrace
 10
1529.899468954388
 20
1996.135187992555
 30
0.0
 11
1530.191135621054
 21
1996.135187992555
 31
0.0
 12
1530.045302287721
 22
1995.260187992555
 32
0.0
 13
1530.045302287721
 23
1995.260187992555
 33
0.0
  0
MTEXT
  5
DEB1
330
DA20
100
AcDbEntity
  8
0
 62
     0
440
 16777216
100
AcDbMText
 10
1530.045302287721
 20
2004.118437992556
 30
0.0
 40
0.875
 41
0.0
 71
     5
 72
     1
  1
\A1;17 11/16" [450mm]
 73
     1
 44
1.0
  0
POINT
  5
DEB2
330
DA20
100
AcDbEntity
  8
Defpoints
 62
     0
440
 16777216
100
AcDbPoint
 10
1520.808709935157
 20
2012.976687992555
 30
0.0
  0
POINT
  5
DEB3
330
DA20
100
AcDbEntity
  8
Defpoints
 62
     0
440
 16777216
100
AcDbPoint
 10
1520.808709935157
 20
1995.260187992555
 30
0.0
  0
POINT
  5
DEB4
330
DA20
100
AcDbEntity
  8
Defpoints
 62
     0
440
 16777216
100
AcDbPoint
 10
1530.045302287721
 20
1995.260187992555
 30
0.0
  0
ENDBLK
  5
DA2C
330
DA20
100
AcDbEntity
  8
0
100
AcDbBlockEnd
  0
BLOCK
  5
DE9B
330
DE90
100
AcDbEntity
  8
0
100
AcDbBlockBegin
  2
*D12
 70
     1
 10
0.0
 20
0.0
 30
0.0
  3
*D12
  1

  0
LINE
  5
DEBF
330
DE90
100
AcDbEntity
  8
0
440
 16777216
100
AcDbLine
 10
1520.9268888025
 20
1995.394540600688
 30
0.0
 11
1520.9268888025
 21
1990.828741017382
 31
0.0
  0
LINE
  5
DEC0
330
DE90
100
AcDbEntity
  8
0
440
 16777216
100
AcDbLine
 10
1491.399251067813
 20
1995.394540600688
 30
0.0
 11
1491.399251067813
 21
1990.828741017382
 31
0.0
  0
LINE
  5
DEC1
330
DE90
100
AcDbEntity
  8
0
 62
     0
440
 16777216
100
AcDbLine
 10
1520.0518888025
 20
1990.891241017382
 30
0.0
 11
1510.659106770081
 21
1990.891241017382
 31
0.0
  0
LINE
  5
DEC2
330
DE90
100
AcDbEntity
  8
0
 62
     0
440
 16777216
100
AcDbLine
 10
1492.274251067813
 20
1990.891241017382
 30
0.0
 11
1501.667033100231
 21
1990.891241017382
 31
0.0
  0
SOLID
  5
DEC3
330
DE90
100
AcDbEntity
  8
0
 62
     0
440
 16777216
100
AcDbTrace
 10
1520.0518888025
 20
1991.037074350715
 30
0.0
 11
1520.0518888025
 21
1990.745407684048
 31
0.0
 12
1520.9268888025
 22
1990.891241017382
 32
0.0
 13
1520.9268888025
 23
1990.891241017382
 33
0.0
  0
SOLID
  5
DEC4
330
DE90
100
AcDbEntity
  8
0
 62
     0
440
 16777216
100
AcDbTrace
 10
1492.274251067813
 20
1991.037074350715
 30
0.0
 11
1492.274251067813
 21
1990.745407684048
 31
0.0
 12
1491.399251067813
 22
1990.891241017382
 32
0.0
 13
1491.399251067813
 23
1990.891241017382
 33
0.0
  0
MTEXT
  5
DEC5
330
DE90
100
AcDbEntity
  8
0
 62
     0
440
 16777216
100
AcDbMText
 10
1506.163069935156
 20
1990.891241017382
 30
0.0
 40
0.875
 41
0.0
 71
     5
 72
     1
  1
\A1;29 1/2" [750mm]
 73
     1
 44
1.0
  0
POINT
  5
DEC6
330
DE90
100
AcDbEntity
  8
Defpoints
 62
     0
440
 16777216
100
AcDbPoint
 10
1520.9268888025
 20
1995.457040600688
 30
0.0
  0
POINT
  5
DEC7
330
DE90
100
AcDbEntity
  8
Defpoints
 62
     0
440
 16777216
100
AcDbPoint
 10
1491.399251067813
 20
1995.457040600688
 30
0.0
  0
POINT
  5
DEC8
330
DE90
100
AcDbEntity
  8
Defpoints
 62
     0
440
 16777216
100
AcDbPoint
 10
1491.399251067813
 20
1990.891241017382
 30
0.0
  0
ENDBLK
  5
DE9C
330
DE90
100
AcDbEntity
  8
0
100
AcDbBlockEnd
  0
ENDSEC
  0
SECTION
  2
ENTITIES
  0
LINE
  5
CBAC
330
1F
100
AcDbEntity
  8
0
100
AcDbLine
 10
1520.926819935156
 20
1976.238316439989
 30
0.0
 11
1491.399319935156
 21
1976.238316439989
 31
0.0
  0
TEXT
  5
D2E1
330
1F
100
AcDbEntity
  8
0
100
AcDbText
 10
1493.686150700728
 20
2019.627841704824
 30
0.0
 40
4.478001636358612
  1
LLT993#63 
100
AcDbText
  0
ARC
  5
D97A
330
1F
100
AcDbEntity
  8
\U+30DC\U+30A6\U+30EB
  6
Continuous
100
AcDbCircle
 10
1520.808709935156
 20
1978.088706439989
 30
0.0
 40
0.1181100000000157
100
AcDbArc
 50
0.0
 51
90.0
  0
LINE
  5
D97B
330
1F
100
AcDbEntity
  8
\U+30DC\U+30A6\U+30EB
  6
Continuous
100
AcDbLine
 10
1520.926819935156
 20
1978.088706439989
 30
0.0
 11
1520.926819935156
 21
1976.238316439989
 31
0.0
  0
LINE
  5
D97C
330
1F
100
AcDbEntity
  8
\U+30DC\U+30A6\U+30EB
  6
Continuous
100
AcDbLine
 10
1491.517429935156
 20
1978.206816439989
 30
0.0
 11
1520.808709935156
 21
1978.206816439989
 31
0.0
  0
LINE
  5
D97E
330
1F
100
AcDbEntity
  8
\U+30DC\U+30A6\U+30EB
  6
Continuous
100
AcDbLine
 10
1491.399319935156
 20
1978.206816439989
 30
0.0
 11
1491.989869935156
 21
1978.206816439989
 31
0.0
  0
LINE
  5
D97F
330
1F
100
AcDbEntity
  8
\U+30DC\U+30A6\U+30EB
  6
Continuous
100
AcDbLine
 10
1491.399319935156
 20
1978.088706439989
 30
0.0
 11
1491.399319935156
 21
1976.238316439989
 31
0.0
  0
ARC
  5
D980
330
1F
100
AcDbEntity
  8
\U+30DC\U+30A6\U+30EB
  6
Continuous
100
AcDbCircle
 10
1491.517429935156
 20
1978.088706439989
 30
0.0
 40
0.1181100000000157
100
AcDbArc
 50
90.0
 51
180.0
  0
LINE
  5
D99F
330
1F
100
AcDbEntity
  8
\U+6392\U+6C34\U+91D1\U+5177
  6
Continuous
 62
     0
100
AcDbLine
 10
1505.222067880052
 20
1973.159821348303
 30
0.0
 11
1507.104071990053
 21
1973.159821348303
 31
0.0
  0
LINE
  5
D9A0
330
1F
100
AcDbEntity
  8
\U+6392\U+6C34\U+91D1\U+5177
  6
Continuous
 62
     0
100
AcDbLine
 10
1507.045843760053
 20
1973.101593118304
 30
0.0
 11
1505.280296110053
 21
1973.101593118304
 31
0.0
  0
ARC
  5
D9A1
330
1F
100
AcDbEntity
  8
\U+6392\U+6C34\U+91D1\U+5177
  6
Continuous
 62
     0
100
AcDbCircle
 10
1505.336299935053
 20
1972.934234117403
 30
0.0
 40
0.07874
100
AcDbArc
 50
0.0
 51
44.99999999999976
  0
LINE
  5
D9A2
330
1F
100
AcDbEntity
  8
\U+6392\U+6C34\U+91D1\U+5177
  6
Continuous
 62
     0
100
AcDbLine
 10
1505.280296110053
 20
1973.206826439989
 30
0.0
 11
1505.280296110053
 21
1973.101593118304
 31
0.0
  0
LINE
  5
D9A4
330
1F
100
AcDbEntity
  8
\U+6392\U+6C34\U+91D1\U+5177
  6
Continuous
 62
     0
100
AcDbLine
 10
1505.391977523003
 20
1972.989911705353
 30
0.0
 11
1505.222067880052
 21
1973.159821348303
 31
0.0
  0
LINE
  5
D9A5
330
1F
100
AcDbEntity
  8
\U+6392\U+6C34\U+91D1\U+5177
  6
Continuous
 62
     0
100
AcDbLine
 10
1505.415039935053
 20
1972.918080287903
 30
0.0
 11
1505.455039855053
 21
1972.848798394164
 31
0.0
  0
LINE
  5
D9A6
330
1F
100
AcDbEntity
  8
\U+6392\U+6C34\U+91D1\U+5177
  6
Continuous
 62
     0
100
AcDbLine
 10
1505.455039855053
 20
1972.848798394164
 30
0.0
 11
1505.455039855053
 21
1972.368484371474
 31
0.0
  0
LINE
  5
D9A7
330
1F
100
AcDbEntity
  8
\U+6392\U+6C34\U+91D1\U+5177
  6
Continuous
 62
     0
100
AcDbLine
 10
1505.415039935053
 20
1972.934234117403
 30
0.0
 11
1505.415039935053
 21
1972.435413371474
 31
0.0
  0
LINE
  5
D9A8
330
1F
100
AcDbEntity
  8
\U+6392\U+6C34\U+91D1\U+5177
  6
Continuous
 62
     0
100
AcDbLine
 10
1505.222067880052
 20
1973.206826439989
 30
0.0
 11
1505.222067880052
 21
1973.159821348303
 31
0.0
  0
ARC
  5
D9AA
330
1F
100
AcDbEntity
  8
\U+6392\U+6C34\U+91D1\U+5177
  6
Continuous
 62
     0
100
AcDbCircle
 10
1506.989839935053
 20
1972.934234117403
 30
0.0
 40
0.07874
100
AcDbArc
 50
135.0000000000002
 51
180.0
  0
LINE
  5
D9AB
330
1F
100
AcDbEntity
  8
\U+6392\U+6C34\U+91D1\U+5177
  6
Continuous
 62
     0
100
AcDbLine
 10
1507.045843760052
 20
1973.206826439989
 30
0.0
 11
1507.045843760053
 21
1973.101593118304
 31
0.0
  0
LINE
  5
D9AD
330
1F
100
AcDbEntity
  8
\U+6392\U+6C34\U+91D1\U+5177
  6
Continuous
 62
     0
100
AcDbLine
 10
1506.934162347102
 20
1972.989911705353
 30
0.0
 11
1507.104071990053
 21
1973.159821348303
 31
0.0
  0
LINE
  5
D9AE
330
1F
100
AcDbEntity
  8
\U+6392\U+6C34\U+91D1\U+5177
  6
Continuous
 62
     0
100
AcDbLine
 10
1506.911099935052
 20
1972.918080287903
 30
0.0
 11
1506.871100015053
 21
1972.848798394164
 31
0.0
  0
LINE
  5
D9AF
330
1F
100
AcDbEntity
  8
\U+6392\U+6C34\U+91D1\U+5177
  6
Continuous
 62
     0
100
AcDbLine
 10
1506.911099935052
 20
1972.848798394164
 30
0.0
 11
1505.415039935053
 21
1972.848798394164
 31
0.0
  0
LINE
  5
D9B0
330
1F
100
AcDbEntity
  8
\U+6392\U+6C34\U+91D1\U+5177
  6
Continuous
 62
     0
100
AcDbLine
 10
1506.871100015053
 20
1972.848798394164
 30
0.0
 11
1506.871100015053
 21
1972.368484371474
 31
0.0
  0
LINE
  5
D9B1
330
1F
100
AcDbEntity
  8
\U+6392\U+6C34\U+91D1\U+5177
  6
Continuous
 62
     0
100
AcDbLine
 10
1506.911099935052
 20
1972.934234117403
 30
0.0
 11
1506.911099935052
 21
1972.435413371474
 31
0.0
  0
LINE
  5
D9B2
330
1F
100
AcDbEntity
  8
\U+6392\U+6C34\U+91D1\U+5177
  6
Continuous
 62
     0
100
AcDbLine
 10
1507.104071990053
 20
1973.206826439989
 30
0.0
 11
1507.104071990053
 21
1973.159821348303
 31
0.0
  0
LINE
  5
D9B4
330
1F
100
AcDbEntity
  8
\U+6392\U+6C34\U+91D1\U+5177
  6
Continuous
100
AcDbLine
 10
1506.861887435053
 20
1972.368484371474
 30
0.0
 11
1505.464252435053
 21
1972.368484371474
 31
0.0
  0
LINE
  5
D9B5
330
1F
100
AcDbEntity
  8
\U+6392\U+6C34\U+91D1\U+5177
  6
Continuous
100
AcDbLine
 10
1506.871100361078
 20
1972.368484371474
 30
0.0
 11
1506.911099935052
 21
1972.435413371474
 31
0.0
  0
LINE
  5
D9B6
330
1F
100
AcDbEntity
  8
\U+6392\U+6C34\U+91D1\U+5177
  6
Continuous
100
AcDbLine
 10
1505.455039509027
 20
1972.368484371474
 30
0.0
 11
1505.415039935053
 21
1972.435413371474
 31
0.0
  0
LINE
  5
D9B7
330
1F
100
AcDbEntity
  8
\U+6392\U+6C34\U+91D1\U+5177
  6
Continuous
100
AcDbLine
 10
1505.464252435053
 20
1972.368484371474
 30
0.0
 11
1505.455039509027
 21
1972.368484371474
 31
0.0
  0
LINE
  5
D9B8
330
1F
100
AcDbEntity
  8
\U+6392\U+6C34\U+91D1\U+5177
  6
Continuous
100
AcDbLine
 10
1506.871100361078
 20
1972.368484371474
 30
0.0
 11
1506.861887435053
 21
1972.368484371474
 31
0.0
  0
ARC
  5
D9B9
330
1F
100
AcDbEntity
  8
0
100
AcDbCircle
 10
1508.78153757102
 20
1986.660218524524
 30
0.0
 40
12.2047
100
AcDbArc
 50
275.5908636299327
 51
301.3587916222811
  0
ARC
  5
D9BA
330
1F
100
AcDbEntity
  8
0
100
AcDbCircle
 10
1499.779406088319
 20
2078.622050295646
 30
0.0
 40
104.60609
100
AcDbArc
 50
274.5028160290198
 51
275.5908636299327
  0
ARC
  5
D9C4
330
1F
100
AcDbEntity
  8
0
100
AcDbCircle
 10
1512.546733782003
 20
2078.622050295646
 30
0.0
 40
104.60609
100
AcDbArc
 50
264.4091363700673
 51
265.4971839709802
  0
ARC
  5
D9C5
330
1F
100
AcDbEntity
  8
0
100
AcDbCircle
 10
1503.544602299292
 20
1986.660218524524
 30
0.0
 40
12.2047
100
AcDbArc
 50
238.6412083777189
 51
264.4091363700673
  0
LINE
  5
D9C6
330
1F
100
AcDbEntity
  8
0
  6
Continuous
 62
     7
100
AcDbLine
 10
1503.913074435156
 20
1973.206826439989
 30
0.0
 11
1508.413065435157
 21
1973.206826439989
 31
0.0
  0
LINE
  5
D9C7
330
1F
100
AcDbEntity
  8
0
  6
Continuous
 62
     7
100
AcDbLine
 10
1508.413065435157
 20
1973.265881439989
 30
0.0
 11
1508.413065435157
 21
1973.935171439989
 31
0.0
  0
LINE
  5
D9C8
330
1F
100
AcDbEntity
  8
0
  6
Continuous
 62
     7
100
AcDbLine
 10
1503.411106935156
 20
1973.935171439989
 30
0.0
 11
1508.915032935156
 21
1973.935171439989
 31
0.0
  0
LINE
  5
D9C9
330
1F
100
AcDbEntity
  8
0
  6
Continuous
 62
     7
100
AcDbLine
 10
1503.411106935156
 20
1974.309186439989
 30
0.0
 11
1508.915032935156
 21
1974.309186439989
 31
0.0
  0
LINE
  5
D9CA
330
1F
100
AcDbEntity
  8
0
  6
Continuous
 62
     7
100
AcDbLine
 10
1503.913074435156
 20
1973.935171439989
 30
0.0
 11
1503.913074435156
 21
1973.206826439989
 31
0.0
  0
LINE
  5
D9CB
330
1F
100
AcDbEntity
  8
0
  6
Continuous
 62
     7
100
AcDbLine
 10
1508.413065435157
 20
1973.206826439989
 30
0.0
 11
1508.413065435157
 21
1973.265881439989
 31
0.0
  0
LINE
  5
D9CC
330
1F
100
AcDbEntity
  8
0
  6
Continuous
 62
     7
100
AcDbLine
 10
1508.915032935156
 20
1973.935171439989
 30
0.0
 11
1508.915032935156
 21
1974.309186439989
 31
0.0
  0
LINE
  5
D9CD
330
1F
100
AcDbEntity
  8
0
  6
Continuous
 62
     7
100
AcDbLine
 10
1503.411106935156
 20
1974.309186439989
 30
0.0
 11
1503.411106935156
 21
1973.935171439989
 31
0.0
  0
LINE
  5
DE56
330
1F
100
AcDbEntity
  8
0
  6
Continuous
100
AcDbLine
 10
1520.9268888025
 20
2012.779921405038
 30
0.0
 11
1520.9268888025
 21
1995.457040600688
 31
0.0
  0
LINE
  5
DE57
330
1F
100
AcDbEntity
  8
0
  6
Continuous
100
AcDbLine
 10
1520.730037884269
 20
1995.260189682456
 30
0.0
 11
1491.596101986044
 21
1995.260189682456
 31
0.0
  0
LINE
  5
DE58
330
1F
100
AcDbEntity
  8
0
  6
Continuous
100
AcDbLine
 10
1491.596101986044
 20
2012.976772323269
 30
0.0
 11
1520.730037884269
 21
2012.976772323269
 31
0.0
  0
LINE
  5
DE59
330
1F
100
AcDbEntity
  8
0
  6
Continuous
100
AcDbLine
 10
1491.399251067813
 20
1995.457040600688
 30
0.0
 11
1491.399251067813
 21
2012.779921405038
 31
0.0
  0
LINE
  5
DE5A
330
1F
100
AcDbEntity
  8
0
  6
DASHED
 48
0.25
370
    18
100
AcDbLine
 10
1520.336336047806
 20
1995.732631886211
 30
0.0
 11
1491.989803822507
 21
1995.732631886211
 31
0.0
  0
LINE
  5
DE5B
330
1F
100
AcDbEntity
  8
0
  6
DASHED
 48
0.25
370
    18
100
AcDbLine
 10
1491.871693271568
 20
1995.85074243715
 30
0.0
 11
1491.871693271568
 21
2012.386219568575
 31
0.0
  0
LINE
  5
DE5C
330
1F
100
AcDbEntity
  8
0
  6
DASHED
 48
0.25
370
    18
100
AcDbLine
 10
1491.989803822507
 20
2012.504330119514
 30
0.0
 11
1520.336336047806
 21
2012.504330119514
 31
0.0
  0
LINE
  5
DE5D
330
1F
100
AcDbEntity
  8
0
  6
DASHED
 48
0.25
370
    18
100
AcDbLine
 10
1520.454446598745
 20
2012.386219568575
 30
0.0
 11
1520.454446598745
 21
1995.85074243715
 31
0.0
  0
ARC
  5
DE5E
330
1F
100
AcDbEntity
  8
0
  6
DASHED
 48
0.25
370
    18
100
AcDbCircle
 10
1491.989803822507
 20
2012.386219568575
 30
0.0
 40
0.11811055093875
100
AcDbArc
 50
90.0
 51
180.0
  0
ARC
  5
DE5F
330
1F
100
AcDbEntity
  8
0
  6
DASHED
 48
0.25
370
    18
100
AcDbCircle
 10
1491.989803822507
 20
1995.85074243715
 30
0.0
 40
0.11811055093875
100
AcDbArc
 50
180.0
 51
270.0
  0
ARC
  5
DE60
330
1F
100
AcDbEntity
  8
0
  6
DASHED
 48
8.0
370
    18
100
AcDbCircle
 10
1520.336336047806
 20
1995.85074243715
 30
0.0
 40
0.11811055093875
100
AcDbArc
 50
270.0
 51
0.0
  0
ARC
  5
DE61
330
1F
100
AcDbEntity
  8
0
  6
DASHED
 48
0.25
370
    18
100
AcDbCircle
 10
1520.336336047806
 20
2012.386219568575
 30
0.0
 40
0.11811055093875
100
AcDbArc
 50
0.0
 51
90.0
  0
CIRCLE
  5
DE62
330
1F
100
AcDbEntity
  8
0
100
AcDbCircle
 10
1506.163069935157
 20
2004.709033757556
 30
0.0
 40
1.476381886734374
  0
CIRCLE
  5
DE63
330
1F
100
AcDbEntity
  8
0
100
AcDbCircle
 10
1506.163069935157
 20
2004.709033757556
 30
0.0
 40
1.062994958448749
  0
CIRCLE
  5
DE64
330
1F
100
AcDbEntity
  8
0
100
AcDbCircle
 10
1518.564677783725
 20
1997.622400701231
 30
0.0
 40
0.688978213809375
  0
ARC
  5
DE65
330
1F
100
AcDbEntity
  8
0
  6
Continuous
100
AcDbCircle
 10
1491.596101986044
 20
2012.779921405038
 30
0.0
 40
0.19685091823125
100
AcDbArc
 50
90.0
 51
180.0
  0
ARC
  5
DE66
330
1F
100
AcDbEntity
  8
0
  6
Continuous
100
AcDbCircle
 10
1520.730037884269
 20
2012.779921405038
 30
0.0
 40
0.19685091823125
100
AcDbArc
 50
0.0
 51
90.0
  0
ARC
  5
DE67
330
1F
100
AcDbEntity
  8
0
  6
Continuous
100
AcDbCircle
 10
1520.730037884269
 20
1995.457040600688
 30
0.0
 40
0.19685091823125
100
AcDbArc
 50
270.0
 51
0.0
  0
ARC
  5
DE68
330
1F
100
AcDbEntity
  8
0
  6
Continuous
100
AcDbCircle
 10
1491.596101986044
 20
1995.457040600688
 30
0.0
 40
0.19685091823125
100
AcDbArc
 50
180.0
 51
270.0
  0
ARC
  5
DE69
330
1F
100
AcDbEntity
  8
\U+30DC\U+30A6\U+30EB
  6
Continuous
370
    18
100
AcDbCircle
 10
1504.851241159558
 20
2000.873339367027
 30
0.0
 40
9.448844075099994
100
AcDbArc
 50
98.32981724345698
 51
139.8178414846295
  0
ARC
  5
DE6A
330
1F
100
AcDbEntity
  8
\U+30DC\U+30A6\U+30EB
  6
Continuous
370
    18
100
AcDbCircle
 10
1501.241796979375
 20
2003.921630084632
 30
0.0
 40
4.724422037549995
100
AcDbArc
 50
139.8178414846295
 51
180.0
  0
ARC
  5
DE6B
330
1F
100
AcDbEntity
  8
\U+30DC\U+30A6\U+30EB
  6
Continuous
370
    18
100
AcDbCircle
 10
1506.163069935157
 20
1991.913724072525
 30
0.0
 40
18.5039863137375
100
AcDbArc
 50
90.0
 51
98.32981724345698
  0
ARC
  5
DE6C
330
1F
100
AcDbEntity
  8
\U+30DC\U+30A6\U+30EB
  6
Continuous
370
    18
100
AcDbCircle
 10
1506.163069935157
 20
1991.913724072525
 30
0.0
 40
18.5039863137375
100
AcDbArc
 50
81.67018275654303
 51
90.0
  0
ARC
  5
DE6D
330
1F
100
AcDbEntity
  8
\U+30DC\U+30A6\U+30EB
  6
Continuous
370
    18
100
AcDbCircle
 10
1507.474898710755
 20
2000.873339367027
 30
0.0
 40
9.448844075099994
100
AcDbArc
 50
40.18215851537045
 51
81.67018275654303
  0
ARC
  5
DE6E
330
1F
100
AcDbEntity
  8
\U+30DC\U+30A6\U+30EB
  6
Continuous
370
    18
100
AcDbCircle
 10
1511.084342890938
 20
2003.921630084632
 30
0.0
 40
4.724422037549995
100
AcDbArc
 50
0.0
 51
40.18215851537045
  0
ARC
  5
DE6F
330
1F
100
AcDbEntity
  8
\U+30DC\U+30A6\U+30EB
  6
Continuous
370
    18
100
AcDbCircle
 10
1504.851241159558
 20
2006.969920802236
 30
0.0
 40
9.448844075099994
100
AcDbArc
 50
220.1821585153704
 51
261.6701827565431
  0
ARC
  5
DE70
330
1F
100
AcDbEntity
  8
\U+30DC\U+30A6\U+30EB
  6
Continuous
370
    18
100
AcDbCircle
 10
1501.241796979375
 20
2003.921630084632
 30
0.0
 40
4.724422037549995
100
AcDbArc
 50
180.0
 51
220.1821585153704
  0
ARC
  5
DE71
330
1F
100
AcDbEntity
  8
\U+30DC\U+30A6\U+30EB
  6
Continuous
370
    18
100
AcDbCircle
 10
1506.163069935157
 20
2015.929536096738
 30
0.0
 40
18.5039863137375
100
AcDbArc
 50
261.6701827565431
 51
270.0
  0
ARC
  5
DE72
330
1F
100
AcDbEntity
  8
\U+30DC\U+30A6\U+30EB
  6
Continuous
370
    18
100
AcDbCircle
 10
1506.163069935157
 20
2015.929536096738
 30
0.0
 40
18.5039863137375
100
AcDbArc
 50
270.0
 51
278.329817243457
  0
ARC
  5
DE73
330
1F
100
AcDbEntity
  8
\U+30DC\U+30A6\U+30EB
  6
Continuous
370
    18
100
AcDbCircle
 10
1507.474898710755
 20
2006.969920802236
 30
0.0
 40
9.448844075099994
100
AcDbArc
 50
278.329817243457
 51
319.8178414846296
  0
ARC
  5
DE74
330
1F
100
AcDbEntity
  8
\U+30DC\U+30A6\U+30EB
  6
Continuous
370
    18
100
AcDbCircle
 10
1511.084342890938
 20
2003.921630084632
 30
0.0
 40
4.724422037549995
100
AcDbArc
 50
319.8178414846296
 51
0.0
  0
VIEWPORT
  5
DF35
330
DF2E
100
AcDbEntity
 67
     1
  8
0
100
AcDbViewport
 10
5.375000360443835
 20
4.124999881729366
 30
0.0
 40
19.50408385228721
 41
8.992999745766947
 68
     1
 69
     1
 12
5.375000360443835
 22
4.124999881729366
 13
0.0
 23
0.0
 14
0.5
 24
0.5
 15
0.5
 25
0.5
 16
0.0
 26
0.0
 36
1.0
 17
0.0
 27
0.0
 37
0.0
 42
50.0
 43
0.0
 44
0.0
 45
8.992999745766947
 50
0.0
 51
0.0
 72
  1000
 90
    32800
  1

281
     0
 71
     1
 74
     0
110
0.0
120
0.0
130
0.0
111
1.0
121
0.0
131
0.0
112
0.0
122
1.0
132
0.0
 79
     0
146
0.0
170
     0
  0
VIEWPORT
  5
DF37
330
DF2E
100
AcDbEntity
 67
     1
  8
0
100
AcDbViewport
 10
5.375000121086601
 20
4.124999820716737
 30
0.0
 40
8.60000019373856
 41
6.599999713146781
 68
     2
 69
     2
 12
1510.265156217588
 22
1982.658015232653
 13
0.0
 23
0.0
 14
0.5
 24
0.5
 15
0.5
 25
0.5
 16
0.0
 26
0.0
 36
1.0
 17
0.0
 27
0.0
 37
0.0
 42
50.0
 43
0.0
 44
0.0
 45
86.55142074414579
 50
0.0
 51
0.0
 72
 20000
 90
    32864
  1

281
     0
 71
     1
 74
     0
110
0.0
120
0.0
130
0.0
111
1.0
121
0.0
131
0.0
112
0.0
122
1.0
132
0.0
 79
     0
146
0.0
170
     0
  0
ENDSEC
  0
SECTION
  2
OBJECTS
  0
DICTIONARY
  5
C
330
0
100
AcDbDictionary
281
     1
  3
ACAD_2007HEADERVARS_RT
350
DFAC
  3
ACAD_CIP_PREVIOUS_PRODUCT_INFO
350
DFA2
  3
ACAD_COLOR
350
73
  3
ACAD_GROUP
350
D
  3
ACAD_LAYOUT
350
1A
  3
ACAD_MATERIAL
350
72
  3
ACAD_MLEADERSTYLE
350
DF96
  3
ACAD_MLINESTYLE
350
17
  3
ACAD_PLOTSETTINGS
350
19
  3
ACAD_PLOTSTYLENAME
350
E
  3
ACAD_SCALELIST
350
DF84
  3
ACAD_TABLESTYLE
350
86
  3
ACAD_VISUALSTYLE
350
DF6B
  3
ACDB_RECOMPOSE_DATA
350
DFAB
  3
AcDbVariableDictionary
350
66
  3
ASE_INDEX_DICTIONARY
350
CD5D
  0
DICTIONARY
  5
97
330
2
100
AcDbDictionary
280
     1
281
     1
  3
ACAD_LAYERFILTERS
360
36CA
  3
ACAD_LAYERSTATES
360
98
  3
ACLYDICTIONARY
360
36C9
  0
DICTIONARY
  5
D19F
330
1F
100
AcDbDictionary
280
     1
281
     1
  3
ACAD_SORTENTS
360
D1A0
  0
DICTIONARY
  5
B3
330
B2
100
AcDbDictionary
280
     1
281
     1
  3
ACAD_SORTENTS
360
B4
  0
DICTIONARY
  5
4312
330
4311
100
AcDbDictionary
280
     1
281
     1
  3
ACAD_SORTENTS
360
4313
  0
DICTIONARY
  5
D0E4
330
D0BD
100
AcDbDictionary
280
     1
281
     1
  3
ACAD_SORTENTS
360
D0E5
  0
DICTIONARY
  5
D154
330
D14D
100
AcDbDictionary
280
     1
281
     1
  3
ACAD_SORTENTS
360
D155
  0
DICTIONARY
  5
D20D
330
D204
100
AcDbDictionary
280
     1
281
     1
  3
ACAD_SORTENTS
360
DA64
  0
DICTIONARY
  5
DFAC
102
{ACAD_REACTORS
330
C
102
}
330
C
100
AcDbDictionary
281
     1
  3
DIMFXL
350
DFAD
  3
DIMLTEX1
350
DFAF
  3
DIMLTEX2
350
DFB0
  3
DIMLTYPE
350
DFAE
  0
XRECORD
  5
DFA2
102
{ACAD_REACTORS
330
C
102
}
330
C
100
AcDbXrecord
280
     1
300
ACD
300
2012
300
85730ACD_2012_0F
  0
DICTIONARY
  5
73
102
{ACAD_REACTORS
330
C
102
}
330
C
100
AcDbDictionary
281
     1
  0
DICTIONARY
  5
D
102
{ACAD_REACTORS
330
C
102
}
330
C
100
AcDbDictionary
281
     1
  0
DICTIONARY
  5
1A
102
{ACAD_REACTORS
330
C
102
}
330
C
100
AcDbDictionary
281
     1
  3
Layout1
350
DF2F
  3
Model
350
22
  0
DICTIONARY
  5
72
102
{ACAD_REACTORS
330
C
102
}
330
C
100
AcDbDictionary
281
     1
  3
ByBlock
350
DF63
  3
ByLayer
350
DF5B
  3
Global
350
43D6
  0
DICTIONARY
  5
DF96
102
{ACAD_REACTORS
330
C
102
}
330
C
100
AcDbDictionary
281
     1
  3
Standard
350
DF97
  0
DICTIONARY
  5
17
102
{ACAD_REACTORS
330
C
102
}
330
C
100
AcDbDictionary
281
     1
  3
Standard
350
18
  0
DICTIONARY
  5
19
102
{ACAD_REACTORS
330
C
102
}
330
C
100
AcDbDictionary
281
     1
  3
Setup1
350
A580
  0
ACDBDICTIONARYWDFLT
  5
E
102
{ACAD_REACTORS
330
C
102
}
330
C
100
AcDbDictionary
281
     1
  3
Normal
350
F
100
AcDbDictionaryWithDefault
340
F
  0
DICTIONARY
  5
DF84
102
{ACAD_REACTORS
330
C
102
}
330
C
100
AcDbDictionary
281
     1
  3
A0
350
DF85
  3
A1
350
DF86
  3
A2
350
DF87
  3
A3
350
DF88
  3
A4
350
DF89
  3
A5
350
DF8A
  3
A6
350
DF8B
  3
A7
350
DF8C
  3
A8
350
DF8D
  3
A9
350
DF8E
  3
B0
350
DF8F
  3
B1
350
DF90
  3
B2
350
DF91
  3
B3
350
DF92
  3
B4
350
DF93
  3
B5
350
DF94
  3
B6
350
DF95
  0
DICTIONARY
  5
86
102
{ACAD_REACTORS
330
C
102
}
330
C
100
AcDbDictionary
281
     1
  3
Standard
350
87
  0
DICTIONARY
  5
DF6B
102
{ACAD_REACTORS
330
C
102
}
330
C
100
AcDbDictionary
281
     1
  3
2dWireframe
350
DF71
  3
Basic
350
DF70
  3
Brighten
350
DF77
  3
ColorChange
350
DF7B
  3
Conceptual
350
DF74
  3
Dim
350
DF76
  3
EdgeColorOff
350
DF83
  3
Facepattern
350
DF7A
  3
Flat
350
DF6C
  3
FlatWithEdges
350
DF6D
  3
Gouraud
350
DF6E
  3
GouraudWithEdges
350
DF6F
  3
Hidden
350
DF73
  3
JitterOff
350
DF81
  3
Linepattern
350
DF79
  3
OverhangOff
350
DF82
  3
Realistic
350
DF75
  3
Shaded
350
DF80
  3
Shaded with edges
350
DF7F
  3
Shades of Gray
350
DF7C
  3
Sketchy
350
DF7D
  3
Thicken
350
DF78
  3
Wireframe
350
DF72
  3
X-Ray
350
DF7E
  0
XRECORD
  5
DFAB
102
{ACAD_REACTORS
330
C
102
}
330
C
100
AcDbXrecord
280
     1
 90
        1
330
87
  0
DICTIONARY
  5
66
102
{ACAD_REACTORS
330
C
102
}
330
C
100
AcDbDictionary
281
     1
  3
CANNOSCALE
350
DFA4
  3
CMLEADERSTYLE
350
DFA3
  3
CTABLESTYLE
350
36F
  3
DIMASSOC
350
67
  3
HIDETEXT
350
6B
  3
PROJECTNAME
350
DF59
  3
XCLIPFRAME
350
DFA5
  0
DICTIONARY
  5
CD5D
102
{ACAD_REACTORS
330
C
102
}
330
C
100
AcDbDictionary
281
     1
  3
ASEBlockHierarchyIndexRecord
350
CD5E
1001
DCO15
1040
1665984079.662
  0
DICTIONARY
  5
36CA
102
{ACAD_REACTORS
330
97
102
}
330
97
100
AcDbDictionary
281
     1
  0
DICTIONARY
  5
98
102
{ACAD_REACTORS
330
97
102
}
330
97
100
AcDbDictionary
281
     1
  0
DICTIONARY
  5
36C9
102
{ACAD_REACTORS
330
97
102
}
330
97
100
AcDbDictionary
281
     1
1001
ACAD
1000
<All
  0
SORTENTSTABLE
  5
D1A0
102
{ACAD_REACTORS
330
D19F
102
}
330
D19F
100
AcDbSortentsTable
330
1F
331
D9C6
  5
D9C7
331
D9AE
  5
D9AF
331
D9BA
  5
D9BB
331
D9C5
  5
D9C6
331
D9AD
  5
D9AE
331
D9B9
  5
D9BA
331
D9C4
  5
D9C5
331
D9B8
  5
D9B9
331
D9AB
  5
D9AC
331
D9B7
  5
D9B8
331
D99F
  5
D9A0
331
D9B6
  5
D9B7
331
D9AA
  5
D9AB
331
D9B5
  5
D9B6
331
D9B4
  5
D9B5
331
D9A8
  5
D9A9
331
D97F
  5
D980
331
D9A7
  5
D9A8
331
D9A6
  5
D9A7
331
D97E
  5
D97F
331
D9B2
  5
D9B3
331
D2E1
  5
D30E
331
D9A5
  5
D9A6
331
D9B1
  5
D9B2
331
D9A4
  5
D9A5
331
D97C
  5
D97E
331
D9B0
  5
D9B1
331
D97B
  5
D97C
331
D9A2
  5
D9A3
331
D97A
  5
D97B
331
D9A1
  5
D9A2
331
D9A0
  5
D9A1
331
D980
  5
D981
331
CBAC
  5
D001
331
D9CD
  5
D9FA
331
D9CC
  5
D9CD
331
D9CB
  5
D9CC
331
D9CA
  5
D9CB
331
D9C9
  5
D9CA
331
D9C8
  5
D9C9
331
D9C7
  5
D9C8
331
D9AF
  5
D9B0
  0
SORTENTSTABLE
  5
B4
102
{ACAD_REACTORS
330
B3
102
}
330
B3
100
AcDbSortentsTable
330
B2
  0
SORTENTSTABLE
  5
4313
102
{ACAD_REACTORS
330
4312
102
}
330
4312
100
AcDbSortentsTable
330
4311
  0
SORTENTSTABLE
  5
D0E5
102
{ACAD_REACTORS
330
D0E4
102
}
330
D0E4
100
AcDbSortentsTable
330
D0BD
  0
SORTENTSTABLE
  5
D155
102
{ACAD_REACTORS
330
D154
102
}
330
D154
100
AcDbSortentsTable
330
D14D
  0
SORTENTSTABLE
  5
DA64
102
{ACAD_REACTORS
330
D20D
102
}
330
D20D
100
AcDbSortentsTable
330
D204
  0
XRECORD
  5
DFAD
102
{ACAD_REACTORS
330
DFAC
102
}
330
DFAC
100
AcDbXrecord
280
     1
 40
0.18
  0
XRECORD
  5
DFAF
102
{ACAD_REACTORS
330
DFAC
102
}
330
DFAC
100
AcDbXrecord
280
     1
340
15
  0
XRECORD
  5
DFB0
102
{ACAD_REACTORS
330
DFAC
102
}
330
DFAC
100
AcDbXrecord
280
     1
340
15
  0
XRECORD
  5
DFAE
102
{ACAD_REACTORS
330
DFAC
102
}
330
DFAC
100
AcDbXrecord
280
     1
340
15
  0
LAYOUT
  5
DF2F
102
{ACAD_XDICTIONARY
360
DF3C
102
}
102
{ACAD_REACTORS
330
1A
102
}
330
1A
100
AcDbPlotSettings
  1

  2
Microsoft Office Document Image Writer
  4
Letter
  6

 40
3.174999952316284
 41
3.174999952316284
 42
3.175003051757812
 43
3.17498779296875
 44
215.8999938964844
 45
279.3999938964844
 46
0.0
 47
0.0
 48
0.0
 49
0.0
140
0.0
141
0.0
142
1.0
143
1.0
 70
   688
 72
     0
 73
     1
 74
     5
  7

 75
    16
147
1.0
 76
     0
 77
     2
 78
   300
148
0.0
149
0.0
100
AcDbLayout
  1
Layout1
 70
     1
 71
     1
 10
-0.1249995194082185
 20
-0.1249999981226883
 11
10.87500024029589
 21
8.37499976158142
 12
0.0
 22
0.0
 32
0.0
 14
1.07500002421732
 24
0.8249999641433474
 34
0.0
 15
9.675000217955881
 25
7.424999677290128
 35
0.0
146
0.0
 13
0.0
 23
0.0
 33
0.0
 16
1.0
 26
0.0
 36
0.0
 17
0.0
 27
1.0
 37
0.0
 76
     0
330
DF2E
331
DF35
1001
ACAD_PSEXT
1000
Microsoft Office Document Image Writer
1000
Microsoft Office Document Image Writer Driver
1000
Microsoft Document Imaging Writer Port:
1000

1070
     0
  0
LAYOUT
  5
22
102
{ACAD_REACTORS
330
1A
102
}
330
1A
100
AcDbPlotSettings
  1

  2
SHARP MX-3100N PCL6
  4
Letter
  6

 40
5.027083396911621
 41
5.027085304260253
 42
5.027084350585937
 43
5.027069091796875
 44
215.8999938964844
 45
279.3999938964844
 46
0.0
 47
41.92550760457018
 48
1474.216405357687
 49
1936.747981705742
140
1546.452849025364
141
2016.90962762578
142
1.0
143
9.891411666978699
 70
 11956
 72
     0
 73
     1
 74
     4
  7

 75
     0
147
0.1010978042030523
 76
     0
 77
     2
 78
   300
148
-37445.09669608525
149
-49193.39873532584
100
AcDbLayout
  1
Model
 70
     1
 71
     0
 10
0.0
 20
0.0
 11
12.0
 21
9.0
 12
0.0
 22
0.0
 32
0.0
 14
0.0
 24
0.0
 34
0.0
 15
0.0
 25
0.0
 35
0.0
146
0.0
 13
0.0
 23
0.0
 33
0.0
 16
1.0
 26
0.0
 36
0.0
 17
0.0
 27
1.0
 37
0.0
 76
     0
330
1F
331
DF4E
1001
ACAD_PSEXT
1000
SHARP MX-3100N PCL6
1000
SHARP MX-3100N PCL6
1000
S2_IP_172.16.4.63
1000

1070
     0
  0
MATERIAL
  5
DF63
102
{ACAD_XDICTIONARY
360
DF64
102
}
102
{ACAD_REACTORS
330
72
102
}
330
72
100
AcDbMaterial
  1
ByBlock
 72
     0
 43
0.0208333333333333
 43
0.0
 43
0.0
 43
0.0
 43
0.0
 43
0.0208333333333333
 43
0.0
 43
0.0
 43
0.0
 43
0.0
 43
1.0
 43
0.0
 43
0.0
 43
0.0
 43
0.0
 43
1.0
 77
     0
 47
0.0208333333333333
 47
0.0
 47
0.0
 47
0.0
 47
0.0
 47
0.0208333333333333
 47
0.0
 47
0.0
 47
0.0
 47
0.0
 47
1.0
 47
0.0
 47
0.0
 47
0.0
 47
0.0
 47
1.0
171
     0
 49
0.0208333333333333
 49
0.0
 49
0.0
 49
0.0
 49
0.0
 49
0.0208333333333333
 49
0.0
 49
0.0
 49
0.0
 49
0.0
 49
1.0
 49
0.0
 49
0.0
 49
0.0
 49
0.0
 49
1.0
175
     0
142
0.0208333333333333
142
0.0
142
0.0
142
0.0
142
0.0
142
0.0208333333333333
142
0.0
142
0.0
142
0.0
142
0.0
142
1.0
142
0.0
142
0.0
142
0.0
142
0.0
142
1.0
179
     0
144
0.0208333333333333
144
0.0
144
0.0
144
0.0
144
0.0
144
0.0208333333333333
144
0.0
144
0.0
144
0.0
144
0.0
144
1.0
144
0.0
144
0.0
144
0.0
144
0.0
144
1.0
147
0.0208333333333333
147
0.0
147
0.0
147
0.0
147
0.0
147
0.0208333333333333
147
0.0
147
0.0
147
0.0
147
0.0
147
1.0
147
0.0
147
0.0
147
0.0
147
0.0
147
1.0
  0
MATERIAL
  5
DF5B
102
{ACAD_XDICTIONARY
360
DF5C
102
}
102
{ACAD_REACTORS
330
72
102
}
330
72
100
AcDbMaterial
  1
ByLayer
 72
     0
 43
0.0208333333333333
 43
0.0
 43
0.0
 43
0.0
 43
0.0
 43
0.0208333333333333
 43
0.0
 43
0.0
 43
0.0
 43
0.0
 43
1.0
 43
0.0
 43
0.0
 43
0.0
 43
0.0
 43
1.0
 77
     0
 47
0.0208333333333333
 47
0.0
 47
0.0
 47
0.0
 47
0.0
 47
0.0208333333333333
 47
0.0
 47
0.0
 47
0.0
 47
0.0
 47
1.0
 47
0.0
 47
0.0
 47
0.0
 47
0.0
 47
1.0
171
     0
 49
0.0208333333333333
 49
0.0
 49
0.0
 49
0.0
 49
0.0
 49
0.0208333333333333
 49
0.0
 49
0.0
 49
0.0
 49
0.0
 49
1.0
 49
0.0
 49
0.0
 49
0.0
 49
0.0
 49
1.0
175
     0
142
0.0208333333333333
142
0.0
142
0.0
142
0.0
142
0.0
142
0.0208333333333333
142
0.0
142
0.0
142
0.0
142
0.0
142
1.0
142
0.0
142
0.0
142
0.0
142
0.0
142
1.0
179
     0
144
0.0208333333333333
144
0.0
144
0.0
144
0.0
144
0.0
144
0.0208333333333333
144
0.0
144
0.0
144
0.0
144
0.0
144
1.0
144
0.0
144
0.0
144
0.0
144
0.0
144
1.0
147
0.0208333333333333
147
0.0
147
0.0
147
0.0
147
0.0
147
0.0208333333333333
147
0.0
147
0.0
147
0.0
147
0.0
147
1.0
147
0.0
147
0.0
147
0.0
147
0.0
147
1.0
  0
MATERIAL
  5
43D6
102
{ACAD_XDICTIONARY
360
DFB2
102
}
102
{ACAD_REACTORS
330
72
102
}
330
72
100
AcDbMaterial
  1
Global
 73
     1
 78
     1
172
     1
176
     1
270
     1
274
     1
  0
MLEADERSTYLE
  5
DF97
102
{ACAD_XDICTIONARY
360
DFA9
102
}
102
{ACAD_REACTORS
330
DF96
102
}
330
DF96
100
AcDbMLeaderStyle
170
     2
171
     1
172
     0
 90
        2
 40
0.0
 41
0.0
173
     1
 91
-1056964608
340
14
 92
       -2
290
     1
 42
0.09
291
     1
 43
0.36
  3
Standard
 44
0.18
300

342
11
174
     1
178
     6
175
     1
176
     0
 93
-1056964608
 45
0.18
292
     0
297
     0
 46
0.18
 94
-1056964608
 47
1.0
 49
1.0
140
1.0
293
     1
141
0.0
294
     1
177
     0
142
1.0
295
     0
296
     0
143
0.125
1001
ACAD_MLEADERVER
1070
     2
  0
MLINESTYLE
  5
18
102
{ACAD_REACTORS
330
17
102
}
330
17
100
AcDbMlineStyle
  2
STANDARD
 70
     0
  3

 62
   256
 51
90.0
 52
90.0
 71
     2
 49
0.5
 62
   256
  6
BYLAYER
 49
-0.5
 62
   256
  6
BYLAYER
  0
PLOTSETTINGS
  5
A580
102
{ACAD_REACTORS
330
19
102
}
330
19
100
AcDbPlotSettings
  1
Setup1
  2
none_device
  4
Letter_(8.50_x_11.00_Inches)
  6

 40
6.349999904632568
 41
6.349999904632568
 42
6.350006103515625
 43
6.350006103515625
 44
215.8999938964844
 45
279.3999938964844
 46
0.0
 47
0.0
 48
0.0
 49
0.0
140
0.0
141
0.0
142
1.0
143
1.0
 70
 15024
 72
     0
 73
     1
 74
     5
  7

 75
    16
147
1.0
 76
     0
 77
     2
 78
   300
148
0.0
149
0.0
1001
ACAD_PSEXT
1000
None
1000
None
1000
Not applicable
1000
The layout will not be plotted unless a new plotter configuration name is selected.
1070
     0
  0
ACDBPLACEHOLDER
  5
F
102
{ACAD_REACTORS
330
E
102
}
330
E
  0
SCALE
  5
DF85
102
{ACAD_REACTORS
330
DF84
102
}
330
DF84
100
AcDbScale
 70
     0
300
1:1
140
1.0
141
1.0
290
     1
  0
SCALE
  5
DF86
102
{ACAD_REACTORS
330
DF84
102
}
330
DF84
100
AcDbScale
 70
     0
300
1/128" = 1'-0"
140
0.0078125
141
12.0
290
     0
  0
SCALE
  5
DF87
102
{ACAD_REACTORS
330
DF84
102
}
330
DF84
100
AcDbScale
 70
     0
300
1/64" = 1'-0"
140
0.015625
141
12.0
290
     0
  0
SCALE
  5
DF88
102
{ACAD_REACTORS
330
DF84
102
}
330
DF84
100
AcDbScale
 70
     0
300
1/32" = 1'-0"
140
0.03125
141
12.0
290
     0
  0
SCALE
  5
DF89
102
{ACAD_REACTORS
330
DF84
102
}
330
DF84
100
AcDbScale
 70
     0
300
1/16" = 1'-0"
140
0.0625
141
12.0
290
     0
  0
SCALE
  5
DF8A
102
{ACAD_REACTORS
330
DF84
102
}
330
DF84
100
AcDbScale
 70
     0
300
3/32" = 1'-0"
140
0.09375
141
12.0
290
     0
  0
SCALE
  5
DF8B
102
{ACAD_REACTORS
330
DF84
102
}
330
DF84
100
AcDbScale
 70
     0
300
1/8" = 1'-0"
140
0.125
141
12.0
290
     0
  0
SCALE
  5
DF8C
102
{ACAD_REACTORS
330
DF84
102
}
330
DF84
100
AcDbScale
 70
     0
300
3/16" = 1'-0"
140
0.1875
141
12.0
290
     0
  0
SCALE
  5
DF8D
102
{ACAD_REACTORS
330
DF84
102
}
330
DF84
100
AcDbScale
 70
     0
300
1/4" = 1'-0"
140
0.25
141
12.0
290
     0
  0
SCALE
  5
DF8E
102
{ACAD_REACTORS
330
DF84
102
}
330
DF84
100
AcDbScale
 70
     0
300
3/8" = 1'-0"
140
0.375
141
12.0
290
     0
  0
SCALE
  5
DF8F
102
{ACAD_REACTORS
330
DF84
102
}
330
DF84
100
AcDbScale
 70
     0
300
1/2" = 1'-0"
140
0.5
141
12.0
290
     0
  0
SCALE
  5
DF90
102
{ACAD_REACTORS
330
DF84
102
}
330
DF84
100
AcDbScale
 70
     0
300
3/4" = 1'-0"
140
0.75
141
12.0
290
     0
  0
SCALE
  5
DF91
102
{ACAD_REACTORS
330
DF84
102
}
330
DF84
100
AcDbScale
 70
     0
300
1" = 1'-0"
140
1.0
141
12.0
290
     0
  0
SCALE
  5
DF92
102
{ACAD_REACTORS
330
DF84
102
}
330
DF84
100
AcDbScale
 70
     0
300
1-1/2" = 1'-0"
140
1.5
141
12.0
290
     0
  0
SCALE
  5
DF93
102
{ACAD_REACTORS
330
DF84
102
}
330
DF84
100
AcDbScale
 70
     0
300
3" = 1'-0"
140
3.0
141
12.0
290
     0
  0
SCALE
  5
DF94
102
{ACAD_REACTORS
330
DF84
102
}
330
DF84
100
AcDbScale
 70
     0
300
6" = 1'-0"
140
6.0
141
12.0
290
     0
  0
SCALE
  5
DF95
102
{ACAD_REACTORS
330
DF84
102
}
330
DF84
100
AcDbScale
 70
     0
300
1'-0" = 1'-0"
140
12.0
141
12.0
290
     0
  0
TABLESTYLE
  5
87
102
{ACAD_XDICTIONARY
360
DFA7
102
}
102
{ACAD_REACTORS
330
86
102
}
330
86
100
AcDbTableStyle
  3
Standard
 70
     0
 71
     0
 40
0.06
 41
0.06
280
     0
281
     0
  7
Standard
140
0.18
170
     2
 62
     0
 63
     7
283
     0
274
    -2
284
     1
 64
     0
275
    -2
285
     1
 65
     0
276
    -2
286
     1
 66
     0
277
    -2
287
     1
 67
     0
278
    -2
288
     1
 68
     0
279
    -2
289
     1
 69
     0
  7
Standard
140
0.25
170
     5
 62
     0
 63
     7
283
     0
274
    -2
284
     1
 64
     0
275
    -2
285
     1
 65
     0
276
    -2
286
     1
 66
     0
277
    -2
287
     1
 67
     0
278
    -2
288
     1
 68
     0
279
    -2
289
     1
 69
     0
  7
Standard
140
0.18
170
     5
 62
     0
 63
     7
283
     0
274
    -2
284
     1
 64
     0
275
    -2
285
     1
 65
     0
276
    -2
286
     1
 66
     0
277
    -2
287
     1
 67
     0
278
    -2
288
     1
 68
     0
279
    -2
289
     1
 69
     0
  0
VISUALSTYLE
  5
DF71
102
{ACAD_XDICTIONARY
360
DFC0
102
}
102
{ACAD_REACTORS
330
DF6B
102
}
330
DF6B
100
AcDbVisualStyle
  2
2dWireframe
 70
     4
 71
     0
 72
     2
 73
     0
 90
        0
 40
-0.6
 41
-30.0
 62
     5
 63
     7
421
 16777215
 74
     1
 91
        4
 64
     7
 65
   257
 75
     1
175
     1
 42
1.0
 92
        0
 66
   257
 43
1.0
 76
     1
 77
     6
 78
     2
 67
     7
 79
     5
170
     0
171
     0
290
     0
174
     0
 93
        1
 44
0.0
173
     0
291
     0
 45
0.0
1001
ACAD
1000
AcDbSavedByObjectVersion
1070
     0
  0
VISUALSTYLE
  5
DF70
102
{ACAD_XDICTIONARY
360
DFBE
102
}
102
{ACAD_REACTORS
330
DF6B
102
}
330
DF6B
100
AcDbVisualStyle
  2
Basic
 70
     7
 71
     1
 72
     0
 73
     1
 90
        0
 40
-0.6
 41
-30.0
 62
     5
 63
     7
421
 16777215
 74
     0
 91
        4
 64
     7
 65
   257
 75
     1
175
     1
 42
1.0
 92
        8
 66
     7
 43
1.0
 76
     1
 77
     6
 78
     2
 67
     7
 79
     5
170
     0
171
     0
290
     0
174
     0
 93
        1
 44
0.0
173
     0
291
     1
 45
0.0
1001
ACAD
1000
AcDbSavedByObjectVersion
1070
     0
  0
VISUALSTYLE
  5
DF77
102
{ACAD_XDICTIONARY
360
DFCC
102
}
102
{ACAD_REACTORS
330
DF6B
102
}
330
DF6B
100
AcDbVisualStyle
  2
Brighten
 70
    12
 71
     2
 72
     2
 73
     0
 90
        0
 40
-0.6
 41
-30.0
 62
     5
 63
     7
421
 16777215
 74
     1
 91
        4
 64
     7
 65
   257
 75
     1
175
     1
 42
1.0
 92
        8
 66
     7
 43
1.0
 76
     1
 77
     6
 78
     2
 67
     7
 79
     5
170
     0
171
     0
290
     0
174
     0
 93
        1
 44
50.0
173
     0
291
     1
 45
0.0
1001
ACAD
1000
AcDbSavedByObjectVersion
1070
     0
  0
VISUALSTYLE
  5
DF7B
102
{ACAD_XDICTIONARY
360
DFD4
102
}
102
{ACAD_REACTORS
330
DF6B
102
}
330
DF6B
100
AcDbVisualStyle
  2
ColorChange
 70
    16
 71
     2
 72
     2
 73
     3
 90
        0
 40
-0.6
 41
-30.0
 62
     5
 63
     8
421
  8421504
 74
     1
 91
        4
 64
     7
 65
   257
 75
     1
175
     1
 42
1.0
 92
        8
 66
     8
424
  8421504
 43
1.0
 76
     1
 77
     6
 78
     2
 67
     7
 79
     5
170
     0
171
     0
290
     0
174
     0
 93
        1
 44
0.0
173
     0
291
     1
 45
0.0
1001
ACAD
1000
AcDbSavedByObjectVersion
1070
     0
  0
VISUALSTYLE
  5
DF74
102
{ACAD_XDICTIONARY
360
DFC6
102
}
102
{ACAD_REACTORS
330
DF6B
102
}
330
DF6B
100
AcDbVisualStyle
  2
Conceptual
 70
     9
 71
     3
 72
     2
 73
     0
 90
        0
 40
-0.6
 41
-30.0
 62
     5
 63
     7
421
 16777215
 74
     2
 91
        2
 64
     7
 65
   257
 75
     1
175
     1
 42
179.0
 92
        8
 66
     7
 43
1.0
 76
     1
 77
     6
 78
     2
 67
     7
 79
     3
170
     0
171
     0
290
     0
174
     0
 93
        1
 44
0.0
173
     0
291
     0
 45
0.0
1001
ACAD
1000
AcDbSavedByObjectVersion
1070
     0
  0
VISUALSTYLE
  5
DF76
102
{ACAD_XDICTIONARY
360
DFCA
102
}
102
{ACAD_REACTORS
330
DF6B
102
}
330
DF6B
100
AcDbVisualStyle
  2
Dim
 70
    11
 71
     2
 72
     2
 73
     0
 90
        0
 40
-0.6
 41
-30.0
 62
     5
 63
     7
421
 16777215
 74
     1
 91
        4
 64
     7
 65
   257
 75
     1
175
     1
 42
1.0
 92
        8
 66
     7
 43
1.0
 76
     1
 77
     6
 78
     2
 67
     7
 79
     5
170
     0
171
     0
290
     0
174
     0
 93
        1
 44
-50.0
173
     0
291
     1
 45
0.0
1001
ACAD
1000
AcDbSavedByObjectVersion
1070
     0
  0
VISUALSTYLE
  5
DF83
102
{ACAD_XDICTIONARY
360
DFE4
102
}
102
{ACAD_REACTORS
330
DF6B
102
}
330
DF6B
100
AcDbVisualStyle
  2
EdgeColorOff
 70
    22
 71
     2
 72
     2
 73
     0
 90
        0
 40
-0.6
 41
-30.0
 62
     5
 63
     7
421
 16777215
 74
     1
 91
        4
 64
     7
 65
   257
 75
     1
175
     1
 42
1.0
 92
        8
 66
     7
 43
1.0
 76
     1
 77
     6
 78
     2
 67
     7
 79
     5
170
     0
171
     0
290
     0
174
     0
 93
        1
 44
0.0
173
     0
291
     1
 45
0.0
1001
ACAD
1000
AcDbSavedByObjectVersion
1070
     0
  0
VISUALSTYLE
  5
DF7A
102
{ACAD_XDICTIONARY
360
DFD2
102
}
102
{ACAD_REACTORS
330
DF6B
102
}
330
DF6B
100
AcDbVisualStyle
  2
Facepattern
 70
    15
 71
     2
 72
     2
 73
     0
 90
        0
 40
-0.6
 41
-30.0
 62
     5
 63
     7
421
 16777215
 74
     1
 91
        4
 64
     7
 65
   257
 75
     1
175
     1
 42
1.0
 92
        8
 66
     7
 43
1.0
 76
     1
 77
     6
 78
     2
 67
     7
 79
     5
170
     0
171
     0
290
     0
174
     0
 93
        1
 44
0.0
173
     0
291
     1
 45
0.0
1001
ACAD
1000
AcDbSavedByObjectVersion
1070
     0
  0
VISUALSTYLE
  5
DF6C
102
{ACAD_XDICTIONARY
360
DFB6
102
}
102
{ACAD_REACTORS
330
DF6B
102
}
330
DF6B
100
AcDbVisualStyle
  2
Flat
 70
     0
 71
     2
 72
     1
 73
     1
 90
        2
 40
-0.6
 41
30.0
 62
     5
 63
     7
421
 16777215
 74
     0
 91
        0
 64
     7
 65
   257
 75
     1
175
     1
 42
1.0
 92
        8
 66
     7
 43
1.0
 76
     1
 77
     6
 78
     2
 67
     7
 79
     5
170
     0
171
     0
290
     0
174
     0
 93
       13
 44
0.0
173
     0
291
     1
 45
0.0
1001
ACAD
1000
AcDbSavedByObjectVersion
1070
     0
  0
VISUALSTYLE
  5
DF6D
102
{ACAD_XDICTIONARY
360
DFB8
102
}
102
{ACAD_REACTORS
330
DF6B
102
}
330
DF6B
100
AcDbVisualStyle
  2
FlatWithEdges
 70
     1
 71
     2
 72
     1
 73
     1
 90
        2
 40
-0.6
 41
30.0
 62
     5
 63
     7
421
 16777215
 74
     1
 91
        0
 64
     7
 65
   257
 75
     1
175
     1
 42
1.0
 92
        0
 66
   257
 43
1.0
 76
     1
 77
     6
 78
     2
 67
     7
 79
     5
170
     0
171
     0
290
     0
174
     0
 93
       13
 44
0.0
173
     0
291
     1
 45
0.0
1001
ACAD
1000
AcDbSavedByObjectVersion
1070
     0
  0
VISUALSTYLE
  5
DF6E
102
{ACAD_XDICTIONARY
360
DFBA
102
}
102
{ACAD_REACTORS
330
DF6B
102
}
330
DF6B
100
AcDbVisualStyle
  2
Gouraud
 70
     2
 71
     2
 72
     2
 73
     1
 90
        2
 40
-0.6
 41
30.0
 62
     5
 63
     7
421
 16777215
 74
     0
 91
        0
 64
     7
 65
   257
 75
     1
175
     1
 42
1.0
 92
        0
 66
     7
 43
1.0
 76
     1
 77
     6
 78
     2
 67
     7
 79
     5
170
     0
171
     0
290
     0
174
     0
 93
       13
 44
0.0
173
     0
291
     1
 45
0.0
1001
ACAD
1000
AcDbSavedByObjectVersion
1070
     0
  0
VISUALSTYLE
  5
DF6F
102
{ACAD_XDICTIONARY
360
DFBC
102
}
102
{ACAD_REACTORS
330
DF6B
102
}
330
DF6B
100
AcDbVisualStyle
  2
GouraudWithEdges
 70
     3
 71
     2
 72
     2
 73
     1
 90
        2
 40
-0.6
 41
30.0
 62
     5
 63
     7
421
 16777215
 74
     1
 91
        0
 64
     7
 65
   257
 75
     1
175
     1
 42
1.0
 92
        0
 66
   257
 43
1.0
 76
     1
 77
     6
 78
     2
 67
     7
 79
     5
170
     0
171
     0
290
     0
174
     0
 93
       13
 44
0.0
173
     0
291
     1
 45
0.0
1001
ACAD
1000
AcDbSavedByObjectVersion
1070
     0
  0
VISUALSTYLE
  5
DF73
102
{ACAD_XDICTIONARY
360
DFC4
102
}
102
{ACAD_REACTORS
330
DF6B
102
}
330
DF6B
100
AcDbVisualStyle
  2
Hidden
 70
     6
 71
     1
 72
     2
 73
     2
 90
        0
 40
-0.6
 41
-30.0
 62
     5
 63
     7
421
 16777215
 74
     2
 91
        2
 64
     7
 65
   257
 75
     2
175
     1
 42
40.0
 92
        0
 66
   257
 43
1.0
 76
     1
 77
     6
 78
     2
 67
     7
 79
     3
170
     0
171
     0
290
     0
174
     0
 93
        1
 44
0.0
173
     0
291
     0
 45
0.0
1001
ACAD
1000
AcDbSavedByObjectVersion
1070
     0
  0
VISUALSTYLE
  5
DF81
102
{ACAD_XDICTIONARY
360
DFE0
102
}
102
{ACAD_REACTORS
330
DF6B
102
}
330
DF6B
100
AcDbVisualStyle
  2
JitterOff
 70
    20
 71
     2
 72
     2
 73
     0
 90
        0
 40
-0.6
 41
-30.0
 62
     5
 63
     7
421
 16777215
 74
     1
 91
        4
 64
     7
 65
   257
 75
     1
175
     1
 42
1.0
 92
       10
 66
     7
 43
1.0
 76
     1
 77
     6
 78
     2
 67
     7
 79
     5
170
     0
171
     0
290
     0
174
     0
 93
        1
 44
0.0
173
     0
291
     1
 45
0.0
1001
ACAD
1000
AcDbSavedByObjectVersion
1070
     0
  0
VISUALSTYLE
  5
DF79
102
{ACAD_XDICTIONARY
360
DFD0
102
}
102
{ACAD_REACTORS
330
DF6B
102
}
330
DF6B
100
AcDbVisualStyle
  2
Linepattern
 70
    14
 71
     2
 72
     2
 73
     0
 90
        0
 40
-0.6
 41
-30.0
 62
     5
 63
     7
421
 16777215
 74
     1
 91
        4
 64
     7
 65
   257
 75
     7
175
     7
 42
1.0
 92
        8
 66
     7
 43
1.0
 76
     1
 77
     6
 78
     2
 67
     7
 79
     5
170
     0
171
     0
290
     0
174
     0
 93
        1
 44
0.0
173
     0
291
     1
 45
0.0
1001
ACAD
1000
AcDbSavedByObjectVersion
1070
     0
  0
VISUALSTYLE
  5
DF82
102
{ACAD_XDICTIONARY
360
DFE2
102
}
102
{ACAD_REACTORS
330
DF6B
102
}
330
DF6B
100
AcDbVisualStyle
  2
OverhangOff
 70
    21
 71
     2
 72
     2
 73
     0
 90
        0
 40
-0.6
 41
-30.0
 62
     5
 63
     7
421
 16777215
 74
     1
 91
        4
 64
     7
 65
   257
 75
     1
175
     1
 42
1.0
 92
        9
 66
     7
 43
1.0
 76
     1
 77
     6
 78
     2
 67
     7
 79
     5
170
     0
171
     0
290
     0
174
     0
 93
        1
 44
0.0
173
     0
291
     1
 45
0.0
1001
ACAD
1000
AcDbSavedByObjectVersion
1070
     0
  0
VISUALSTYLE
  5
DF75
102
{ACAD_XDICTIONARY
360
DFC8
102
}
102
{ACAD_REACTORS
330
DF6B
102
}
330
DF6B
100
AcDbVisualStyle
  2
Realistic
 70
     8
 71
     2
 72
     3
 73
     0
 90
        2
 40
-0.6
 41
30.0
 62
     5
 63
     7
421
 16777215
 74
     0
 91
        0
 64
     7
 65
   257
 75
     1
175
     1
 42
1.0
 92
        8
 66
   257
 43
1.0
 76
     1
 77
     6
 78
     2
 67
     7
 79
     3
170
     0
171
     0
290
     0
174
     0
 93
       13
 44
0.0
173
     0
291
     0
 45
0.0
1001
ACAD
1000
AcDbSavedByObjectVersion
1070
     0
  0
VISUALSTYLE
  5
DF80
102
{ACAD_XDICTIONARY
360
DFDE
102
}
102
{ACAD_REACTORS
330
DF6B
102
}
330
DF6B
100
AcDbVisualStyle
  2
Shaded
 70
    27
 71
     2
 72
     2
 73
     1
 90
        2
 40
-0.6
 41
30.0
 62
     5
 63
     7
421
 16777215
 74
     0
 91
        4
 64
     7
 65
   257
 75
     1
175
     1
 42
1.0
 92
        8
 66
   257
 43
1.0
 76
     1
 77
     6
 78
     2
 67
     8
425
  7895160
 79
     3
170
     0
171
     0
290
     0
174
     0
 93
        5
 44
0.0
173
     0
291
     0
 45
0.0
1001
ACAD
1000
AcDbSavedByObjectVersion
1070
     0
  0
VISUALSTYLE
  5
DF7F
102
{ACAD_XDICTIONARY
360
DFDC
102
}
102
{ACAD_REACTORS
330
DF6B
102
}
330
DF6B
100
AcDbVisualStyle
  2
Shaded with edges
 70
    26
 71
     2
 72
     2
 73
     1
 90
        2
 40
-0.6
 41
30.0
 62
     5
 63
     7
421
 16777215
 74
     1
 91
       10
 64
     7
 65
   257
 75
     2
175
     1
 42
1.0
 92
        8
 66
   257
 43
1.0
 76
     1
 77
     6
 78
     2
 67
     7
 79
     3
170
     0
171
     0
290
     0
174
     0
 93
        5
 44
0.0
173
     0
291
     0
 45
0.0
1001
ACAD
1000
AcDbSavedByObjectVersion
1070
     0
  0
VISUALSTYLE
  5
DF7C
102
{ACAD_XDICTIONARY
360
DFD6
102
}
102
{ACAD_REACTORS
330
DF6B
102
}
330
DF6B
100
AcDbVisualStyle
  2
Shades of Gray
 70
    23
 71
     2
 72
     2
 73
     3
 90
        0
 40
-0.6
 41
-30.0
 62
     5
 63
     7
421
 16777215
 74
     2
 91
        2
 64
     7
 65
     7
 75
     1
175
     1
 42
40.0
 92
        8
 66
     7
 43
1.0
 76
     1
 77
     6
 78
     2
 67
     7
 79
     3
170
     0
171
     0
290
     0
174
     0
 93
        1
 44
0.0
173
     0
291
     0
 45
0.0
1001
ACAD
1000
AcDbSavedByObjectVersion
1070
     0
  0
VISUALSTYLE
  5
DF7D
102
{ACAD_XDICTIONARY
360
DFD8
102
}
102
{ACAD_REACTORS
330
DF6B
102
}
330
DF6B
100
AcDbVisualStyle
  2
Sketchy
 70
    24
 71
     1
 72
     2
 73
     2
 90
        0
 40
-0.6
 41
-30.0
 62
     5
 63
     7
421
 16777215
 74
     2
 91
        2
 64
     7
 65
     7
 75
     1
175
     1
 42
40.0
 92
       11
 66
     7
 43
1.0
 76
     1
 77
     6
 78
     2
 67
     7
 79
     6
170
     0
171
     0
290
     0
174
     0
 93
        1
 44
0.0
173
     0
291
     0
 45
0.0
1001
ACAD
1000
AcDbSavedByObjectVersion
1070
     0
  0
VISUALSTYLE
  5
DF78
102
{ACAD_XDICTIONARY
360
DFCE
102
}
102
{ACAD_REACTORS
330
DF6B
102
}
330
DF6B
100
AcDbVisualStyle
  2
Thicken
 70
    13
 71
     2
 72
     2
 73
     0
 90
        0
 40
-0.6
 41
-30.0
 62
     5
 63
     7
421
 16777215
 74
     1
 91
        4
 64
     7
 65
   257
 75
     1
175
     1
 42
1.0
 92
       12
 66
     7
 43
1.0
 76
     1
 77
     6
 78
     2
 67
     7
 79
     5
170
     0
171
     0
290
     0
174
     0
 93
        1
 44
0.0
173
     0
291
     1
 45
0.0
1001
ACAD
1000
AcDbSavedByObjectVersion
1070
     0
  0
VISUALSTYLE
  5
DF72
102
{ACAD_XDICTIONARY
360
DFC2
102
}
102
{ACAD_REACTORS
330
DF6B
102
}
330
DF6B
100
AcDbVisualStyle
  2
Wireframe
 70
     5
 71
     0
 72
     2
 73
     0
 90
        0
 40
-0.6
 41
-30.0
 62
     5
 63
     7
421
 16777215
 74
     1
 91
        4
 64
     7
 65
   257
 75
     1
175
     1
 42
1.0
 92
        0
 66
   257
 43
1.0
 76
     1
 77
     6
 78
     2
 67
     7
 79
     3
170
     0
171
     0
290
     0
174
     0
 93
        1
 44
0.0
173
     0
291
     0
 45
0.0
1001
ACAD
1000
AcDbSavedByObjectVersion
1070
     0
  0
VISUALSTYLE
  5
DF7E
102
{ACAD_XDICTIONARY
360
DFDA
102
}
102
{ACAD_REACTORS
330
DF6B
102
}
330
DF6B
100
AcDbVisualStyle
  2
X-Ray
 70
    25
 71
     2
 72
     2
 73
     1
 90
        1
 40
0.5
 41
-30.0
 62
     5
 63
     7
421
 16777215
 74
     1
 91
        0
 64
     7
 65
   257
 75
     1
175
     1
 42
1.0
 92
        8
 66
     7
 43
1.0
 76
     1
 77
     6
 78
     2
 67
     7
 79
     3
170
     0
171
     0
290
     0
174
     0
 93
       13
 44
0.0
173
     0
291
     0
 45
0.0
1001
ACAD
1000
AcDbSavedByObjectVersion
1070
     0
  0
DICTIONARYVAR
  5
DFA4
102
{ACAD_REACTORS
330
66
102
}
330
66
100
DictionaryVariables
280
     0
  1
1:1
  0
DICTIONARYVAR
  5
DFA3
102
{ACAD_REACTORS
330
66
102
}
330
66
100
DictionaryVariables
280
     0
  1
STANDARD
  0
DICTIONARYVAR
  5
36F
102
{ACAD_REACTORS
330
66
102
}
330
66
100
DictionaryVariables
280
     0
  1
STANDARD
  0
DICTIONARYVAR
  5
67
102
{ACAD_REACTORS
330
66
102
}
330
66
100
DictionaryVariables
280
     0
  1
2
  0
DICTIONARYVAR
  5
6B
102
{ACAD_REACTORS
330
66
102
}
330
66
100
DictionaryVariables
280
     0
  1
1
  0
DICTIONARYVAR
  5
DF59
102
{ACAD_REACTORS
330
66
102
}
330
66
100
DictionaryVariables
280
     0
  1

  0
DICTIONARYVAR
  5
DFA5
102
{ACAD_REACTORS
330
66
102
}
330
66
100
DictionaryVariables
280
     0
  1
2
  0
XRECORD
  5
CD5E
102
{ACAD_REACTORS
330
CD5D
102
}
330
CD5D
100
AcDbXrecord
280
     1
  0
DICTIONARY
  5
DF3C
330
DF2F
100
AcDbDictionary
280
     1
281
     1
  3
ADSK_XREC_LAYOUTTHUMBNAIL
360
DF3D
  0
DICTIONARY
  5
DF64
330
DF63
100
AcDbDictionary
280
     1
281
     1
  3
ACAD_XREC_ROUNDTRIP
360
DFB5
  3
BUMPTILE
360
DF66
  3
DIFFUSETILE
360
DF65
  3
OPACITYTILE
360
DF69
  3
REFLECTIONTILE
360
DF68
  3
REFRACTIONTILE
360
DF6A
  3
SPECULARTILE
360
DF67
  0
DICTIONARY
  5
DF5C
330
DF5B
100
AcDbDictionary
280
     1
281
     1
  3
ACAD_XREC_ROUNDTRIP
360
DFB4
  3
BUMPTILE
360
DF5E
  3
DIFFUSETILE
360
DF5D
  3
OPACITYTILE
360
DF61
  3
REFLECTIONTILE
360
DF60
  3
REFRACTIONTILE
360
DF62
  3
SPECULARTILE
360
DF5F
  0
DICTIONARY
  5
DFB2
330
43D6
100
AcDbDictionary
280
     1
281
     1
  3
ACAD_XREC_ROUNDTRIP
360
DFB3
  0
DICTIONARY
  5
DFA9
330
DF97
100
AcDbDictionary
280
     1
281
     1
  3
ACAD_XREC_ROUNDTRIP
360
DFAA
  0
DICTIONARY
  5
DFA7
330
87
100
AcDbDictionary
280
     1
281
     1
  3
ACAD_ROUNDTRIP_2008_TABLESTYLE_CELLSTYLEMAP
360
DFA8
  3
ACAD_XREC_ROUNDTRIP
360
DFB1
  0
DICTIONARY
  5
DFC0
330
DF71
100
AcDbDictionary
280
     1
281
     1
  3
ACAD_XREC_ROUNDTRIP
360
DFC1
  0
DICTIONARY
  5
DFBE
330
DF70
100
AcDbDictionary
280
     1
281
     1
  3
ACAD_XREC_ROUNDTRIP
360
DFBF
  0
DICTIONARY
  5
DFCC
330
DF77
100
AcDbDictionary
280
     1
281
     1
  3
ACAD_XREC_ROUNDTRIP
360
DFCD
  0
DICTIONARY
  5
DFD4
330
DF7B
100
AcDbDictionary
280
     1
281
     1
  3
ACAD_XREC_ROUNDTRIP
360
DFD5
  0
DICTIONARY
  5
DFC6
330
DF74
100
AcDbDictionary
280
     1
281
     1
  3
ACAD_XREC_ROUNDTRIP
360
DFC7
  0
DICTIONARY
  5
DFCA
330
DF76
100
AcDbDictionary
280
     1
281
     1
  3
ACAD_XREC_ROUNDTRIP
360
DFCB
  0
DICTIONARY
  5
DFE4
330
DF83
100
AcDbDictionary
280
     1
281
     1
  3
ACAD_XREC_ROUNDTRIP
360
DFE5
  0
DICTIONARY
  5
DFD2
330
DF7A
100
AcDbDictionary
280
     1
281
     1
  3
ACAD_XREC_ROUNDTRIP
360
DFD3
  0
DICTIONARY
  5
DFB6
330
DF6C
100
AcDbDictionary
280
     1
281
     1
  3
ACAD_XREC_ROUNDTRIP
360
DFB7
  0
DICTIONARY
  5
DFB8
330
DF6D
100
AcDbDictionary
280
     1
281
     1
  3
ACAD_XREC_ROUNDTRIP
360
DFB9
  0
DICTIONARY
  5
DFBA
330
DF6E
100
AcDbDictionary
280
     1
281
     1
  3
ACAD_XREC_ROUNDTRIP
360
DFBB
  0
DICTIONARY
  5
DFBC
330
DF6F
100
AcDbDictionary
280
     1
281
     1
  3
ACAD_XREC_ROUNDTRIP
360
DFBD
  0
DICTIONARY
  5
DFC4
330
DF73
100
AcDbDictionary
280
     1
281
     1
  3
ACAD_XREC_ROUNDTRIP
360
DFC5
  0
DICTIONARY
  5
DFE0
330
DF81
100
AcDbDictionary
280
     1
281
     1
  3
ACAD_XREC_ROUNDTRIP
360
DFE1
  0
DICTIONARY
  5
DFD0
330
DF79
100
AcDbDictionary
280
     1
281
     1
  3
ACAD_XREC_ROUNDTRIP
360
DFD1
  0
DICTIONARY
  5
DFE2
330
DF82
100
AcDbDictionary
280
     1
281
     1
  3
ACAD_XREC_ROUNDTRIP
360
DFE3
  0
DICTIONARY
  5
DFC8
330
DF75
100
AcDbDictionary
280
     1
281
     1
  3
ACAD_XREC_ROUNDTRIP
360
DFC9
  0
DICTIONARY
  5
DFDE
330
DF80
100
AcDbDictionary
280
     1
281
     1
  3
ACAD_XREC_ROUNDTRIP
360
DFDF
  0
DICTIONARY
  5
DFDC
330
DF7F
100
AcDbDictionary
280
     1
281
     1
  3
ACAD_XREC_ROUNDTRIP
360
DFDD
  0
DICTIONARY
  5
DFD6
330
DF7C
100
AcDbDictionary
280
     1
281
     1
  3
ACAD_XREC_ROUNDTRIP
360
DFD7
  0
DICTIONARY
  5
DFD8
330
DF7D
100
AcDbDictionary
280
     1
281
     1
  3
ACAD_XREC_ROUNDTRIP
360
DFD9
  0
DICTIONARY
  5
DFCE
330
DF78
100
AcDbDictionary
280
     1
281
     1
  3
ACAD_XREC_ROUNDTRIP
360
DFCF
  0
DICTIONARY
  5
DFC2
330
DF72
100
AcDbDictionary
280
     1
281
     1
  3
ACAD_XREC_ROUNDTRIP
360
DFC3
  0
DICTIONARY
  5
DFDA
330
DF7E
100
AcDbDictionary
280
     1
281
     1
  3
ACAD_XREC_ROUNDTRIP
360
DFDB
  0
XRECORD
  5
DF3D
102
{ACAD_REACTORS
330
DF3C
102
}
330
DF3C
100
AcDbXrecord
280
     1
310
28000000B40000008B0000000100080000000000BC61000000000000000000000001000000000000FFFFFF0000000000FFFFFF000000000000000000000000000000000000000000000000000000000000000000330000006600000099000000CC000000FF00000000330000333300006633000099330000CC330000FF3300
310
0000660000336600006666000099660000CC660000FF66000000990000339900006699000099990000CC990000FF99000000CC000033CC000066CC000099CC0000CCCC0000FFCC000000FF000033FF000066FF000099FF0000CCFF0000FFFF000000003300330033006600330099003300CC003300FF003300003333003333
310
33006633330099333300CC333300FF33330000663300336633006666330099663300CC663300FF66330000993300339933006699330099993300CC993300FF99330000CC330033CC330066CC330099CC3300CCCC3300FFCC330000FF330033FF330066FF330099FF3300CCFF3300FFFF330000006600330066006600660099
310
006600CC006600FF00660000336600333366006633660099336600CC336600FF33660000666600336666006666660099666600CC666600FF66660000996600339966006699660099996600CC996600FF99660000CC660033CC660066CC660099CC6600CCCC6600FFCC660000FF660033FF660066FF660099FF6600CCFF6600
310
FFFF660000009900330099006600990099009900CC009900FF00990000339900333399006633990099339900CC339900FF33990000669900336699006666990099669900CC669900FF66990000999900339999006699990099999900CC999900FF99990000CC990033CC990066CC990099CC9900CCCC9900FFCC990000FF99
310
0033FF990066FF990099FF9900CCFF9900FFFF99000000CC003300CC006600CC009900CC00CC00CC00FF00CC000033CC003333CC006633CC009933CC00CC33CC00FF33CC000066CC003366CC006666CC009966CC00CC66CC00FF66CC000099CC003399CC006699CC009999CC00CC99CC00FF99CC0000CCCC0033CCCC0066CC
310
CC0099CCCC00CCCCCC00FFCCCC0000FFCC0033FFCC0066FFCC0099FFCC00CCFFCC00FFFFCC000000FF003300FF006600FF009900FF00CC00FF00FF00FF000033FF003333FF006633FF009933FF00CC33FF00FF33FF000066FF003366FF006666FF009966FF00CC66FF00FF66FF000099FF003399FF006699FF009999FF00CC
310
99FF00FF99FF0000CCFF0033CCFF0066CCFF0099CCFF00CCCCFF00FFCCFF0000FFFF0033FFFF0066FFFF0099FFFF00CCFFFF00FFFFFF00000000000D0D0D001A1A1A00282828003535350043434300505050005D5D5D006B6B6B00787878008686860093939300A1A1A100AEAEAE00BBBBBB00C9C9C900D6D6D600E4E4E400
310
F1F1F100FFFFFF0000000000000000000000000000000000000000000000000000000000000000000000000000000000E2E2E2E2E2E2E2E2E2E2E2E2E2E2E2E2E2E2E2E2E2E2E2E2E2E2E2E2E2E2E2E2E2E2E2E2E2E2E2E2E2E2E2E2E2E2E2E2E2E2E2E2E2E2E2E2E2E2E2E2E2E2E2E2E2E2E2E2E2E2E2E2E2E2E2E2E2E2E2
310
E2E2E2E2E2E2E2E2E2E2E2E2E2E2E2E2E2E2E2E2E2E2E2E2E2E2E2E2E2E2E2E2E2E2E2E2E2E2E2E2E2E2E2E2E2E2E2E2E2E2E2E2E2E2E2E2E2E2E2E2E2E2E2E2E2E2E2E2E2E2E2E2E2E2E2E2E2E2E2E2E2E2E2E2E2E2E2E2E2E2E2E2E2E2E2E2E2E2E2E2E2E2F5F5F5F5F5F5F5F5F5F5F5F5F5F5F5F5F5F5F5F5F5F5F5F5F5
310
F5F5F5F5F5F5F5F5F5F5F5F5F5F5F5F5F5F5F5F5F5F5F5F5F5F5F5F5F5F5F5F5F5F5F5F5F5F5F5F5F5F5F5F5F5F5F5F5F5F5F5F5F5F5F5F5F5F5F5F5F5F5F5F5F5F5F5F5F5F5F5F5F5F5F5F5F5F5F5F5F5F5F5F5F5F5F5F5F5F5F5F5F5F5F5F5F5F5F5F5F5F5F5F5F5F5F5F5F5F5F5F5F5F5F5F5F5F5F5F5F5F5F5F5F5F5F5
310
F5F5F5F5F5F5F5F5F5F5F5F5F5F5F5F5F5F5F5F5F5F5F5F5E2E2E2E2F5E2E2E2E2E2E2E2E2F5F5F5F5F5F5F5F5F5E2E2E2E2E2E2E2E2E2E2E2E2E2E2E2E2F5F5F5F5F5F5F5F5F5E2E2E2E2E2E2E2E2E2E2E2E2E2E2E2E2F5F5F5F5F5F5F5F5F5E2E2E2E2E2E2E2E2E2E2E2E2E2E2E2E2F5F5F5F5F5F5F5F5E2E2E2E2E2E2E2
310
E2E2E2E2E2E2E2E2E2F5F5F5F5F5F5F5F5F5E2E2E2E2E2E2E2E2E2E2E2E2E2E2E2E2F5F5F5F5F5F5F5F5F5E2E2E2E2E2E2E2E2E2E2E2E2E2E2E2E2F5F5F5F5F5F5F5F5F5E2E2E2E2E2E2E2E2F5E2E2E2E2F5E2F5F5F5F5F5F5F5F5F5F5F5F5F5F5F5F5F5F5F5F5F5F5F5F5F5F5F5F5F5F5F5F5F5F5F5F5F5F5F5F5F5F5F5F5
310
F5F5F5F5F5F5F5F5F5F5F5F5F5F5F5F5F5F5F5F5F5F5F5F5F5F5F5F5F5F5F5F5F5F5F5F5F5F5F5F5F5F5F5F5F5F5F5F5F5F5F5F5F5F5F5F5F5F5F5F5F5F5F5F5F5F5F5F5F5F5F5F5F5F5F5F5F5F5F5F5F5F5F5F5F5F5F5F5F5F5F5F5F5F5F5F5F5F5F5F5F5F5F5F5F5F5F5F5F5F5F5F5F5F5F5F5F5F5F5F5F5F5F5F5F5F5F5
310
F5E2F5E2E2E2E2F5E2F5F5F5F5F5F5F5F5F5F5F5F5F5F5F5F5F5F5F5F5F5F5F5F5F5F5F5F5F5F5F5F5F5F5F5F5F5F5F5F5F5F5F5F5F5F5F5F5F5F5F5F5F5F5F5F5F5F5F5F5F5F5F5F5F5F5F5F5F5F5F5F5F5F5F5F5F5F5F5F5F5F5F5F5F5F5F5F5F5F5F5F5F5F5F5F5F5F5F5F5F5F5F5F5F5F5F5F5F5F5F5F5F5F5F5F5F5F5
310
F5F5F5F5F5F5F5F5F5F5F5F5F5F5F5F5F5F5F5F5F5F5F5F5F5F5F5F5F5F5F5F5F5F5F5F5F5F5F5F5F5F5F5F5F5F5F5F5F5F5F5F5F5F5E2F5E2E2E2E2F5E2F5F5F5F5F5F5F5F5F5F5F5F5F5F5F5F5F5F5F5F5F5F5F5F5F5F5F5F5F5F5F5F5F5F5F5F5F5F5F5F5F5F5F5F5F5F5F5F5F5F5F5F5F5F5F5F5F5F5F5F5F5F5F5F5F5
310
F5F5F5F5F5F5F5F5F5F5F5F5F5F5F5F5F5F5F5F5F5F5F5F5F5F5F5F5F5F5F5F5F5F5F5F5F5F5F5F5F5F5F5F5F5F5F5F5F5F5F5F5F5F5F5F5F5F5F5F5F5F5F5F5F5F5F5F5F5F5F5F5F5F5F5F5F5F5F5F5F5F5F5F5F5F5F5F5F5F5F5F5F5F5F5F5F5F5F5F5F5F5F5F5F5F5F5E2F5E2E2E2E2F5E2F5F5F5F5F5F5F5F5F5F5F5F5
310
F5F5F5F5F5F5F5F5F5F5F5F5F5F5F5F5F5F5F5F5F5F5F5F5F5F5F5F5F5F5F5F5F5F5F5F5F5F5F5F5F5F5F5F5F5F5F5F5F5F5F5F5F5F5F5F5F5F5F5F5F5F5F5F5F5F5F5F5F5F5F5F5F5F5F5F5F5F5F5F5F5F5F5F5F5F5F5F5F5F5F5F5F5F5F5F5F5F5F5F5F5F5F5F5F5F5F5F5F5F5F5F5F5F5F5F5F5F5F5F5F5F5F5F5F5F5F5
310
F5F5F5F5F5F5F5F5F5F5F5F5F5F5F5F5F5F5F5F5F5F5F5F5F5F5F5F5F5F5F5F5F5E2F5E2E2E2E2F5E2F5F5F5F5F5F5F5F5F5F5F5F5F5F5F5F5F5F5F5F5F5F5F5F5F5F5F5F5F5F5F5F5F5F5F5F5F5F5F5F5F5F5F5F5F5F5F5F5F5F5F5F5F5F5F5F5F5F5F5F5F5F5F5F5F5F5F5F5F5F5F5F5F5F5F5F5F5F5F5F5F5F5F5F5F5F5
310
F5F5F5F5F5F5F5F5F5F5F5F5F5F5F5F5F5F5F5F5F5F5F5F5F5F5F5F5F5F5F5F5F5F5F5F5F5F5F5F5F5F5F5F5F5F5F5F5F5F5F5F5F5F5F5F5F5F5F5F5F5F5F5F5F5F5F5F5F5F5F5F5F5F5F5F5F5F5F5F5F5F5F5F5F5F5E2F5E2E2E2E2F5E2F5F5F5F5F5F5F5F5F5F5F5F5F5F5F5F5F5F5F5F5F5F5F5F5F5F5F5F5F5F5F5F5F5
310
F5F5F5F5F5F5F5F5F5F5F5F5F5F5F5F5F5F5F5F5F5F5F5F5F5F5F5F5F5F5F5F5F5F5F5F5F5F5F5F5F5F5F5F5F5F5F5F5F5F5F5F5F5F5F5F5F5F5F5F5F5F5F5F5F5F5F5F5F5F5F5F5F5F5F5F5F5F5F5F5F5F5F5F5F5F5F5F5F5F5F5F5F5F5F5F5F5F5F5F5F5F5F5F5F5F5F5F5F5F5F5F5F5F5F5F5F5F5F5F5F5F5F5F5F5F5F5
310
F5F5F5F5F5F5F5F5F5F5F5F5E2F5E2E2E2E2F5E2F5F5F5F5F5F5F5F5F5F5F5F5F5F5F5F5F5F5F5F5F5F5F5F5F5F5F5F5F5F5F5F5F5F5F5F5F5F5F5F5F5F5F5F5F5F5F5F5F5F5F5F5F5F5F5F5F5F5F5F5F5F5F5F5F5F5F5F5F5F5F5F5F5F5F5F5F5F5F5F5F5F5F5F5F5F5F5F5F5F5F5F5F5F5F5F5F5F5F5F5F5F5F5F5F5F5F5
310
F5F5F5F5F5F5F5F5F5F5F5F5F5F5F5F5F5F5F5F5F5F5F5F5F5F5F5F5F5F5F5F5F5F5F5F5F5F5F5F5F5F5F5F5F5F5F5F5F5F5F5F5F5F5F5F5F5F5F5F5F5F5F5F5F5E2F5E2E2E2E2F5E2F5F5F5F5F5F5F5F5F5F5F5F5F5F5F5F5F5F5F5F5F5F5F5F5F5F5F5F5F5F5F5F5F5F5F5F5F5F5F5F5F5F5F5F5F5F5F5F5F5F5F5F5F5F5
310
F5F5F5F5F5F5F5F5F5F5F5F5F5F5F5F5F5F5F5F5F5F5F5F5F5F5F5F5F5F5F5F5F5F5F5F5F5F5F5F5F5F5F5F5F5F5F5F5F5F5F5F5F5F5F5F5F5F5F5F5F5F5F5F5F5F5F5F5F5F5F5F5F5F5F5F5F5F5F5F5F5F5F5F5F5F5F5F5F5F5F5F5F5F5F5F5F5F5F5F5F5F5F5F5F5F5F5F5F5F5F5F5F5F5F5F5F5F5E2F5E2E2E2E2F5F5F5
310
F5F5F5F5F5F5F5F5F5F5F5F5F5F5F5F5F5F5F5F5F5F5F5F5F5F5F5F5F5F5F5F5F5F5F5F5F5F5F5F5F5F5F5F5F5F5F5F5F5F5F5F5F5F5F5F5F5F5F5F5F5F5F5F5F5F5F5F5F5F5F5F5F5F5F5F5F5F5F5F5F5F5F5F5F5F5F5F5F5F5F5F5F5F5F5F5F5F5F5F5F5F5F5F5F5F5F5F5F5F5F5F5F5F5F5F5F5F5F5F5F5F5F5F5F5F5F5
310
F5F5F5F5F5F5F5F5F5F5F5F5F5F5F5F5F5F5F5F5F5F5F5F5F5F5F5F5F5F5F5F5F5F5F5F5F5F5F5F5F5F5F5F5F5F5E2E2E2E2F5F5F5F5F5F5F5F5F5F5F5F5F5F5F5F5F5F5F5F5F5F5F5F5F5F5F5F5F5F5F5F5F5F5F5F5F5F5F5F5F5F5F5F5F5F5F5F5F5F5F5F5F5F5F5F5F5F5F5F5F5F5F5F5F5F5F5F5F5F5F5F5F5F5F5F5F5
310
F5F5F5F5F5F5F5F5F5F5F5F5F5F5F5F5F5F5F5F5F5F5F5F5F5F5F5F5F5F5F5F5F5F5F5F5F5F5F5F5F5F5F5F5F5F5F5F5F5F5F5F5F5F5F5F5F5F5F5F5F5F5F5F5F5F5F5F5F5F5F5F5F5F5F5F5F5F5F5F5F5F5F5F5F5F5F5F5F5F5F5F5F5F5F5F5F5F5F5E2E2E2E2F5F5F5F5F5F5F5F5F5F5F5F5F5F5F5F5F5F5F5F5F5F5F5F5
310
F5F5F5F5F5F5F5F5F5F5F5F5F5F5F5F5F5F5F5F5F5F5F5F5F5F5F5F5F5F5F5F5F5F5F5F5F5F5F5F5F5F5F5F5F5F5F5F5F5F5F5F5F5F5F5F5F5F5F5F5F5F5F5F5F5F5F5F5F5F5F5F5F5F5F5F5F5F5F5F5F5F5F5F5F5F5F5F5F5F5F5F5F5F5F5F5F5F5F5F5F5F5F5F5F5F5F5F5F5F5F5F5F5F5F5F5F5F5F5F5F5F5F5F5F5F5F5
310
F5F5F5F5F5F5F5F5F5F5F5F5F5F5F5F5F5F5F5F5F5F5F5F5F5E2E2E2E2F5F5F5F5F5F5F5F5F5F5F5F5F5F5F5F5F5F5F5F5F5F5F5F5F5F5F5F5F5F5F5F5F5F5F5F5F5F5F5F5F5F5F5F5F5F5F5F5F5F5F5F5F5F5F5F5F5F5F5F5F5F5F5F5F5F5F5F5F5F5F5F5F5F5F5F5F5F5F5F5F5F5F5F5F5F5F5F5F5F5F5F5F5F5F5F5F5F5
310
F5F5F5F5F5F5F5F5F5F5F5F5F5F5F5F5F5F5F5F5F5F5F5F5F5F5F5F5F5F5F5F5F5F5F5F5F5F5F5F5F5F5F5F5F5F5F5F5F5F5F5F5F5F5F5F5F5F5F5F5F5F5F5F5F5F5F5F5F5F5F5F5F5F5F5F5F5F5E2E2E2E2F5F5F5F5F5F5F5F5F5F5F5F5F5F5F5F5F5F5F5F5F5F5F5F5F5F5F5F5F5F5F5F5F5F5F5F5F5F5F5F5F5F5F5F5F5
310
F5F5F5F5F5F5F5F5F5F5F5F5F5F5F5F5F5F5F5F5F5F5F5F5F5F5F5F5F5F5F5F5F5F5F5F5F5F5F5F5F5F5F5F5F5F5F5F5F5F5F5F5F5F5F5F5F5F5F5F5F5F5F5F5F5F5F5F5F5F5F5F5F5F5F5F5F5F5F5F5F5F5F5F5F5F5F5F5F5F5F5F5F5F5F5F5F5F5F5F5F5F5F5F5F5F5F5F5F5F5F5F5F5F5F5F5F5F5F5F5F5F5F5F5F5F5F5
310
F5F5F5F5E2E2E2E2F5F5F5F5F5F5F5F5F5F5F5F5F5F5F5F5F5F5E2E2E2E2E2E2E2E2E2E2E2E2E2E2E2E2E2E2E2E2E2E2E2E2E2E2E2E2E2E2E2E2E2E2E2E2E2E2E2E2E2E2E2E2E2E2E2E2E2E2E2E2E2E2E2E2E2E2E2E2E2E2E2E2E2E2E2E2E2E2E2E2E2E2E2E2E2E2E2E2E2E2E2E2E2E2E2E2E2E2E2E2E2E2E2E2E2E2E2E2E2
310
E2E2E2E2E2E2E2E2E2E2E2E2E2E2E2E2E2E2E2E2E2E2E2E2E2E2E2E2E2E2E2E2E2E2E2E2E2E2E2F5F5F5F5F5F5F5F5F5F5F5F5F5F5F5F5F5F5E2E2E2E2F5F5F5F5F5F5F5F5F5F5F5F5F5F5F5F5F5F5E2F5F5F5F5F5F5F5F5F5F5F5F5F5F5F5F5F5F5F5F5F5F5F5F5F5F5F5F5F5F5F5F5F5F5F5F5F5F5F5F5F5F5F5F5F5F5F5
310
F5F5F5F5F5F5F5F5F5F5F5F5F5F5F5F5F5F5F5F5F5F5F5F5F5F5F5F5F5F5F5F5F5F5F5F5F5F5F5F5F5F5F5F5F5F5F5F5F5F5F5F5F5F5F5F5F5F5F5F5F5F5F5F5F5F5F5F5F5F5F5F5F5F5F5F5F5F5F5F5F5F5F5F5F5F5F5F5F5F5F5E2F5F5F5F5F5F5F5F5F5F5F5F5F5F5F5F5F5F5E2E2E2E2F5F5F5F5F5F5F5F5F5F5F5F5F5
310
F5F5F5F5F5E2F5F5F5F5F5F5F5F5F5F5F5F5F5F5F5F5F5F5F5F5F5F5F5F5F5F5F5F5F5F5F5F5F5F5F5F5F5F5F5F5F5F5F5F5F5F5F5F5F5F5F5F5F5F5F5F5F5F5F5F5F5F5F5F5F5F5F5F5F5F5F5F5F5F5F5F5F5F5F5F5F5F5F5F5F5F5F5F5F5F5F5F5F5F5F5F5F5F5F5F5F5F5F5F5F5F5F5F5F5F5F5F5F5F5F5F5F5F5F5F5F5
310
F5F5F5F5F5F5F5F5F5F5F5F5F5F5F5F5F5E2F5F5F5F5F5F5F5F5F5F5F5F5F5F5F5F5F5F5E2E2E2E2F5F5F5F5F5F5F5F5F5F5F5F5F5F5F5F5F5F5E2F5F5F5F5F5F5F5F5F5F5F5F5F5F5F5F5F5F5F5F5F5F5F5F5F5F5F5F5F5F5F5F5F5F5F5F5F5F5F5F5F5F5F5F5F5F5F5F5F5F5F5F5F5F5F5F5F5F5F5F5F5F5F5F5F5F5F5F5
310
F5F5F5F5F5F5F5F5F5F5F5F5F5F5F5F5F5F5F5F5F5F5F5F5F5F5F5F5F5F5F5F5F5F5F5F5F5F5F5F5F5F5F5F5F5F5F5F5F5F5F5F5F5F5F5F5F5F5F5F5F5F5F5F5F5F5F5F5F5F5E2F5F5F5F5F5F5F5F5F5F5F5F5F5F5F5F5F5F5E2E2E2E2F5F5F5F5F5F5F5F5F5F5F5F5F5F5F5F5F5F5E2F5F5F5F5F5F5F5F5F5F5F5F5F5F5F5
310
F5F5F5F5F5F5F5F5F5F5F5F5F5F5F5F5F5F5F5F5F5F5F5F5F5F5F5F5F5F5F5F5F5F5F5F5F5F5F5F5F5F5F5F5F5F5F5F5F5F5F5F5F5F5F5F5F5F5F5F5F5F5F5F5F5F5F5F5F5F5F5F5F5F5F5F5F5F5F5F5F5F5F5F5F5F5F5F5F5F5F5F5F5F5F5F5F5F5F5F5F5F5F5F5F5F5F5F5F5F5F5F5F5F5F5F5F5F5F5F5F5F5F5E2F5F5F5
310
F5F5F5F5F5F5F5F5F5F5F5F5F5F5F5E2E2E2E2F5E2F5F5F5F5F5F5F5F5F5F5F5F5F5F5F5F5E2F5F5F5F5F5F5F5F5F5F5F5F5F5F5F5F5F5F5F5F5F5F5F5F5F5F5F5F5F5F5F5F5F5F5F5F5F5F5F5F5F5F5F5F5F5F5F5F5F5F5F5F5F5F5F5F5F5F5F5F5F5F5F5F5F5F5F5F5F5F5F5F5F5F5F5F5F5F5F5F5F5F5F5F5F5F5F5F5F5
310
F5F5F5F5F5F5F5F5F5F5F5F5F5F5F5F5F5F5F5F5F5F5F5F5F5F5F5F5F5F5F5F5F5F5F5F5F5F5F5F5F5F5F5F5F5F5F5F5F5E2F5F5F5F5F5F5F5F5F5F5F5F5F5F5F5F5E2F5E2E2E2E2F5E2F5F5F5F5F5F5F5F5F5F5F5F5F5F5F5F5E2F5F5F5F5F5F5F5F5F5F5F5F5F5F5F5F5F5F5F5F5F5F5F5F5F5F5F5F5F5F5F5F5F5F5F5F5
310
F5F5F5F5F5F5F5F5F5F5F5F5F5F5F5F5F5F5F5F5F5F5F5F5F5F5F5F5F5F5F5F5F5F5F5F5F5F5F5F5F5F5F5F5F5F5F5F5F5F5F5F5F5F5F5F5F5F5F5F5F5F5F5F5F5F5F5F5F5F5F5F5F5F5F5F5F5F5F5F5F5F5F5F5F5F5F5F5F5F5F5F5F5F5F5F5F5F5F5F5F5F5E2F5F5F5F5F5F5F5F5F5F5F5F5F5F5F5F5E2F5E2E2E2E2F5E2
310
F5F5F5F5F5F5F5F5F5F5F5F5F5F5F5F5E2F5F5F5F5F5F5F5F5F5F5F5F5F5F5F5F5F5F5F5F5F5F5F5F5F5F5F5F5F5F5F5F5F5F5F5F5F5F5F5F5F5F5F5F5F5F5F5F5F5F5F5F5F5F5F5F5F5F5F5F5F5F5F5F5F5F5F5F5F5F5F5F5F5F5F5F5F5F5F5F5F5F5F5F5F5F5F5F5F5F5F5F5F5F5F5F5F5F5F5F5F5F5F5F5F5F5F5F5F5F5
310
F5F5F5F5F5F5F5F5F5F5F5F5F5F5F5F5F5F5F5F5F5F5F5F5F5F5F5F5E2F5F5F5F5F5F5F5F5F5F5F5F5F5F5F5F5E2F5E2E2E2E2F5E2F5F5F5F5F5F5F5F5F5F5F5F5F5F5F5F5E2F5F5F5F5F5F5F5F5F5F5F5F5F5F5F5F5F5F5F5F5F5F5F5F5F5F5F5F5F5F5F5F5F5F5F5F5F5F5F5F5F5F5F5F5F5F5F5F5F5F5F5F5F5F5F5F5F5
310
F5F5F5F5F5F5F5F5F5F5F5F5F5F5F5F5F5F5F5F5F5F5F5F5F5F5F5F5F5F5F5F5F5F5F5F5F5F5F5F5F5F5F5F5F5F5F5F5F5F5F5F5F5F5F5F5F5F5F5F5F5F5F5F5F5F5F5F5F5F5F5F5F5F5F5F5F5F5F5F5F5E2F5F5F5F5F5F5F5F5F5F5F5F5F5F5F5F5E2F5E2E2E2E2F5E2F5F5F5F5F5F5F5F5F5F5F5F5F5F5F5F5E2F5F5F5F5
310
F5F5F5F5F5F5F5F5F5F5F5F5F5F5F5F5F5F5F5F5F5F5F5F5F5F5F5F5F5F5F5F5F5F5F5F5F5F5F5F5F5F5F5F5F5F5F5F5F5F5F5F5F5F5F5F5F5F5F5F5F5F5F5F5F5F5F5F5F5F5F5F5F5F5F5F5F5F5F5F5F5F5F5F5F5F5F5F5F5F5F5F5F5F5F5F5F5F5F5F5F5F5F5F5F5F5F5F5F5F5F5F5F5F5F5F5F5F5F5F5F5F5F5F5F5F5F5
310
F5F5F5F5F5F5F5E2F5F5F5F5F5F5F5F5F5F5F5F5F5F5F5F5E2F5E2E2E2E2F5E2F5F5F5F5F5F5F5F5F5F5F5F5F5F5F5F5E2F5F5F5F5F5F5F5F5F5F5F5F5F5F5F5F5F5F5F5F5F5F5F5F5F5F5F5F5F5F5F5F5F5F5F5F5F5F5F5F5F5F5F5F5F5F5F5F5F5F5F5F5F5F5F5F5F5F5F5F5F5F5F5F5F5F5F5F5F5F5F5F5F5F5F5F5F5F5
310
F5F5F5F5F5F5F5F5F5F5F5F5F5F5F5F5F5F5F5F5F5F5F5F5F5F5F5F5F5F5F5F5F5F5F5F5F5F5F5F5F5F5F5F5F5F5F5F5F5F5F5F5F5F5F5F5F5F5F5F5E2F5F5F5F5F5F5F5F5F5F5F5F5F5F5F5F5E2F5E2E2E2E2F5E2F5F5F5F5F5F5F5F5F5F5F5F5F5F5F5F5E2F5F5F5F5F5F5F5F5F5F5F5F5F5F5F5F5F5F5F5F5F5F5F5F5F5
310
F5F5F5F5F5F5F5F5F5F5F5F5F5F5F5F5F5F5F5F5F5F5F5F5F5F5F5F5F5F5F5F5F5F5F5F5F5F5F5F5F5F5F5F5F5F5F5F5F5F5F5F5F5F5F5F5F5F5F5F5F5F5F5F5F5F5F5F5F5F5F5F5F5F5F5F5F5F5F5F5F5F5F5F5F5F5F5F5F5F5F5F5F5F5F5F5F5F5F5F5F5F5F5F5F5F5F5F5F5F5F5F5F5E2F5F5F5F5F5F5F5F5F5F5F5F5F5
310
F5F5F5E2F5E2E2E2E2F5E2F5F5F5F5F5F5F5F5F5F5F5F5F5F5F5F5E2F5F5F5F5F5F5F5F5F5F5F5F5F5F5F5F5F5F5F5F5F5F5F5F5F5F5F5F5F5F5F5F5F5F5F5F5F5F5F5F5F5F5F5F5F5F5F5F5F5F5F5F5F5F5F5F5F5F5F5F5F5F5F5F5F5F5F5F5F5F5F5F5F5F5F5F5F5F5F5F5F5F5F5F5F5F5F5F5F5F5F5F5F5F5F5F5F5F5F5
310
F5F5F5F5F5F5F5F5F5F5F5F5F5F5F5F5F5F5F5F5F5F5F5F5F5F5F5F5F5F5F5F5F5F5F5F5F5F5F5E2F5F5F5F5F5F5F5F5F5F5F5F5F5F5F5F5E2F5E2E2E2E2F5E2F5F5F5F5F5F5F5F5F5F5F5F5F5F5F5F5E2F5F5F5F5F5F5F5F5F5F5F5F5F5F5F5F5F5F5F5F5F5F5F5F5F5F5F5F5F5F5F5F5F5F5F5F5F5F5F5F5F5F5F5F5F5F5
310
F5F5F5F5F5F5F5F5F5F5F5F5F5F5F5F5F5F5F5F5F5F5F5F5F5F5F5F5F5F5F5F5F5F5F5F5F5F5F5F5F5F5F5F5F5F5F5F5F5F5F5F5F5F5F5F5F5F5F5F5F5F5F5F5F5F5F5F5F5F5F5F5F5F5F5F5F5F5F5F5F5F5F5F5F5F5F5F5F5F5F5F5E2F5F5F5F5F5F5F5F5F5F5F5F5F5F5F5F5E2F5E2E2E2E2F5E2F5F5F5F5F5F5F5F5F5F5
310
F5F5F5F5F5F5E2F5F5F5F5F5F5F5F5F5F5F5F5F5F5F5F5F5F5F5F5F5F5F5F5F5F5F5F5F5F5F5F5F5F5F5F5F5F5F5F5F5F5F5F5F5F5F5F5F5F5F5F5F5F5F5F5F5F5F5F5F5F5F5F5F5F5F5F5F5F5F5F5F5F5F5F5F5F5F5F5F5F5F5F5F5F5F5F5F5F5F5F5F5F5F5F5F5F5F5F5F5F5F5F5F5F5F5F5F5F5F5F5F5F5F5F5F5F5F5F5
310
F5F5F5F5F5F5F5F5F5F5F5F5F5F5F5F5F5F5E2F5F5F5F5F5F5F5F5F5F5F5F5F5F5F5F5E2F5E2E2E2E2F5E2F5F5F5F5F5F5F5F5F5F5F5F5F5F5F5F5E2F5F5F5F5F5F5F5F5F5F5F5F5F5F5F5F5F5F5F5F5F5F5F5F5F5F5F5F5F5F5F5F5F5F5F5F5F5F5F5F5F5F5F5F5F5F5F5F5F5F5F5F5F5F5F5F5F5F5F5F5F5F5F5F5F5F5F5
310
F5F5F5F5F5F5F5F5F5F5F5F5F5F5F5F5F5F5F5F5F5F5F5F5F5F5F5F5F5F5F5F5F5F5F5F5F5F5F5F5F5F5F5F5F5F5F5F5F5F5F5F5F5F5F5F5F5F5F5F5F5F5F5F5F5F5F5F5F5F5F5E2F5F5F5F5F5F5F5F5F5F5F5F5F5F5F5F5E2F5E2E2E2E2F5E2F5F5F5F5F5F5F5F5F5F5F5F5F5F5F5F5E2F5F5F5F5F5F5F5F5F5F5F5F5F5F5
310
F5F5F5F5F5F5F5F5F5F5F5F5F5F5F5F5F5F5F5F5F5F5F5F5F5F5F5F5F5F5F5F5F5F5F5F5F5F5F5F5F5F5F5F5F5F5F5F5F5F5F5F5F5F5F5F5F5F5F5F5F5F5F5F5F5F5F5F5F5F5F5F5F5F5F5F5F5F5F5F5F5F5F5F5F5F5F5F5F5F5F5F5F5F5F5F5F5F5F5F5F5F5F5F5F5F5F5F5F5F5F5F5F5F5F5F5F5F5F5F5F5F5F5F5E2F5F5
310
F5F5F5F5F5F5F5F5F5F5F5F5F5F5E2F5E2E2E2E2F5E2F5F5F5F5F5F5F5F5F5F5F5F5F5F5F5F5E2F5F5F5F5F5F5F5F5F5F5F5F5F5F5F5F5F5F5F5F5F5F5F5F5F5F5F5F5F5F5F5F5F5F5F5F5F5F5F5F5F5F5F5F5F5F5F5F5F5F5F5F5F5F5F5F5F5F5F5F5F5F5F5F5F5F5F5F5F5F5F5F5F5F5F5F5F5F5F5F5F5F5F5F5F5F5F5F5
310
F5F5F5F5F5F5F5F5F5F5F5F5F5F5F5F5F5F5F5F5F5F5F5F5F5F5F5F5F5F5F5F5F5F5F5F5F5F5F5F5F5F5F5F5F5F5F5F5F5F5E2F5F5F5F5F5F5F5F5F5F5F5F5F5F5F5F5E2F5E2E2E2E2F5E2F5F5F5F5F5F5F5F5F5F5F5F5F5F5F5F5E2F5F5F5F5F5F5F5F5F5F5F5F5F5F5F5F5F5F5F5F5F5F5F5F5F5F5F5F5F5F5F5F5F5F5F5
310
F5F5F5F5F5F5F5F5F5F5F5F5F5F5F5F5F5F5F5F5F5F5F5F5F5F5F5F5F5F5F5F5F5F5F5F5F5F5F5F5F5F5F5F5F5F5F5F5F5F5F5F5F5F5F5F5F5F5F5F5F5F5F5F5F5F5F5F5F5F5F5F5F5F5F5F5F5F5F5F5F5F5F5F5F5F5F5F5F5F5F5F5F5F5F5F5F5F5F5F5F5F5F5E2F5F5F5F5F5F5F5F5F5F5F5F5F5F5F5F5E2F5E2E2E2E2F5
310
E2F5F5F5F5F5F5F5F5F5F5F5F5F5F5F5F5E2F5F5F5F5F5F5F5F5F5F5F5F5F5F5F5F5F5F5F5F5F5F5F5F5F5F5F5F5F5F5F5F5F5F5F5F5F5F5F5F5F5F5F5F5F5F5F5F5F5F5F5F5F5F5F5F5F5F5F5F5F5F5F5F5F5F5F5F5F5F5F5F5F5F5F5F5F5F5F5F5F5F5F5F5F5F5F5F5F5F5F5F5F5F5F5F5F5F5F5F5F5F5F5F5F5F5F5F5F5
310
F5F5F5F5F5F5F5F5F5F5F5F5F5F5F5F5F5F5F5F5F5F5F5F5F5F5F5F5F5E2F5F5F5F5F5F5F5F5F5F5F5F5F5F5F5F5E2F5E2E2E2E2F5E2F5F5F5F5F5F5F5F5F5F5F5F5F5F5F5F5E2F5F5F5F5F5F5F5F5F5F5F5F5F5F5F5F5F5F5F5F5F5F5F5F5F5F5F5F5F5F5F5F5F5F5F5F5F5F5F5F5F5F5F5F5F5F5F5F5F5F5F5F5F5F5F5F5
310
F5F5F5F5F5F5F5F5F5F5F5F5F5F5F5F5F5F5F5F5F5F5F5F5F5F5F5F5F5F5F5F5F5F5F5F5F5F5F5F5F5F5F5F5F5F5F5F5F5F5F5F5F5F5F5F5F5F5F5F5F5F5F5F5F5F5F5F5F5F5F5F5F5F5F5F5F5F5F5F5F5F5E2F5F5F5F5F5F5F5F5F5F5F5F5F5F5F5F5E2F5E2E2E2E2F5E2F5F5F5F5F5F5F5F5F5F5F5F5F5F5F5F5E2F5F5F5
310
F5F5F5F5F5F5F5F5F5F5F5F5F5F5F5F5F5F5F5F5F5F5F5F5F5F5F5F5F5F5F5F5F5F5F5F5F5F5F5F5F5F5F5F5F5F5F5F5F5F5F5F5F5F5F5F5F5F5F5F5F5F5F5F5F5F5F5F5F5F5F5F5F5F5F5F5F5F5F5F5F5F5F5F5F5F5F5F5F5F5F5F5F5F5F5F5F5F5F5F5F5F5F5F5F5F5F5F5F5F5F5F5F5F5F5F5F5F5F5F5F5F5F5F5F5F5F5
310
F5F5F5F5F5F5F5F5E2F5F5F5F5F5F5F5F5F5F5F5F5F5F5F5F5E2F5E2E2E2E2F5F5F5F5F5F5F5F5F5F5F5F5F5F5F5F5F5F5E2F5F5F5F5F5F5F5F5F5F5F5F5F5F5F5F5F5F5F5F5F5F5F5F5F5F5F5F5F5F5F5F5F5F5F5F5F5F5F5F5F5F5F5F5F5F5F5F5F5F5F5F5F5F5F5F5F5F5F5F5F5F5F5F5F5F5F5F5F5F5F5F5F5F5F5F5F5
310
F5F5F5F5F5F5F5F5F5F5F5F5F5F5F5F5F5F5F5F5F5F5F5F5F5F5F5F5F5F5F5F5F5F5F5F5F5F5F5F5F5F5F5F5F5F5F5F5F5F5F5F5F5F5F5F5F5F5F5F5F5E2F5F5F5F5F5F5F5F5F5F5F5F5F5F5F5F5F5F5E2E2E2E2F5F5F5F5F5F5F5F5F5F5F5F5F5F5F5F5F5F5E2F5F5F5F5F5F5F5F5F5F5F5F5F5F5F5F5F5F5F5F5F5F5F5F5
310
F5F5F5F5F5F5F5F5F5F5F5F5F5F5F5F5F5F5F5F5F5F5F5F5F5F5F5F5F5F5F5F5F5F5F5F5F5F5F5F5F5F5F5F5F5F5F5F5F5F5F5F5F5F5F5F5F5F5F5F5F5F5F5F5F5F5F5F5F5F5F5F5F5F5F5F5F5F5F5F5F5F5F5F5F5F5F5F5F5F5F5F5F5F5F5F5F5F5F5F5F5F5F5F5F5F5F5F5F5F5F5F5F5F5E2F5F5F5F5F5F5F5F5F5F5F5F5
310
F5F5F5F5F5F5E2E2E2E2F5F5F5F5F5F5F5F5F5F5F5F5F5F5F5F5F5F5E2F5F5F5F5F5F5F5F5F5F5F5F5F5F5F5F5F5F5F5F5F5F5F5F5F5F5F5F5F5F5F5F5F5F5F5F5F5F5F5F5F5F5F5F5F5F5F5F5F5F5F5F5F5F5F5F5F5F5F5F5F5F5F5F5F5F5F5F5F5F5F5F5F5F5F5F5F5F5F5F5F5F5F5F5F5F5F5F5F5F5F5F5F5F5F5F5F5F5
310
F5F5F5F5F5F5F5F5F5F5F5F5F5F5F5F5F5F5F5F5F5F5F5F5F5F5F5F5F5F5F5F5F5F5F5F5F5F5F5F5E2F5F5F5F5F5F5F5F5F5F5F5F5F5F5F5F5F5F5E2E2E2E2F5F5F5F5F5F5F5F5F5F5F5F5F5F5F5F5F5F5E2F5F5F5F5F5F5F5F5F5F5F5F5F5F5F5F5F5F5F5F5F5F5F5F5F5F5F5F5F5F5F5F5F5F5F5F5F5F5F5F5F5F5F5F5F5
310
F5F5F5F5F5F5F5F5F5F5F5F5F5F5F5F5F5F5F5F5F5F5F5F5F5F5F5F5F5F5F5F5F5F5F5F5F5F5F5F5F5F5F5F5F5F5F5F5F5F5F5F5F5F5F5F5F5F5F5F5F5F5F5F5F5F5F5F5F5F5F5F5F5F5F5F5F5F5F5F5F5F5F5F5F5F5F5F5F5F5F5F5F5E2F5F5F5F5F5F5F5F5F5F5F5F5F5F5F5F5F5F5E2E2E2E2F5F5F5F5F5F5F5F5F5F5F5
310
F5F5F5F5F5F5F5E2F5F5F5F5F5F5F5F5F5F5F5F5F5F5F5F5F5F5F5F5F5F5F5F5F5F5F5F5F5F5F5F5F5F5F5F5F5F5F5F5F5F5F5F5F5F5F5F5F5F5F5F5F5F5F5F5F5F5F5F5F5F5F5F5F5F5F5F5F5F5F5F5F5F5F5F5F5F5F5F5F5F5F5F5F5F5F5F5F5F5F5F5F5F5F5F5F5F5F5F5F5F5F5F5F5F5F5F5F5F5F5F5F5F5F5F5F5F5F5
310
F5F5F5F5F5F5F5F5F5F5F5F5F5F5F5F5F5F5F5E2F5F5F5F5F5F5F5F5F5F5F5F5F5F5F5F5F5F5E2E2E2E2F5F5F5F5F5F5F5F5F5F5F5F5F5F5F5F5F5F5E2F5F5F5F5F5F5F5F5F5F5F5F5F5F5F5F5F5F5F5F5F5F5F5F5F5F5F5F5F5F5F5F5F5F5F5F5F5F5F5F5F5F5F5F5F5F5F5F5F5F5F5F5F5F5F5F5F5F5F5F5F5F5F5F5F5F5
310
F5F5F5F5F5F5F5F5F5F5F5F5F5F5F5F5F5F5F5F5F5F5F5F5F5F5F5F5F5F5F5F5F5F5F5F5F5F5F5F5F5F5F5F5F5F5F5F5F5F5F5F5F5F5F5F5F5F5F5F5F5F5F5F5F5F5F5F5F5F5F5F5E2F5F5F5F5F5F5F5F5F5F5F5F5F5F5F5F5F5F5E2E2E2E2F5F5F5F5F5F5F5F5F5F5F5F5F5F5F5F5F5F5E2F5F5F5F5F5F5F5F5F5F5F5F5F5
310
F5F5F5F5F5F5F5F5F5F5F5F5F5F5F5F5F5F5F5F5F5F5F5F5F5F5F5F5F5F5F5F5F5F5F5F5F5F5F5F5F5F5F5F5F5F5F5F5F5F5F5F5F5F5F5F5F5F5F5F5F5F5F5F5F5F5F5F5F5F5F5F5F5F5F5F5F5F5F5F5F5F5F5F5F5F5F5F5F5F5F5F5F5F5F5F5F5F5F5F5F5F5F5F5F5F5F5F5F5F5F5F5F5F5F5F5F5F5F5F5F5F5F5F5F5E2F5
310
F5F5F5F5F5F5F5F5F5F5F5F5F5F5F5F5F5E2E2E2E2F5F5F5F5F5F5F5F5F5F5F5F5F5F5F5F5F5F5E2F5F5F5F5F5F5F5F5F5F5F5F5F5F5F5F5F5F5F5F5F5F5F5F5F5F5F5F5F5F5F5F5F5F5F5F5F5F5F5F5F5F5F5F5F5F5F5F5F5F5F5F5F5F5F5F5F5F5F5F5F5F5F5F5F5F5F5F5F5F5F5F5F5F5F5F5F5F5F5F5F5F5F5F5F5F5F5
310
F5F5F5F5F5F5F5F5F5F5F5F5F5F5F5F5F5F5F5F5F5F5F5F5F5F5F5F5F5F5F5F5F5F5F5F5F5F5F5F5F5F5F5F5F5F5F5F5F5F5F5E2F5F5F5F5F5F5F5F5F5F5F5F5F5F5F5F5F5F5E2E2E2E2F5F5F5F5F5F5F5F5F5F5F5F5F5F5F5F5F5F5E2F5F5F5F5F5F5F5F5F5F5F5F5F5F5F5F5F5F5F5F5F5F5F5F5F5F5F5F5F5F5F5F5F5F5
310
F5F5F5F5F5F5F5F5F5F5F5F5F5F5F5F5F5F5F5F5F5F5F5F5F5F5F5F5F5F5F5F5F5F5F5F5F5F5F5F5F5F5F5F5F5F5F5F5F5F5F5F5F5F5F5F5F5F5F5F5F5F5F5F5F5F5F5F5F5F5F5F5F5F5F5F5F5F5F5F5F5F5F5F5F5F5F5F5F5F5F5F5F5F5F5F5F5F5F5F5F5F5F5F5E2F5F5F5F5F5F5F5F5F5F5F5F5F5F5F5F5F5F5E2E2E2E2
310
F5F5F5F5F5F5F5F5F5F5F5F5F5F5F5F5F5F5E2F5F5F5F5F5F5F5F5F5F5F5F5F5F5F5F5F5F5F5F5F5F5F5F5F5F5F5F5F5F5F5F5F5F5F5F5F5F5F5F5F5F5F5F5F5F5F5F5F5F5F5F5F5F5F5F5F5F5F5F5F5F5F5F5F5F5F5F5F5F5F5F5F5F5F5F5F5F5F5F5F5F5F5F5F5F5F5F5F5F5F5F5F5F5F5F5F5F5F5F5F5F5F5F5F5F5F5F5
310
F5F5F5F5F5F5F5F5F5F5F5F5F5F5F5F5F5F5F5F5F5F5F5F5F5F5F5F5F5F5E2F5F5F5F5F5F5F5F5F5F5F5F5F5F5F5F5F5F5E2E2E2E2F5E2F5F5F5F5F5F5F5F5F5F5F5F5F5F5F5F5E2F5F5F5F5F5F5F5F5F5F5F5F5F5F5F5F5F5F5F5F5F5F5F5F5F5F5F5F5F5F5F5F5F5F5F5F5F5F5F5F5F5F5F5F5F5F5F5F5F5F5F5F5F5F5F5
310
F5F5F5F5F5F5F5F5F5F5F5F5F5F5F5F5F5F5F5F5F5F5F5F5F5F5F5F5F5F5F5F5F5F5F5F5F5F5F5F5F5F5F5F5F5F5F5F5F5F5F5F5F5F5F5F5F5F5F5F5F5F5F5F5F5F5F5F5F5F5F5F5F5F5F5F5F5F5F5F5F5F5F5E2F5F5F5F5F5F5F5F5F5F5F5F5F5F5F5F5E2F5E2E2E2E2F5E2F5F5F5F5F5F5F5F5F5F5F5F5F5F5F5F5E2F5F5
310
F5F5F5F5F5F5F5F5F5F5F5F5F5F5F5F5F5F5F5F5F5F5F5F5F5F5F5F5F5F5F5F5F5F5F5F5F5F5F5F5F5F5F5F5F5F5F5F5F5F5F5F5F5F5F5F5F5F5F5F5F5F5F5F5F5F5F5F5F5F5F5F5F5F5F5F5F5F5F5F5F5F5F5F5F5F5F5F5F5F5F5F5F5F5F5F5F5F5F5F5F5F5F5F5F5F5F5F5F5F5F5F5F5F5F5F5F5F5F5F5F5F5F5F5F5F5F5
310
F5F5F5F5F5F5F5F5F5E2F5F5F5F5F5F5F5F5F5F5F5F5F5F5F5F5E2F5E2E2E2E2F5E2F5F5F5F5F5F5F5F5F5F5F5F5F5F5F5F5E2F5F5F5F5F5F5F5F5F5F5F5F5F5F5F5F5F5F5F5F5F5F5F5F5F5F5F5F5F5F5F5F5F5F5F5F5F5F5F5F5F5F5F5F5F5F5F5F5F5F5F5F5F5F5F5F5F5F5F5F5F5F5F5F5F5F5F5F5F5F5F5F5F5F5F5F5
310
F5F5F5F5F5F5F5F5F5F5F5F5F5F5F5F5F5F5F5F5F5F5F5F5F5F5F5F5F5F5F5F5F5F5F5F5F5F5F5F5F5F5F5F5F5F5F5F5F5F5F5F5F5F5F5F5F5F5F5F5F5F5E2F5F5F5F5F5F5F5F5F5F5F5F5F5F5F5F5E2F5E2E2E2E2F5E2F5F5F5F5F5F5F5F5F5F5F5F5F5F5F5F5E2F5F5F5F5F5F5F5F5F5F5F5F5F5F5F5F5F5F5F5F5F5F5F5
310
F5F5F5F5F5F5F5F5F5F5F5F5F5F5F5F5F5F5F5F5F5F5F5F5F5F5F5F5F5F5F5F5F5F5F5F5F5F5F5F5F5F5F5F5F5F5F5F5F5F5F5F5F5F5F5F5F5F5F5F5F5F5F5F5F5F5F5F5F5F5F5F5F5F5F5F5F5F5F5F5F5F5F5F5F5F5F5F5F5F5F5F5F5F5F5F5F5F5F5F5F5F5F5F5F5F5F5F5F5F5F5F5F5F5F5E2F5F5F5F5F5F5F5F5F5F5F5
310
F5F5F5F5F5E2F5E2E2E2E2F5E2F5F5F5F5F5F5F5F5F5F5F5F5F5F5F5F5E2F5F5F5F5F5F5F5F5F5F5F5F5F5F5F5F5F5F5F5F5F5F5F5F5F5F5F5F5F5F5F5F5F5F5F5F5F5F5F5F5F5F5F5F5F5F5F5F5F5F5F5F5F5F5F5F5F5F5F5F5F5F5F5F5F5F5F5F5F5F5F5F5F5F5F5F5F5F5F5F5F5F5F5F5F5F5F5F5F5F5F5F5F5F5F5F5F5
310
F5F5F5F5F5F5F5F5F5F5F5F5F5F5F5F5F5F5F5F5F5F5F5F5F5F5F5F5F5F5F5F5F5F5F5F5F5F5F5F5F5E2F5F5F5F5F5F5F5F5F5F5F5F5F5F5F5F5E2F5E2E2E2E2F5E2F5F5F5F5F5F5F5F5F5F5F5F5F5F5F5F5E2F5F5F5F5F5F5F5F5F5F5F5F5F5F5F5F5F5F5F5F5F5F5F5F5F5F5F5F5F5F5F5F5F5F5F5F5F5F5F5F5F5F5F5F5
310
F5F5F5F5F5F5F5F5F5F5F5F5F5F5F5F5F5F5F5F5F5F5F5F5F5F5F5F5F5F5F5F5F5F5F5F5F5F5F5F5F5F5F5F5F5F5F5F5F5F5F5F5F5F5F5F5F5F5F5F5F5F5F5F5F5F5F5F5F5F5F5F5F5F5F5F5F5F5F5F5F5F5F5F5F5F5F5F5F5F5F5F5F5F5E2F5F5F5F5F5F5F5F5F5F5F5F5F5F5F5F5E2F5E2E2E2E2F5E2F5F5F5F5F5F5F5F5
310
F5F5F5F5F5F5F5F5E2F5F5F5F5F5F5F5F5F5F5F5F5F5F5F5F5F5F5F5F5F5F5F5F5F5F5F5F5F5F5F5F5F5F5F5F5F5F5F5F5F5F5F5F5F5F5F5F5F5F5F5F5F5F5F5F5F5F5F5F5F5F5F5F5F5F5F5F5F5F5F5F5F5F5F5F5F5F5F5F5F5F5F5F5F5F5F5F5F5F5F5F5F5F5F5F5F5F5F5F5F5F5F5F5F5F5F5F5F5F5F5F5F5F5F5F5F5F5
310
F5F5F5F5F5F5F5F5F5F5F5F5F5F5F5F5F5F5F5F5E2F5F5F5F5F5F5F5F5F5F5F5F5F5F5F5F5E2F5E2E2E2E2F5E2F5F5F5F5F5F5F5F5F5F5F5F5F5F5F5F5E2F5F5F5F5F5F5F5F5F5F5F5F5F5F5F5F5F5F5F5F5F5F5F5F5F5F5F5F5F5F5F5F5F5F5F5F5F5F5F5F5F5F5F5F5F5F5F5F5F5F5F5F5F5F5F5F5F5F5F5F5F5F5F5F5F5
310
F5F5F5F5F5F5F5F5F5F5F5F5F5F5F5F5F5F5F5F5F5F5F5F5F5F5F5F5F5F5F5F5F5F5F5F5F5F5F5F5F5F5F5F5F5F5F5F5F5F5F5F5F5F5F5F5F5F5F5F5F5F5F5F5F5F5F5F5F5F5F5F5F5E2F5F5F5F5F5F5F5F5F5F5F5F5F5F5F5F5E2F5E2E2E2E2F5E2F5F5F5F5F5F5F5F5F5F5F5F5F5F5F5F5E2F5F5F5F5F5F5F5F5F5F5F5F5
310
F5F5F5F5F5F5F5F5F5F5F5F5F5F5F5F5F5F5F5F5F5F5F5F5F5F5F5F5F5F5F5F5F5F5F5F5F5F5F5F5F5F5F5F5F5F5F5F5F5F5E2E2E2F5F5F5F5F5F5F5F5F5F5F5F5F5F5F5F5F5F5F5F5F5F5F5F5F5F5F5F5F5F5F5F5F5F5F5F5F5F5F5F5F5F5F5F5F5F5F5F5F5F5F5F5F5F5F5F5F5F5F5F5F5F5F5F5F5F5F5F5F5F5F5F5F5E2
310
F5F5F5F5F5F5F5F5F5F5F5F5F5F5F5F5E2F5E2E2E2E2F5E2F5F5F5F5F5F5F5F5F5F5F5F5F5F5F5F5E2F5F5F5F5F5F5F5F5F5F5F5F5F5F5F5F5F5F5F5F5F5F5F5F5F5F5F5F5F5F5F5F5F5F5F5F5F5F5F5F5F5F5F5F5F5F5F5F5F5F5F5F5F5F5F5F5F5F5F5F5F5E2E2E2E2E2E2F5F5F5F5F5F5F5F5F5F5F5F5F5F5F5F5F5F5F5
310
F5F5F5F5F5F5F5F5F5F5F5F5F5F5F5F5F5F5F5F5F5F5F5F5F5F5F5F5F5F5F5F5F5F5F5F5F5F5F5F5F5F5F5F5F5F5F5F5F5F5F5F5E2F5F5F5F5F5F5F5F5F5F5F5F5F5F5F5F5E2F5E2E2E2E2F5E2F5F5F5F5F5F5F5F5F5F5F5F5F5F5F5F5E2F5F5F5F5F5F5F5F5F5F5F5F5F5F5F5F5F5F5F5F5F5F5F5F5F5F5F5F5F5F5F5F5F5
310
F5F5F5F5F5F5F5F5F5F5F5F5F5F5F5F5F5F5F5F5F5F5F5F5F5F5F5E2E2E2E2E2E2E2E2F5F5F5F5F5F5F5F5F5F5F5F5F5F5F5F5F5F5F5F5F5F5F5F5F5F5F5F5F5F5F5F5F5F5F5F5F5F5F5F5F5F5F5F5F5F5F5F5F5F5F5F5F5F5F5F5F5F5F5F5F5F5F5F5F5F5F5F5F5F5E2F5F5F5F5F5F5F5F5F5F5F5F5F5F5F5F5E2F5E2E2E2
310
E2F5E2F5F5F5F5F5F5F5F5F5F5F5F5F5F5F5F5E2F5F5F5F5F5F5F5F5F5F5F5F5F5F5F5F5F5F5F5F5F5F5F5F5F5F5F5F5F5F5F5F5F5F5F5F5F5F5F5F5F5F5F5F5F5F5F5F5F5F5F5F5F5F5F5F5E2E2E2E2E2E2E2E2E2E2E2E2E2E2E2E2F5F5F5F5F5F5F5F5F5F5F5F5F5F5F5F5F5F5F5F5F5F5F5F5F5F5F5F5F5F5F5F5F5F5F5
310
F5F5F5F5F5F5F5F5F5F5F5F5F5F5F5F5F5F5F5F5F5F5F5F5F5F5F5F5F5F5F5E2F5F5F5F5F5F5F5F5F5F5F5F5F5F5F5F5E2F5E2E2E2E2F5E2F5F5F5F5F5F5F5F5F5F5F5F5F5F5F5F5E2F5F5F5F5F5F5F5F5F5F5F5F5F5F5F5F5F5F5F5F5F5F5F5F5F5F5F5F5F5F5F5F5F5F5F5F5F5F5F5F5F5F5F5F5F5F5F5F5F5F5F5F5F5F5
310
E2E2E2F5F5F5F5F5F5F5F5F5F5F5F5F5F5E2E2E2F5F5F5F5F5F5F5F5F5F5F5F5F5F5F5F5F5F5F5F5F5F5F5F5F5F5F5F5F5F5F5F5F5F5F5F5F5F5F5F5F5F5F5F5F5F5F5F5F5F5F5F5F5F5F5F5F5F5F5F5F5F5F5F5E2F5F5F5F5F5F5F5F5F5F5F5F5F5F5F5F5E2F5E2E2E2E2F5E2F5F5F5F5F5F5F5F5F5F5F5F5F5F5F5F5E2F5
310
F5F5F5F5F5F5F5F5F5F5F5F5F5F5F5F5F5F5F5F5F5F5F5F5F5F5F5F5F5F5F5F5F5F5F5F5F5F5F5F5F5F5F5F5E2E2E2E2E2E2E2E2E2E2E2E2E2E2E2E2E2E2E2E2E2E2E2E2E2E2E2E2E2E2E2E2E2E2E2E2E2E2F5F5F5F5F5F5F5F5F5F5F5F5F5F5F5F5F5F5F5F5F5F5F5F5F5F5F5F5F5F5F5F5F5F5F5F5F5F5F5F5F5F5F5F5F5
310
F5F5F5F5F5F5F5F5F5F5E2F5F5F5F5F5F5F5F5F5F5F5F5F5F5F5F5E2F5E2E2E2E2F5E2F5F5F5F5F5F5F5F5F5F5F5F5F5F5F5F5E2F5F5F5F5F5F5F5F5F5F5F5F5F5F5F5F5F5F5F5F5F5F5F5F5F5F5F5F5F5F5F5F5F5F5F5F5F5F5F5F5F5F5F5F5F5E2F5F5F5F5F5F5F5F5F5F5F5F5F5F5F5F5F5F5F5F5F5F5F5F5F5F5F5F5F5
310
F5F5F5F5F5F5F5E2F5F5F5F5F5F5F5F5F5F5F5F5F5F5F5F5F5F5F5F5F5F5F5F5F5F5F5F5F5F5F5F5F5F5F5F5F5F5F5F5F5F5F5F5F5F5F5F5F5F5F5F5F5F5F5E2F5F5F5F5F5F5F5F5F5F5F5F5F5F5F5F5E2F5E2E2E2E2F5E2F5F5F5F5F5F5F5F5F5F5F5F5F5F5F5F5E2F5F5F5F5F5F5F5F5F5F5F5F5F5F5F5F5F5F5F5F5F5F5
310
F5F5F5F5F5F5F5F5F5F5F5F5F5F5F5F5F5F5F5F5F5F5F5E2F5F5F5F5F5F5F5F5F5F5F5F5F5F5F5F5F5F5F5F5F5F5F5F5F5F5F5F5F5F5F5F5F5F5F5F5E2F5F5F5F5F5F5F5F5F5F5F5F5F5F5F5F5F5F5F5F5F5F5F5F5F5F5F5F5F5F5F5F5F5F5F5F5F5F5F5F5F5F5F5F5F5F5F5F5F5F5F5F5F5F5F5E2F5F5F5F5F5F5F5F5F5F5
310
F5F5F5F5F5F5E2F5E2E2E2E2F5E2F5F5F5F5F5F5F5F5F5F5F5F5F5F5F5F5E2F5F5F5F5F5F5F5F5F5F5F5F5F5F5F5F5F5F5F5F5F5F5F5F5F5F5F5F5F5F5F5F5F5F5F5F5F5F5F5F5F5F5F5F5F5E2E2E2E2E2E2E2E2E2E2E2E2E2E2E2E2E2E2E2E2E2E2E2E2E2E2E2E2E2E2E2E2E2E2E2E2E2E2F5F5F5F5F5F5F5F5F5F5F5F5F5
310
F5F5F5F5F5F5F5F5F5F5F5F5F5F5F5F5F5F5F5F5F5F5F5F5F5F5F5F5F5F5F5F5F5F5F5F5F5F5F5F5F5F5E2F5F5F5F5F5F5F5F5F5F5F5F5F5F5F5F5E2F5E2E2E2E2F5F5F5F5F5F5F5F5F5F5F5F5F5F5F5F5F5F5E2F5F5F5F5F5F5F5F5F5F5F5F5F5F5F5F5F5F5F5F5F5F5F5F5F5F5F5F5F5F5F5F5F5F5F5F5F5F5F5F5F5F5F5
310
F5F5F5F5F5F5F5F5F5F5F5F5F5F5F5F5F5F5F5F5F5F5F5F5F5F5F5F5F5F5F5F5F5F5F5F5F5F5F5F5F5F5F5F5F5F5F5F5F5F5F5F5F5F5F5F5F5F5F5F5F5F5F5F5F5F5F5F5F5F5F5F5F5F5F5F5F5F5F5F5F5F5F5F5F5F5F5F5F5F5F5F5F5F5F5E2F5F5F5F5F5F5F5F5F5F5F5F5F5F5F5F5F5F5E2E2E2E2F5F5F5F5F5F5F5F5F5
310
F5F5F5F5F5F5F5F5F5E2F5F5F5F5F5F5F5F5F5F5F5F5F5F5F5F5F5F5F5F5F5F5F5F5F5F5F5F5F5F5F5F5F5F5F5F5F5F5F5F5F5F5F5F5F5F5F5F5F5F5F5F5F5F5F5F5F5F5F5F5F5F5F5F5F5F5F5F5F5F5F5F5F5F5F5F5F5F5F5F5F5F5F5F5F5F5F5F5F5F5F5F5F5F5F5F5F5F5F5F5F5F5F5F5F5F5F5F5F5F5F5F5F5F5F5F5F5
310
F5F5F5F5F5F5F5F5F5F5F5F5F5F5F5F5F5F5F5F5F5E2F5F5F5F5F5F5F5F5F5F5F5F5F5F5F5F5F5F5E2E2E2E2F5F5F5F5F5F5F5F5F5F5F5F5F5F5F5F5F5F5E2F5F5F5F5F5F5F5F5F5F5F5F5F5F5F5F5F5F5F5F5F5F5F5F5F5F5F5F5F5F5F5F5F5F5F5F5F5F5F5F5F5F5F5F5F5F5F5F5F5F5F5F5F5F5F5F5F5F5F5F5F5F5F5F5
310
F5F5F5F5F5F5F5F5F5F5F5F5F5F5F5F5F5F5F5F5F5F5F5F5F5F5F5F5F5F5F5F5F5F5F5F5F5F5F5F5F5F5F5F5F5F5F5F5F5F5F5F5F5F5F5F5F5F5F5F5F5F5F5F5F5F5F5F5F5F5F5F5F5F5E2F5F5F5F5F5F5F5F5F5F5F5F5F5F5F5F5F5F5E2E2E2E2F5F5F5F5F5F5F5F5F5F5F5F5F5F5F5F5F5F5E2F5F5F5F5F5F5F5F5F5F5F5
310
F5F5F5F5F5F5F5F5F5F5F5F5F5F5F5F5F5F5F5F5F5F5F5F5F5F5F5F5F5F5F5F5F5F5F5F5F5F5F5F5F5F5F5F5F5F5F5F5F5F5F5F5F5F5F5F5F5F5F5F5F5F5F5F5F5F5F5F5F5F5F5F5F5F5F5F5F5F5F5F5F5F5F5F5F5F5F5F5F5F5F5F5F5F5F5F5F5F5F5F5F5F5F5F5F5F5F5F5F5F5F5F5F5F5F5F5F5F5F5F5F5F5F5F5F5F5F5
310
E2F5F5F5F5F5F5F5F5F5F5F5F5F5F5F5F5F5F5E2E2E2E2F5F5F5F5F5F5F5F5F5F5F5F5F5F5F5F5F5F5E2F5F5F5F5F5F5F5F5F5F5F5F5F5F5F5F5F5F5F5F5F5F5F5F5F5F5F5F5F5F5F5F5F5F5F5F5F5F5F5F5F5F5F5F5F5F5F5F5F5F5F5F5F5F5F5F5F5F5F5F5F5F5F5F5F5F5F5F5F5F5F5F5F5F5F5F5F5F5F5F5F5F5F5F5F5
310
F5F5F5F5F5F5F5F5F5F5F5F5F5F5F5F5F5F5F5F5F5F5F5F5F5F5F5F5F5F5F5F5F5F5F5F5F5F5F5F5F5F5F5F5F5F5F5F5F5F5F5F5F5E2F5F5F5F5F5F5F5F5F5F5F5F5F5F5F5F5F5F5E2E2E2E2F5F5F5F5F5F5F5F5F5F5F5F5F5F5F5F5F5F5E2F5F5F5F5F5F5F5F5F5F5F5F5F5F5F5F5F5F5F5F5F5F5F5F5F5F5F5F5F5F5F5F5
310
F5F5F5F5F5F5F5F5F5F5F5F5F5F5F5F5F5F5F5F5F5F5F5F5F5F5F5F5F5F5F5F5F5F5F5F5F5F5F5F5F5F5F5F5F5F5F5F5F5F5F5F5F5F5F5F5F5F5F5F5F5F5F5F5F5F5F5F5F5F5F5F5F5F5F5F5F5F5F5F5F5F5F5F5F5F5F5F5F5F5F5F5F5F5F5F5F5F5F5F5F5F5F5F5F5F5E2F5F5F5F5F5F5F5F5F5F5F5F5F5F5F5F5F5F5E2E2
310
E2E2F5F5F5F5F5F5F5F5F5F5F5F5F5F5F5F5F5F5E2F5F5F5F5F5F5F5F5F5F5F5F5F5F5F5F5F5F5F5F5F5F5F5F5F5F5F5F5F5F5F5F5F5F5F5F5F5F5F5F5F5F5F5F5F5F5F5F5F5F5F5F5F5F5F5F5F5F5F5F5F5F5F5F5F5F5F5F5F5F5F5F5F5F5F5F5F5F5F5F5F5F5F5F5F5F5F5F5F5F5F5F5F5F5F5F5F5F5F5F5F5F5F5F5F5F5
310
F5F5F5F5F5F5F5F5F5F5F5F5F5F5F5F5F5F5F5F5F5F5F5F5F5F5F5F5F5F5F5F5E2F5F5F5F5F5F5F5F5F5F5F5F5F5F5F5F5F5F5E2E2E2E2F5F5F5F5F5F5F5F5F5F5F5F5F5F5F5F5F5F5E2F5F5F5F5F5F5F5F5F5F5F5F5F5F5F5F5F5F5F5F5F5F5F5F5F5F5F5F5F5F5F5F5F5F5F5F5F5F5F5F5F5F5F5F5F5F5F5F5F5F5F5F5F5
310
F5F5F5F5F5F5F5F5F5F5F5F5F5F5F5F5F5F5F5F5F5F5F5F5F5F5F5F5F5F5F5F5F5F5F5F5F5F5F5F5F5F5F5F5F5F5F5F5F5F5F5F5F5F5F5F5F5F5F5F5F5F5F5F5F5F5F5F5F5F5F5F5F5F5F5F5F5F5F5F5F5F5F5F5F5E2F5F5F5F5F5F5F5F5F5F5F5F5F5F5F5F5F5F5E2E2E2E2F5F5F5F5F5F5F5F5F5F5F5F5F5F5F5F5F5F5E2
310
F5F5F5F5F5F5F5F5F5F5F5F5F5F5F5F5F5F5F5F5F5F5F5F5F5F5F5F5F5F5F5F5F5F5F5F5F5F5F5F5F5F5F5F5F5F5F5F5F5F5F5F5F5F5F5F5F5F5F5F5F5F5F5F5F5F5F5F5F5F5F5F5F5F5F5F5F5F5F5F5F5F5F5F5F5F5F5F5F5F5F5F5F5F5F5F5F5F5F5F5F5F5F5F5F5F5F5F5F5F5F5F5F5F5F5F5F5F5F5F5F5F5F5F5F5F5F5
310
F5F5F5F5F5F5F5F5F5F5F5E2F5F5F5F5F5F5F5F5F5F5F5F5F5F5F5F5F5F5E2E2E2E2F5E2F5F5F5F5F5F5F5F5F5F5F5F5F5F5F5F5E2F5F5F5F5F5F5F5F5F5F5F5F5F5F5F5F5F5F5F5F5F5F5F5F5F5F5F5F5F5F5F5F5F5F5F5F5F5F5F5F5F5F5F5F5F5F5F5F5F5F5F5F5F5F5F5F5F5F5F5F5F5F5F5F5F5F5F5F5F5F5F5F5F5F5
310
F5F5F5F5F5F5F5F5F5F5F5F5F5F5F5F5F5F5F5F5F5F5F5F5F5F5F5F5F5F5F5F5F5F5F5F5F5F5F5F5F5F5F5F5F5F5F5F5F5F5F5F5F5F5F5F5F5F5F5F5F5F5F5F5E2F5F5F5F5F5F5F5F5F5F5F5F5F5F5F5F5E2F5E2E2E2E2F5E2F5F5F5F5F5F5F5F5F5F5F5F5F5F5F5F5E2F5F5F5F5F5F5F5F5F5F5F5F5F5F5F5F5F5F5F5F5F5
310
F5F5F5F5F5F5F5F5F5F5F5F5F5F5F5F5F5F5F5F5F5F5F5F5F5F5F5F5F5F5F5F5F5F5F5F5F5F5F5F5F5F5F5F5F5F5F5F5F5F5F5F5F5F5F5F5F5F5F5F5F5F5F5F5F5F5F5F5F5F5F5F5F5F5F5F5F5F5F5F5F5F5F5F5F5F5F5F5F5F5F5F5F5F5F5F5F5F5F5F5F5F5F5F5F5F5F5F5F5F5F5F5F5F5F5F5F5E2F5F5F5F5F5F5F5F5F5
310
F5F5F5F5F5F5F5E2F5E2E2E2E2F5E2F5F5F5F5F5F5F5F5F5F5F5F5F5F5F5F5E2F5F5F5F5F5F5F5F5F5F5F5F5F5F5F5F5F5F5F5F5F5F5F5F5F5F5F5F5F5F5F5F5F5F5F5F5F5F5F5F5F5F5F5F5F5F5F5F5F5F5F5F5F5F5F5F5F5F5F5F5F5F5F5F5F5F5F5F5F5F5F5F5F5F5F5F5F5F5F5F5F5F5F5F5F5F5F5F5F5F5F5F5F5F5F5
310
F5F5F5F5F5F5F5F5F5F5F5F5F5F5F5F5F5F5F5F5F5F5F5F5F5F5F5F5F5F5F5F5F5F5F5F5F5F5F5F5F5F5F5E2F5F5F5F5F5F5F5F5F5F5F5F5F5F5F5F5E2F5E2E2E2E2F5E2F5F5F5F5F5F5F5F5F5F5F5F5F5F5F5F5E2F5F5F5F5F5F5F5F5F5F5F5F5F5F5F5F5F5F5F5F5F5F5F5F5F5F5F5F5F5F5F5F5F5F5F5F5F5F5F5F5F5F5
310
F5F5F5F5F5F5F5F5F5F5F5F5F5F5F5F5F5F5F5F5F5F5F5F5F5F5F5F5F5F5F5F5F5F5F5F5F5F5F5F5F5F5F5F5F5F5F5F5F5F5F5F5F5F5F5F5F5F5F5F5F5F5F5F5F5F5F5F5F5F5F5F5F5F5F5F5F5F5F5F5F5F5F5F5F5F5F5F5F5F5F5F5F5F5F5F5E2F5F5F5F5F5F5F5F5F5F5F5F5F5F5F5F5E2F5E2E2E2E2F5E2F5F5F5F5F5F5
310
F5F5F5F5F5F5F5F5F5F5E2F5F5F5F5F5F5F5F5F5F5F5F5F5F5F5F5F5F5F5F5F5F5F5F5F5F5F5F5F5F5F5F5F5F5F5F5F5F5F5F5F5F5F5F5F5F5F5F5F5F5F5F5F5F5F5F5F5F5E2E2E2E2E2E2E2E2E2E2E2F5F5F5F5F5F5F5F5F5F5F5F5F5F5F5F5F5F5F5F5F5F5F5F5F5F5F5F5F5F5F5F5F5F5F5F5F5F5F5F5F5F5F5F5F5F5F5
310
F5F5F5F5F5F5F5F5F5F5F5F5F5F5F5F5F5F5F5F5F5F5E2F5F5F5F5F5F5F5F5F5F5F5F5F5F5F5F5E2F5E2E2E2E2F5E2F5F5F5F5F5F5F5F5F5F5F5F5F5F5F5F5E2F5F5F5F5F5F5F5F5F5F5F5F5F5F5F5F5F5F5F5F5F5F5F5F5F5F5F5F5F5F5F5F5F5F5F5F5F5F5F5F5F5F5F5F5F5E2E2E2E2E2E2E2E2E2E2E2E2E2E2E2E2E2E2
310
E2E2E2E2E2E2E2E2E2E2E2E2E2E2E2E2E2E2E2E2F5F5F5F5F5F5F5F5F5F5F5F5F5F5F5F5F5F5F5F5F5F5F5F5F5F5F5F5F5F5F5F5F5F5F5F5F5F5F5F5F5F5F5F5F5F5F5F5F5F5F5F5F5F5F5E2F5F5F5F5F5F5F5F5F5F5F5F5F5F5F5F5E2F5E2E2E2E2F5E2F5F5F5F5F5F5F5F5F5F5F5F5F5F5F5F5E2F5F5F5F5F5F5F5F5F5F5
310
F5F5F5F5F5F5F5F5F5F5F5F5F5F5F5F5F5F5F5F5F5F5F5F5F5F5F5F5F5F5F5F5F5F5F5E2F5F5F5F5F5F5F5F5F5F5F5F5F5F5F5F5F5F5F5F5F5F5F5F5F5F5F5F5F5F5F5F5F5F5F5F5E2F5F5F5F5F5F5F5F5F5F5F5F5F5F5F5F5F5F5F5F5F5F5F5F5F5F5F5F5F5F5F5F5F5F5F5F5F5F5F5F5F5F5F5F5F5F5F5F5F5F5F5F5F5F5
310
F5E2F5F5F5F5F5F5F5F5F5F5F5F5F5F5F5F5E2F5E2E2E2E2F5E2F5F5F5F5F5F5F5F5F5F5F5F5F5F5F5F5E2F5F5F5F5F5F5F5F5F5F5F5F5F5F5F5F5F5F5F5F5F5F5F5F5F5F5F5F5F5F5F5F5F5F5F5F5F5F5F5F5F5F5F5F5F5E2F5F5F5F5F5F5F5F5F5F5F5F5F5F5F5F5F5F5F5F5F5F5F5F5F5F5F5F5F5F5F5F5F5F5F5F5E2F5
310
F5F5F5F5F5F5F5F5F5F5F5F5F5F5F5F5F5F5F5F5F5F5F5F5F5F5F5F5F5F5F5F5F5F5F5F5F5F5F5F5F5F5F5F5F5F5F5F5F5F5F5F5F5F5E2F5F5F5F5F5F5F5F5F5F5F5F5F5F5F5F5E2F5E2E2E2E2F5E2F5F5F5F5F5F5F5F5F5F5F5F5F5F5F5F5E2F5F5F5F5F5F5F5F5F5F5F5F5F5F5F5F5F5F5F5F5F5F5F5F5F5F5F5F5F5F5F5
310
F5F5F5F5F5F5F5F5F5F5F5F5F5F5E2F5F5F5F5F5F5F5F5F5F5F5F5F5F5F5F5F5F5F5F5F5F5F5F5F5F5F5F5F5F5F5F5F5F5F5F5E2F5F5F5F5F5F5F5F5F5F5F5F5F5F5F5F5F5F5F5F5F5F5F5F5F5F5F5F5F5F5F5F5F5F5F5F5F5F5F5F5F5F5F5F5F5F5F5F5F5F5F5F5F5F5F5E2F5F5F5F5F5F5F5F5F5F5F5F5F5F5F5F5E2F5E2
310
E2E2E2F5E2F5F5F5F5F5F5F5F5F5F5F5F5F5F5F5F5E2F5F5F5F5F5F5F5F5F5F5F5F5F5F5F5F5F5F5F5F5F5F5F5F5F5F5F5F5F5F5F5F5F5F5F5F5F5F5F5F5F5F5F5F5F5E2F5F5F5F5F5F5F5F5F5F5F5F5F5F5F5F5F5F5F5F5F5F5F5F5F5F5F5F5F5F5F5F5F5F5F5F5E2F5F5F5F5F5F5F5F5F5F5F5F5F5F5F5F5F5F5F5F5F5F5
310
F5F5F5F5F5F5F5F5F5F5F5F5F5F5F5F5F5F5F5F5F5F5F5F5F5F5F5F5F5F5F5F5F5E2F5F5F5F5F5F5F5F5F5F5F5F5F5F5F5F5E2F5E2E2E2E2F5E2F5F5F5F5F5F5F5F5F5F5F5F5F5F5F5F5E2F5F5F5F5F5F5F5F5F5F5F5F5F5F5F5F5F5F5F5F5F5F5F5F5F5F5F5F5F5F5F5F5F5F5F5F5F5F5F5F5F5F5F5F5F5E2F5F5F5F5F5F5
310
F5F5F5F5F5F5F5F5F5F5F5F5F5F5F5F5F5F5F5F5F5F5F5F5F5F5F5F5F5F5E2F5F5F5F5F5F5F5F5F5F5F5F5F5F5F5F5F5F5F5F5F5F5F5F5F5F5F5F5F5F5F5F5F5F5F5F5F5F5F5F5F5F5F5F5F5F5F5F5F5F5F5F5F5F5F5E2F5F5F5F5F5F5F5F5F5F5F5F5F5F5F5F5E2F5E2E2E2E2F5E2F5F5F5F5F5F5F5F5F5F5F5F5F5F5F5F5
310
E2F5F5F5F5F5F5F5F5F5F5F5F5F5F5F5F5F5F5F5F5F5F5F5F5F5F5F5F5F5F5F5F5F5F5F5F5F5F5F5F5F5F5F5F5F5E2E2E2E2E2E2E2E2E2E2E2E2E2E2E2E2E2E2E2E2E2E2E2E2E2E2E2E2E2E2E2E2E2E2E2E2E2E2E2E2E2E2E2E2E2E2E2E2E2F5F5F5F5F5F5F5F5F5F5F5F5F5F5F5F5F5F5F5F5F5F5F5F5F5F5F5F5F5F5F5F5
310
F5F5F5F5F5F5F5F5F5F5F5F5E2F5F5F5F5F5F5F5F5F5F5F5F5F5F5F5F5E2F5E2E2E2E2F5E2F5F5F5F5F5F5F5F5F5F5F5F5F5F5F5F5E2F5F5F5F5F5F5F5F5F5F5F5F5F5F5F5F5F5F5F5F5F5F5F5F5F5F5F5F5F5F5F5F5F5F5F5F5F5F5F5F5F5F5F5F5F5E2E2F5F5F5F5F5F5F5F5F5F5F5F5F5F5F5F5F5F5F5F5F5F5F5F5F5F5
310
F5F5F5F5F5F5F5F5E2E2F5F5F5F5F5F5F5F5F5F5E2F5F5F5F5F5F5F5F5F5F5F5F5F5F5F5F5F5F5F5F5F5F5F5F5F5F5F5F5F5F5F5F5F5F5F5F5F5F5F5F5F5F5F5F5E2F5F5F5F5F5F5F5F5F5F5F5F5F5F5F5F5E2F5E2E2E2E2F5E2F5F5F5F5F5F5F5F5F5F5F5F5F5F5F5F5E2F5F5F5F5F5F5F5F5F5F5F5F5F5F5F5F5F5F5F5F5
310
F5F5F5F5F5F5F5F5F5F5F5F5F5F5F5F5F5F5F5F5F5F5F5F5F5E2E2F5F5F5F5F5F5F5F5F5F5F5F5F5E2E2E2E2E2E2E2E2F5F5F5F5F5F5F5F5F5F5E2E2E2E2E2F5F5F5F5F5F5F5F5F5F5E2F5F5F5F5F5F5F5F5F5F5F5F5F5F5F5F5F5F5F5F5F5F5F5F5F5F5F5F5F5F5F5F5F5F5F5F5F5F5F5F5F5F5F5F5E2F5F5F5F5F5F5F5F5
310
F5F5F5F5F5F5F5F5E2F5E2E2E2E2F5E2F5F5F5F5F5F5F5F5F5F5F5F5F5F5F5F5E2F5F5F5F5F5F5F5F5F5F5F5F5F5F5F5F5F5F5F5F5F5F5F5F5F5F5F5F5F5F5F5F5F5F5F5F5F5F5F5F5F5F5F5F5F5E2E2F5F5F5F5F5F5F5F5F5F5E2E2E2F5F5F5F5F5F5F5E2E2E2E2F5F5F5F5F5F5F5E2E2E2E2E2F5F5F5F5F5F5F5F5F5F5E2
310
F5F5F5F5F5F5F5F5F5F5F5F5F5F5F5F5F5F5F5F5F5F5F5F5F5F5F5F5F5F5F5F5F5F5F5F5F5F5F5F5F5F5F5F5E2F5F5F5F5F5F5F5F5F5F5F5F5F5F5F5F5E2F5E2E2E2E2F5E2F5F5F5F5F5F5F5F5F5F5F5F5F5F5F5F5E2F5F5F5F5F5F5F5F5F5F5F5F5F5F5F5F5F5F5F5F5F5F5F5F5F5F5F5F5F5F5F5F5F5F5F5F5F5F5F5F5F5
310
F5F5F5F5E2E2F5F5F5F5F5F5F5F5E2E2E2F5F5F5F5F5F5F5F5F5F5F5F5E2E2E2F5F5F5F5F5F5F5F5E2E2F5F5F5F5F5F5F5F5F5F5E2F5F5F5F5F5F5F5F5F5F5F5F5F5F5F5F5F5F5F5F5F5F5F5F5F5F5F5F5F5F5F5F5F5F5F5F5F5F5F5F5F5F5F5F5E2F5F5F5F5F5F5F5F5F5F5F5F5F5F5F5F5E2F5E2E2E2E2F5E2F5F5F5F5F5
310
F5F5F5F5F5F5F5F5F5F5F5E2F5F5F5F5F5F5F5F5F5F5F5F5F5F5F5F5F5F5F5F5F5F5F5F5F5F5F5F5F5F5F5F5F5F5F5F5F5F5F5F5F5F5F5F5F5E2E2F5F5F5F5F5F5F5E2E2F5F5F5F5F5F5F5F5F5F5F5F5F5F5F5F5E2E2F5F5F5F5F5F5F5E2E2F5F5F5F5F5F5F5F5F5F5E2F5F5F5F5F5F5F5F5F5F5F5F5F5F5F5F5F5F5F5F5F5
310
F5F5F5F5F5F5F5F5F5F5F5F5F5F5F5F5F5F5F5F5F5F5F5E2F5F5F5F5F5F5F5F5F5F5F5F5F5F5F5F5E2F5E2E2E2E2F5F5F5F5F5F5F5F5F5F5F5F5F5F5F5F5F5F5E2F5F5F5F5F5F5F5F5F5F5F5F5F5F5F5F5F5F5F5F5F5F5F5F5F5F5F5F5F5F5F5F5F5F5F5F5F5F5F5F5F5F5F5F5F5E2E2F5F5F5F5F5F5E2E2F5F5F5F5F5F5F5
310
F5F5F5F5F5F5F5F5F5F5F5E2E2F5F5F5F5F5F5E2E2F5F5F5F5F5F5F5F5F5F5E2F5F5F5F5F5F5F5F5F5F5F5F5F5F5F5F5F5F5F5F5F5F5F5F5F5F5F5F5F5F5F5F5F5F5F5F5F5F5F5F5F5F5F5F5E2F5F5F5F5F5F5F5F5F5F5F5F5F5F5F5F5F5F5E2E2E2E2F5F5F5F5F5F5F5F5F5F5F5F5F5F5F5F5F5F5E2F5F5F5F5F5F5F5F5F5
310
F5F5F5F5F5F5F5F5F5F5F5F5F5F5F5F5F5F5F5F5F5F5F5F5F5F5F5F5F5F5F5F5F5F5F5F5E2E2F5F5F5F5F5E2E2F5F5F5F5F5F5F5F5F5F5F5F5F5F5F5F5F5F5F5F5E2E2F5F5F5F5F5E2E2F5F5F5F5F5F5F5F5F5F5E2F5F5F5F5F5F5F5F5F5F5F5F5F5F5F5F5F5F5F5F5F5F5F5F5F5F5F5F5F5F5F5F5F5F5F5F5F5F5F5F5F5F5
310
F5F5E2F5F5F5F5F5F5F5F5F5F5F5F5F5F5F5F5F5F5E2E2E2E2F5F5F5F5F5F5F5F5F5F5F5F5F5F5F5F5F5F5E2F5F5F5F5F5F5F5F5F5F5F5F5F5F5F5F5F5F5F5F5F5F5F5F5F5F5F5F5F5F5F5F5F5F5F5F5F5F5F5F5F5F5F5F5F5E2E2F5F5F5F5F5E2F5F5F5F5F5F5F5F5F5F5F5F5F5F5F5F5F5F5F5F5F5F5E2F5F5F5F5F5E2E2
310
F5F5F5F5F5F5F5F5F5F5E2F5F5F5F5F5F5F5F5F5F5F5F5F5F5F5F5F5F5F5F5F5F5F5F5F5F5F5F5F5F5F5F5F5F5F5F5F5F5F5F5F5F5F5F5E2F5F5F5F5F5F5F5F5F5F5F5F5F5F5F5F5F5F5E2E2E2E2F5F5F5F5F5F5F5F5F5F5F5F5F5F5F5F5F5F5E2F5F5F5F5F5F5F5F5F5F5F5F5F5F5F5F5F5F5F5F5F5F5F5F5F5F5F5F5F5F5
310
F5F5F5F5F5F5F5F5F5F5F5F5F5F5F5E2F5F5F5F5F5F5E2F5F5F5F5F5F5F5F5F5F5E2E2F5F5F5F5F5F5F5F5F5F5E2F5F5F5F5F5F5E2F5F5F5F5F5F5F5F5F5F5E2F5F5F5F5F5F5F5F5F5F5F5F5F5F5F5F5F5F5F5F5F5F5F5F5F5F5F5F5F5F5F5F5F5F5F5F5F5F5F5F5F5F5F5F5E2F5F5F5F5F5F5F5F5F5F5F5F5F5F5F5F5F5F5
310
E2E2E2E2F5F5F5F5F5F5F5F5F5F5F5F5F5F5F5F5F5F5E2F5F5F5F5F5F5F5F5F5F5F5F5F5F5F5F5F5F5F5F5F5F5F5F5F5F5F5F5F5F5F5F5F5F5F5F5F5F5F5F5F5F5F5F5F5E2F5F5F5F5F5E2E2F5F5F5F5F5F5F5F5F5E2E2E2E2F5F5F5F5F5F5F5F5F5E2F5F5F5F5F5F5E2F5F5F5F5E2E2E2E2E2E2E2E2E2E2E2E2F5F5F5F5F5
310
F5F5F5F5F5F5F5F5F5F5F5F5F5F5F5F5F5F5F5F5F5F5F5F5F5F5F5F5F5F5F5F5F5F5E2F5F5F5F5F5F5F5F5F5F5F5F5F5F5F5F5F5F5E2E2E2E2F5F5F5F5F5F5F5F5F5F5F5F5F5F5F5F5F5F5E2F5F5F5F5F5F5F5F5F5F5F5F5F5F5F5F5F5F5F5F5F5F5F5F5F5F5F5F5F5F5F5F5F5F5F5F5F5F5F5F5F5F5F5F5F5E2F5F5F5F5F5
310
F5E2F5F5F5F5F5F5F5F5F5E2F5F5E2F5F5F5F5F5F5F5F5F5E2F5F5F5F5F5F5E2F5F5F5F5F5F5F5F5F5F5E2F5F5F5F5F5F5F5F5F5F5F5F5F5F5F5F5F5F5F5F5F5F5F5F5F5F5F5F5F5F5F5F5F5F5F5F5F5F5F5F5F5F5F5F5E2F5F5F5F5F5F5F5F5F5F5F5F5F5F5F5F5F5F5E2E2E2E2F5F5F5F5F5F5F5F5F5F5F5F5F5F5F5F5F5
310
F5E2F5F5F5F5F5F5F5F5F5F5F5F5F5F5F5F5F5F5F5F5F5F5F5F5F5F5F5F5F5F5F5F5F5F5F5F5F5F5F5F5F5F5F5F5F5E2E2F5F5F5F5F5E2F5F5F5F5F5F5F5F5F5E2E2E2E2F5F5F5F5F5F5F5F5F5E2F5F5F5F5F5E2E2F5F5F5F5F5F5F5F5F5F5E2F5F5F5F5F5F5F5F5F5F5F5F5F5F5F5F5F5F5F5F5F5F5F5F5F5F5F5F5F5F5F5
310
F5F5F5F5F5F5F5F5F5F5F5F5F5E2F5F5F5F5F5F5F5F5F5F5F5F5F5F5F5F5F5F5E2E2E2E2F5F5F5F5F5F5F5F5F5F5F5F5F5F5F5F5F5F5E2F5F5F5F5F5F5F5F5F5F5F5F5F5F5F5F5F5F5F5F5F5F5F5F5F5F5F5F5F5F5F5F5F5F5F5F5F5F5F5F5F5F5F5F5F5E2E2F5F5F5F5F5E2F5F5F5F5F5F5F5F5F5E2E2E2E2F5F5F5F5F5F5
310
F5F5E2E2F5F5F5F5F5E2E2F5F5F5F5F5F5F5F5F5F5E2F5F5F5F5F5F5F5F5F5F5F5F5F5F5F5F5F5F5F5F5F5F5F5F5F5F5F5F5F5F5F5F5F5F5F5F5F5F5F5F5F5F5F5F5E2F5F5F5F5F5F5F5F5F5F5F5F5F5F5F5F5F5F5E2E2E2E2F5F5F5F5F5F5F5F5F5F5F5F5F5F5F5F5F5F5E2F5F5F5F5F5F5F5F5F5F5F5F5F5F5F5F5F5F5F5
310
F5F5F5F5F5F5F5F5F5F5F5F5F5F5F5F5F5F5F5F5F5F5F5F5F5F5E2E2F5F5F5F5F5F5E2F5F5F5F5F5F5F5F5F5F5F5F5F5F5F5F5F5F5F5E2E2F5F5F5F5F5F5E2E2F5F5F5F5F5F5F5F5F5F5E2F5F5F5F5F5F5F5F5F5F5F5F5F5F5F5F5F5F5F5F5F5F5F5F5F5F5F5F5F5F5F5F5F5F5F5F5F5F5F5F5F5F5F5F5E2F5F5F5F5F5F5F5
310
F5F5F5F5F5F5F5F5F5F5F5E2E2E2E2F5F5F5F5F5F5F5F5F5F5F5F5F5F5F5F5F5F5E2F5F5F5F5F5F5F5F5F5F5F5F5F5F5F5F5F5F5F5F5F5F5F5F5F5F5F5F5F5F5F5F5F5F5F5F5F5F5F5F5F5F5F5F5F5E2E2F5F5F5F5F5F5F5E2F5F5F5F5F5F5F5F5F5F5F5F5F5F5F5F5F5E2E2F5F5F5F5F5F5F5E2E2F5F5F5F5F5F5F5F5F5F5
310
E2F5F5F5F5F5F5F5F5F5F5F5F5F5F5F5F5F5F5F5F5F5F5F5F5F5F5F5F5F5F5F5F5F5F5F5F5F5F5F5F5F5F5F5F5E2F5F5F5F5F5F5F5F5F5F5F5F5F5F5F5F5F5F5E2E2E2E2F5E2F5F5F5F5F5F5F5F5F5F5F5F5F5F5F5F5E2F5F5F5F5F5F5F5F5F5F5F5F5F5F5F5F5F5F5F5F5F5F5F5F5F5F5F5F5F5F5F5F5F5F5F5F5F5F5F5F5
310
F5F5F5F5F5E2E2F5F5F5F5F5F5F5F5E2E2F5F5F5F5F5F5F5F5F5F5F5F5F5F5E2E2F5F5F5F5F5F5F5F5E2E2F5F5F5F5F5F5F5F5F5F5E2F5F5F5F5F5F5F5F5F5F5F5F5F5F5F5F5F5F5F5F5F5F5F5F5F5F5F5F5F5F5F5F5F5F5F5F5F5F5F5F5F5F5F5F5E2F5F5F5F5F5F5F5F5F5F5F5F5F5F5F5F5E2F5E2E2E2E2F5E2F5F5F5F5
310
F5F5F5F5F5F5F5F5F5F5F5F5E2F5F5F5F5F5F5F5F5F5F5F5F5F5F5F5F5F5F5F5F5F5F5F5F5F5F5F5F5F5F5F5F5F5F5F5F5F5F5F5F5F5F5F5F5F5E2E2F5F5F5F5F5F5F5F5F5E2E2E2F5F5F5F5F5F5F5F5F5F5E2E2E2F5F5F5F5F5F5F5F5F5E2E2F5F5F5F5F5F5F5F5F5F5E2F5F5F5F5F5F5F5F5F5F5F5F5F5F5F5F5F5F5F5F5
310
F5F5F5F5F5F5F5F5F5F5F5F5F5F5F5F5F5F5F5F5F5F5F5F5E2F5F5F5F5F5F5F5F5F5F5F5F5F5F5F5F5E2F5E2E2E2E2F5E2F5F5F5F5F5F5F5F5F5F5F5F5F5F5F5F5E2F5F5F5F5F5F5F5F5F5F5F5F5F5F5F5F5F5F5F5F5F5F5F5F5F5F5F5F5F5F5F5F5F5F5F5F5F5F5F5F5F5F5F5F5F5E2E2F5F5F5F5F5F5F5F5F5F5F5E2E2E2
310
E2E2E2E2E2E2E2E2F5F5F5F5F5F5F5F5F5F5F5F5E2E2F5F5F5F5F5F5F5F5F5F5E2F5F5F5F5F5F5F5F5F5F5F5F5F5F5F5F5F5F5F5F5F5F5F5F5F5F5F5F5F5F5F5F5F5F5F5F5F5F5F5F5F5F5F5F5E2F5F5F5F5F5F5F5F5F5F5F5F5F5F5F5F5E2F5E2E2E2E2F5E2F5F5F5F5F5F5F5F5F5F5F5F5F5F5F5F5E2F5F5F5F5F5F5F5F5
310
F5F5F5F5F5F5F5F5F5F5F5F5F5F5F5F5F5F5F5F5F5F5F5F5F5F5F5F5F5F5F5F5F5F5F5F5F5E2E2F5F5F5F5F5F5F5F5F5F5F5F5F5F5F5F5F5F5F5F5F5F5F5F5F5F5F5F5F5F5F5F5F5F5E2E2F5F5F5F5F5F5F5F5F5F5E2F5F5F5F5F5F5F5F5F5F5F5F5F5F5F5F5F5F5F5F5F5F5F5F5F5F5F5F5F5F5F5F5F5F5F5F5F5F5F5F5F5
310
F5F5F5E2F5F5F5F5F5F5F5F5F5F5F5F5F5F5F5F5E2F5E2E2E2E2F5E2F5F5F5F5F5F5F5F5F5F5F5F5F5F5F5F5E2F5F5F5F5F5F5F5F5F5F5F5F5F5F5F5F5F5F5F5F5F5F5F5F5F5F5F5F5F5F5F5F5F5F5F5F5F5F5F5F5F5F5F5F5F5E2E2F5F5F5F5F5F5F5F5F5F5F5F5F5F5F5F5F5F5F5F5F5F5F5F5F5F5F5F5F5F5F5F5F5F5E2
310
E2F5F5F5F5F5F5F5F5F5F5E2F5F5F5F5F5F5F5F5F5F5F5F5F5F5F5F5F5F5F5F5F5F5F5F5F5F5F5F5F5F5F5F5F5F5F5F5F5F5F5F5F5F5F5F5E2F5F5F5F5F5F5F5F5F5F5F5F5F5F5F5F5E2F5E2E2E2E2F5E2F5F5F5F5F5F5F5F5F5F5F5F5F5F5F5F5E2F5F5F5F5F5F5F5F5F5F5F5F5F5F5F5F5F5F5F5F5F5F5F5F5F5F5F5F5F5
310
F5F5F5F5F5F5F5F5F5F5F5F5F5F5F5F5E2E2E2E2E2E2E2E2E2E2E2E2E2E2E2E2E2E2E2E2E2E2E2E2E2E2E2E2E2E2E2E2E2E2E2E2E2E2E2E2E2E2E2E2E2E2E2E2E2F5F5F5F5F5F5F5F5F5F5F5F5F5F5F5F5F5F5F5F5F5F5F5F5F5F5F5F5F5F5F5F5F5F5F5F5F5F5F5F5F5F5F5F5E2F5F5F5F5F5F5F5F5F5F5F5F5F5F5F5F5E2
310
F5E2E2E2E2F5E2F5F5F5F5F5F5F5F5F5F5F5F5F5F5F5F5E2F5F5F5F5F5F5F5F5F5F5F5F5F5F5F5F5F5F5F5F5F5F5F5F5F5F5F5F5F5F5F5F5F5F5F5F5F5F5F5F5F5F5F5F5F5F5F5F5F5F5F5F5F5F5F5F5F5F5F5F5F5F5F5F5F5F5F5F5F5F5F5F5F5F5F5F5F5F5F5F5F5F5F5F5F5F5F5F5F5F5F5F5F5F5F5F5F5F5F5F5F5F5F5
310
F5F5F5F5F5F5F5F5F5F5F5F5F5F5F5F5F5F5F5F5F5F5F5F5F5F5F5F5F5F5F5F5F5F5F5E2F5F5F5F5F5F5F5F5F5F5F5F5F5F5F5F5E2F5E2E2E2E2F5E2F5F5F5F5F5F5F5F5F5F5F5F5F5F5F5F5E2F5F5F5F5F5F5F5F5F5F5F5F5F5F5F5F5F5F5F5F5F5F5F5F5F5F5F5F5F5F5F5F5F5F5F5F5F5F5F5F5F5F5F5F5F5F5F5F5F5F5
310
F5F5F5F5F5F5F5F5F5F5F5F5F5F5F5F5F5F5F5F5F5F5F5F5F5F5F5F5F5F5F5F5F5F5F5F5F5F5F5F5F5F5F5F5F5F5F5F5F5F5F5F5F5F5F5F5F5F5F5F5F5F5F5F5F5F5F5F5F5F5F5F5F5F5F5F5F5F5F5F5F5F5F5F5F5F5F5F5E2F5F5F5F5F5F5F5F5F5F5F5F5F5F5F5F5E2F5E2E2E2E2F5E2F5F5F5F5F5F5F5F5F5F5F5F5F5F5
310
F5F5E2F5F5F5F5F5F5F5F5F5F5F5F5F5F5F5F5F5F5F5F5F5F5F5F5F5F5F5F5F5F5F5F5F5F5F5F5F5F5F5F5F5F5F5F5F5F5F5F5F5F5F5F5F5F5F5F5F5F5F5F5F5F5F5F5F5F5F5F5F5F5F5F5F5F5F5F5F5F5F5F5F5F5F5F5F5F5F5F5F5F5F5F5F5F5F5F5F5F5F5F5F5F5F5F5F5F5F5F5F5F5F5F5F5F5F5F5F5F5F5F5F5F5F5F5
310
F5F5F5F5F5F5F5F5F5F5F5F5F5F5E2F5F5F5F5F5F5F5F5F5F5F5F5F5F5F5F5E2F5E2E2E2E2F5E2F5F5F5F5F5F5F5F5F5F5F5F5F5F5F5F5E2F5F5F5F5F5F5F5F5F5F5F5F5F5F5F5F5F5F5F5F5F5F5F5F5F5F5F5F5F5F5F5F5F5F5F5F5F5F5F5F5F5F5F5F5F5F5F5F5F5F5F5F5F5F5F5F5F5F5F5F5F5F5F5F5F5F5F5F5F5F5F5
310
F5F5F5F5F5F5F5F5F5F5F5F5F5F5F5F5F5F5F5F5F5F5F5F5F5F5F5F5F5F5F5F5F5F5F5F5F5F5F5F5F5F5F5F5F5F5F5F5F5F5F5F5F5F5F5F5F5F5F5F5F5F5F5F5F5F5F5E2F5F5F5F5F5F5F5F5F5F5F5F5F5F5F5F5E2F5E2E2E2E2F5E2F5F5F5F5F5F5F5F5F5F5F5F5F5F5F5F5E2F5F5F5F5F5F5F5F5F5F5F5F5F5F5F5F5F5F5
310
F5F5F5F5F5F5F5F5F5F5F5F5F5F5F5F5F5F5F5F5F5F5F5F5F5F5F5F5F5F5F5F5F5F5F5F5F5F5F5F5F5F5F5F5F5F5F5F5F5F5F5F5F5F5F5F5F5F5F5F5F5F5F5F5F5F5F5F5F5F5F5F5F5F5F5F5F5F5F5F5F5F5F5F5F5F5F5F5F5F5F5F5F5F5F5F5F5F5F5F5F5F5F5F5F5F5F5F5F5F5F5F5F5F5F5F5F5F5F5F5E2F5F5F5F5F5F5
310
F5F5F5F5F5F5F5F5F5F5E2F5E2E2E2E2F5E2F5F5F5F5F5F5F5F5F5F5F5F5F5F5F5F5E2F5F5F5F5F5F5F5F5F5F5F5F5F5F5F5F5F5F5F5F5F5F5F5F5F5F5F5F5F5F5F5F5F5F5F5F5F5F5F5F5F5F5F5F5F5F5F5F5F5F5F5F5F5F5F5F5F5F5F5F5F5F5F5F5F5F5F5F5F5F5F5F5F5F5F5F5F5F5F5F5F5F5F5F5F5F5F5F5F5F5F5F5
310
F5F5F5F5F5F5F5F5F5F5F5F5F5F5F5F5F5F5F5F5F5F5F5F5F5F5F5F5F5F5F5F5F5F5F5F5F5F5F5F5F5F5F5F5F5F5E2F5F5F5F5F5F5F5F5F5F5F5F5F5F5F5F5E2F5E2E2E2E2F5E2F5F5F5F5F5F5F5F5F5F5F5F5F5F5F5F5E2F5F5F5F5F5F5F5F5F5F5F5F5F5F5F5F5F5F5F5F5F5F5F5F5F5F5F5F5F5F5F5F5F5F5F5F5F5F5F5
310
F5F5F5F5F5F5F5F5F5F5F5F5F5F5F5F5F5F5F5F5F5F5F5F5F5F5F5F5F5F5F5F5F5F5F5F5F5F5F5F5F5F5F5F5F5F5F5F5F5F5F5F5F5F5F5F5F5F5F5F5F5F5F5F5F5F5F5F5F5F5F5F5F5F5F5F5F5F5F5F5F5F5F5F5F5F5F5F5F5F5F5F5F5F5F5F5F5F5F5E2F5F5F5F5F5F5F5F5F5F5F5F5F5F5F5F5E2F5E2E2E2E2F5E2F5F5F5
310
F5F5F5F5F5F5F5F5F5F5F5F5F5E2F5F5F5F5F5F5F5F5F5F5F5F5F5F5F5F5F5F5F5F5F5F5F5F5F5F5F5F5F5F5F5F5F5F5F5F5F5F5F5F5F5F5F5F5F5F5F5F5F5F5F5F5F5F5F5F5F5F5F5F5F5F5F5F5F5F5F5F5F5F5F5F5F5F5F5F5F5F5F5F5F5F5F5F5F5F5F5F5F5F5F5F5F5F5F5F5F5F5F5F5F5F5F5F5F5F5F5F5F5F5F5F5F5
310
F5F5F5F5F5F5F5F5F5F5F5F5F5F5F5F5F5F5F5F5F5F5F5F5F5E2F5F5F5F5F5F5F5F5F5F5F5F5F5F5F5F5E2F5E2E2E2E2F5E2F5F5F5F5F5F5F5F5F5F5F5F5F5F5F5F5E2F5F5F5F5F5F5F5F5F5F5F5F5F5F5F5F5F5F5F5F5F5F5F5F5F5F5F5F5F5F5F5F5F5F5F5F5F5F5F5F5F5F5F5F5F5F5F5F5F5E2E2E2F5E2E2E2F5F5F5E2
310
F5E2E2E2F5F5E2E2E2F5F5E2E2F5E2F5E2F5F5E2E2F5F5F5E2E2F5F5F5F5F5F5F5F5F5F5F5F5F5F5F5F5F5F5F5F5F5F5F5F5F5F5F5F5F5F5F5F5F5F5F5F5F5F5F5F5F5F5F5F5F5F5F5F5F5F5F5F5E2F5F5F5F5F5F5F5F5F5F5F5F5F5F5F5F5E2F5E2E2E2E2F5E2F5F5F5F5F5F5F5F5F5F5F5F5F5F5F5F5E2F5F5F5F5F5F5F5
310
F5F5F5F5F5F5F5F5F5F5F5F5F5F5F5F5F5F5F5F5F5F5F5F5F5F5F5F5F5F5F5F5F5F5F5F5F5F5F5F5F5F5E2F5F5F5E2F5F5F5F5F5E2F5F5F5F5E2F5F5F5F5E2E2F5F5E2E2F5E2F5E2F5F5E2F5E2F5F5E2F5F5F5F5F5F5F5F5F5F5F5F5F5F5F5F5F5F5F5F5F5F5F5F5F5F5F5F5F5F5F5F5F5F5F5F5F5F5F5F5F5F5F5F5F5F5F5
310
F5F5F5F5E2F5F5F5F5F5F5F5F5F5F5F5F5F5F5F5F5E2F5E2E2E2E2F5E2F5F5F5F5F5F5F5F5F5F5F5F5F5F5F5F5E2F5F5F5F5F5F5F5F5F5F5F5F5F5F5F5F5F5F5F5F5F5F5F5F5F5F5F5F5F5F5F5F5F5F5F5F5F5F5F5F5F5F5F5F5F5F5F5F5F5E2F5F5F5E2F5F5F5F5F5E2F5F5E2E2E2F5F5E2E2E2F5F5F5E2E2E2E2E2E2F5F5
310
E2F5F5F5F5E2F5F5F5F5F5F5F5F5F5F5F5F5F5F5F5F5F5F5F5F5F5F5F5F5F5F5F5F5F5F5F5F5F5F5F5F5F5F5F5F5F5F5F5F5F5F5F5F5F5F5F5E2F5F5F5F5F5F5F5F5F5F5F5F5F5F5F5F5E2F5E2E2E2E2F5F5F5F5F5F5F5F5F5F5F5F5F5F5F5F5F5F5E2F5F5F5F5F5F5F5F5F5F5F5F5F5F5F5F5F5F5F5F5F5F5F5F5F5F5F5F5
310
F5F5F5F5F5F5F5F5F5F5F5F5F5F5F5F5F5F5F5F5F5E2F5F5F5E2F5F5F5F5F5E2F5E2F5F5E2F5E2F5F5E2F5F5E2E2F5E2F5E2E2E2E2F5F5F5F5E2E2F5F5F5F5F5F5F5F5F5F5F5F5F5F5F5F5F5F5F5F5F5F5F5F5F5F5F5F5F5F5F5F5F5F5F5F5F5F5F5F5F5F5F5F5F5F5F5F5F5F5F5E2F5F5F5F5F5F5F5F5F5F5F5F5F5F5F5F5
310
F5F5E2E2E2E2F5F5F5F5F5F5F5F5F5F5F5F5F5F5F5F5F5F5E2F5F5F5F5F5F5F5F5F5F5F5F5F5F5F5F5F5F5F5F5F5F5F5F5F5F5F5F5F5F5F5F5F5F5F5F5F5F5F5F5F5F5F5F5F5F5F5F5F5E2F5F5F5E2F5F5F5F5F5E2F5E2F5F5E2F5E2F5F5E2F5F5F5E2E2E2E2E2E2F5F5F5F5F5F5F5E2F5F5F5F5F5F5F5F5F5F5F5F5F5F5F5
310
F5F5F5F5F5F5F5F5F5F5F5F5F5F5F5F5F5F5F5F5F5F5F5F5F5F5F5F5F5F5F5F5F5F5F5F5E2F5F5F5F5F5F5F5F5F5F5F5F5F5F5F5F5F5F5E2E2E2E2F5F5F5F5F5F5F5F5F5F5F5F5F5F5F5F5F5F5E2F5F5F5F5F5F5F5F5F5F5F5F5F5F5F5F5F5F5F5F5F5F5F5F5F5F5F5F5F5F5F5F5F5F5F5F5F5F5F5F5F5F5F5F5F5F5F5F5F5
310
E2F5F5F5E2F5F5F5E2E2E2E2E2E2E2F5F5F5E2E2F5E2E2E2E2F5E2F5E2F5E2E2E2F5E2E2E2E2F5F5F5F5F5F5F5F5F5F5F5F5F5F5F5F5F5F5F5F5F5F5F5F5F5F5F5F5F5F5F5F5F5F5F5F5F5F5F5F5F5F5F5F5F5F5F5F5F5F5F5E2F5F5F5F5F5F5F5F5F5F5F5F5F5F5F5F5F5F5E2E2E2E2F5F5F5F5F5F5F5F5F5F5F5F5F5F5F5
310
F5F5F5E2F5F5F5F5F5F5F5F5F5F5F5F5F5F5F5F5F5F5F5F5F5F5F5F5F5F5F5F5F5F5F5F5F5F5F5F5F5F5F5F5F5F5F5F5F5F5F5F5F5F5F5F5F5F5F5F5F5F5F5F5F5F5F5F5F5F5F5F5F5F5F5F5F5F5F5F5F5F5F5F5F5F5F5F5F5F5F5F5F5F5F5F5F5F5F5F5F5F5F5F5F5F5F5F5F5F5F5F5F5F5F5F5F5F5F5F5F5F5F5F5F5F5F5
310
F5F5F5F5F5F5F5F5F5F5F5F5F5F5F5E2F5F5F5F5F5F5F5F5F5F5F5F5F5F5F5F5F5F5E2E2E2E2F5F5F5F5F5F5F5F5F5F5F5F5F5F5F5F5F5F5E2E2E2E2E2E2E2E2E2E2E2E2E2E2E2E2E2E2E2E2E2E2E2E2E2E2E2E2E2E2E2E2E2E2E2E2E2E2E2E2E2E2E2E2E2E2E2E2E2E2E2E2E2E2E2E2E2E2E2E2E2E2E2E2E2E2E2E2E2E2E2
310
E2E2E2E2E2E2E2E2E2E2E2E2E2E2E2E2E2E2E2E2E2E2E2E2E2E2E2E2E2E2E2E2E2E2E2E2E2E2E2E2E2E2E2E2E2E2E2E2E2E2E2E2E2E2E2E2E2E2E2E2E2E2E2E2E2E2E2E2E2F5F5F5F5F5F5F5F5F5F5F5F5F5F5F5F5F5F5E2E2E2E2F5F5F5F5F5F5F5F5F5F5F5F5F5F5F5F5F5F5F5F5F5F5F5F5F5F5F5F5F5F5F5F5F5F5F5F5
310
F5F5F5F5F5F5F5F5F5F5F5F5F5F5F5F5F5F5F5F5F5F5F5F5F5F5F5F5F5F5F5F5F5F5F5F5F5F5F5F5F5F5F5F5F5F5F5F5F5F5F5F5F5F5F5F5F5F5F5F5F5F5F5F5F5F5F5F5F5F5F5F5F5F5F5F5F5F5F5F5F5F5F5F5F5F5F5F5F5F5F5F5F5F5F5F5F5F5F5F5F5F5F5F5F5F5F5F5F5F5F5F5F5F5F5F5F5F5F5F5F5F5F5F5F5F5F5
310
F5F5F5F5F5F5F5F5F5F5F5F5F5E2E2E2E2F5F5F5F5F5F5F5F5F5F5F5F5F5F5F5F5F5F5F5F5F5F5F5F5F5F5F5F5F5F5F5F5F5F5F5F5F5F5F5F5F5F5F5F5F5F5F5F5F5F5F5F5F5F5F5F5F5F5F5F5F5F5F5F5F5F5F5F5F5F5F5F5F5F5F5F5F5F5F5F5F5F5F5F5F5F5F5F5F5F5F5F5F5F5F5F5F5F5F5F5F5F5F5F5F5F5F5F5F5F5
310
F5F5F5F5F5F5F5F5F5F5F5F5F5F5F5F5F5F5F5F5F5F5F5F5F5F5F5F5F5F5F5F5F5F5F5F5F5F5F5F5F5F5F5F5F5F5F5F5F5F5F5F5F5F5F5F5F5F5F5F5F5F5F5F5F5F5E2E2E2E2F5F5F5F5F5F5F5F5F5F5F5F5F5F5F5F5F5F5F5F5F5F5F5F5F5F5F5F5F5F5F5F5F5F5F5F5F5F5F5F5F5F5F5F5F5F5F5F5F5F5F5F5F5F5F5F5F5
310
F5F5F5F5F5F5F5F5F5F5F5F5F5F5F5F5F5F5F5F5F5F5F5F5F5F5F5F5F5F5F5F5F5F5F5F5F5F5F5F5F5F5F5F5F5F5F5F5F5F5F5F5F5F5F5F5F5F5F5F5F5F5F5F5F5F5F5F5F5F5F5F5F5F5F5F5F5F5F5F5F5F5F5F5F5F5F5F5F5F5F5F5F5F5F5F5F5F5F5F5F5F5F5F5F5F5F5F5F5F5F5F5F5F5F5F5F5F5F5E2E2E2E2F5F5F5F5
310
F5F5F5F5F5F5F5F5F5F5F5F5F5F5F5F5F5F5F5F5F5F5F5F5F5F5F5F5F5F5F5F5F5F5F5F5F5F5F5F5F5F5F5F5F5F5F5F5F5F5F5F5F5F5F5F5F5F5F5F5F5F5F5F5F5F5F5F5F5F5F5F5F5F5F5F5F5F5F5F5F5F5F5F5F5F5F5F5F5F5F5F5F5F5F5F5F5F5F5F5F5F5F5F5F5F5F5F5F5F5F5F5F5F5F5F5F5F5F5F5F5F5F5F5F5F5F5
310
F5F5F5F5F5F5F5F5F5F5F5F5F5F5F5F5F5F5F5F5F5F5F5F5F5F5F5F5F5F5F5F5F5F5F5F5F5F5F5F5F5F5F5F5F5E2E2E2E2F5F5F5F5F5F5F5F5F5F5F5F5F5F5F5F5F5F5F5F5F5F5F5F5F5F5F5F5F5F5F5F5F5F5F5F5F5F5F5F5F5F5F5F5F5F5F5F5F5F5F5F5F5F5F5F5F5F5F5F5F5F5F5F5F5F5F5F5F5F5F5F5F5F5F5F5F5F5
310
F5F5F5F5F5F5F5F5F5F5F5F5F5F5F5F5F5F5F5F5F5F5F5F5F5F5F5F5F5F5F5F5F5F5F5F5F5F5F5F5F5F5F5F5F5F5F5F5F5F5F5F5F5F5F5F5F5F5F5F5F5F5F5F5F5F5F5F5F5F5F5F5F5F5F5F5F5F5F5F5F5F5F5F5F5F5F5F5F5F5F5F5F5F5F5F5F5F5E2E2E2E2F5E2F5F5F5F5F5F5F5F5F5F5F5F5F5F5F5F5F5F5F5F5F5F5F5
310
F5F5F5F5F5F5F5F5F5F5F5F5F5F5F5F5F5F5F5F5F5F5F5F5F5F5F5F5F5F5F5F5F5F5F5F5F5F5F5F5F5F5F5F5F5F5F5F5F5F5F5F5F5F5F5F5F5F5F5F5F5F5F5F5F5F5F5F5F5F5F5F5F5F5F5F5F5F5F5F5F5F5F5F5F5F5F5F5F5F5F5F5F5F5F5F5F5F5F5F5F5F5F5F5F5F5F5F5F5F5F5F5F5F5F5F5F5F5F5F5F5F5F5F5F5F5F5
310
F5F5F5F5F5F5F5F5F5F5F5F5F5F5F5F5F5F5F5F5F5F5E2F5E2E2E2E2F5E2F5F5F5F5F5F5F5F5F5F5F5F5F5F5F5F5F5F5F5F5F5F5F5F5F5F5F5F5F5F5F5F5F5F5F5F5F5F5F5F5F5F5F5F5F5F5F5F5F5F5F5F5F5F5F5F5F5F5F5F5F5F5F5F5F5F5F5F5F5F5F5F5F5F5F5F5F5F5F5F5F5F5F5F5F5F5F5F5F5F5F5F5F5F5F5F5F5
310
F5F5F5F5F5F5F5F5F5F5F5F5F5F5F5F5F5F5F5F5F5F5F5F5F5F5F5F5F5F5F5F5F5F5F5F5F5F5F5F5F5F5F5F5F5F5F5F5F5F5F5F5F5F5F5F5F5F5F5F5F5F5F5F5F5F5F5F5F5F5F5F5F5F5F5E2F5E2E2E2E2F5E2F5F5F5F5F5F5F5F5F5F5F5F5F5F5F5F5F5F5F5F5F5F5F5F5F5F5F5F5F5F5F5F5F5F5F5F5F5F5F5F5F5F5F5F5
310
F5F5F5F5F5F5F5F5F5F5F5F5F5F5F5F5F5F5F5F5F5F5F5F5F5F5F5F5F5F5F5F5F5F5F5F5F5F5F5F5F5F5F5F5F5F5F5F5F5F5F5F5F5F5F5F5F5F5F5F5F5F5F5F5F5F5F5F5F5F5F5F5F5F5F5F5F5F5F5F5F5F5F5F5F5F5F5F5F5F5F5F5F5F5F5F5F5F5F5F5F5F5F5F5F5F5F5F5F5F5F5F5F5F5F5F5F5F5F5F5F5F5F5F5F5F5F5
310
F5E2F5E2E2E2E2F5E2F5F5F5F5F5F5F5F5F5F5F5F5F5F5F5F5F5F5F5F5F5F5F5F5F5F5F5F5F5F5F5F5F5F5F5F5F5F5F5F5F5F5F5F5F5F5F5F5F5F5F5F5F5F5F5F5F5F5F5F5F5F5F5F5F5F5F5F5F5F5F5F5F5F5F5F5F5F5F5F5F5F5F5F5F5F5F5F5F5F5F5F5F5F5F5F5F5F5F5F5F5F5F5F5F5F5F5F5F5F5F5F5F5F5F5F5F5F5
310
F5F5F5F5F5F5F5F5F5F5F5F5F5F5F5F5F5F5F5F5F5F5F5F5F5F5F5F5F5F5F5F5F5F5F5F5F5F5F5F5F5F5F5F5F5F5F5F5F5F5F5F5F5F5E2F5E2E2E2E2F5E2F5F5F5F5F5F5F5F5F5F5F5F5F5F5F5F5F5F5F5F5F5F5F5F5F5F5F5F5F5F5F5F5F5F5F5F5F5F5F5F5F5F5F5F5F5F5F5F5F5F5F5F5F5F5F5F5F5F5F5F5F5F5F5F5F5
310
F5F5F5F5F5F5F5F5F5F5F5F5F5F5F5F5F5F5F5F5F5F5F5F5F5F5F5F5F5F5F5F5F5F5F5F5F5F5F5F5F5F5F5F5F5F5F5F5F5F5F5F5F5F5F5F5F5F5F5F5F5F5F5F5F5F5F5F5F5F5F5F5F5F5F5F5F5F5F5F5F5F5F5F5F5F5F5F5F5F5F5F5F5F5F5F5F5F5F5F5F5F5F5F5F5F5F5E2F5E2E2E2E2F5E2F5F5F5F5F5F5F5F5F5F5F5F5
310
F5F5F5F5F5F5F5F5F5F5F5F5F5F5F5F5F5F5F5F5F5F5F5F5F5F5F5F5F5F5F5F5F5F5F5F5F5F5F5F5F5F5F5F5F5F5F5F5F5F5F5F5F5F5F5F5F5F5F5F5F5F5F5F5F5F5F5F5F5F5F5F5F5F5F5F5F5F5F5F5F5F5F5F5F5F5F5F5F5F5F5F5F5F5F5F5F5F5F5F5F5F5F5F5F5F5F5F5F5F5F5F5F5F5F5F5F5F5F5F5F5F5F5F5F5F5F5
310
F5F5F5F5F5F5F5F5F5F5F5F5F5F5F5F5F5F5F5F5F5F5F5F5F5F5F5F5F5F5F5F5F5E2F5E2E2E2E2F5E2F5F5F5F5F5F5F5F5F5F5F5F5F5F5F5F5F5F5F5F5F5F5F5F5F5F5F5F5F5F5F5F5F5F5F5F5F5F5F5F5F5F5F5F5F5F5F5F5F5F5F5F5F5F5F5F5F5F5F5F5F5F5F5F5F5F5F5F5F5F5F5F5F5F5F5F5F5F5F5F5F5F5F5F5F5F5
310
F5F5F5F5F5F5F5F5F5F5F5F5F5F5F5F5F5F5F5F5F5F5F5F5F5F5F5F5F5F5F5F5F5F5F5F5F5F5F5F5F5F5F5F5F5F5F5F5F5F5F5F5F5F5F5F5F5F5F5F5F5F5F5F5F5F5F5F5F5F5F5F5F5F5F5F5F5F5F5F5F5F5F5F5F5F5E2F5E2E2E2E2F5E2F5F5F5F5F5F5F5F5F5F5F5F5F5F5F5F5F5F5F5F5F5F5F5F5F5F5F5F5F5F5F5F5F5
310
F5F5F5F5F5F5F5F5F5F5F5F5F5F5F5F5F5F5F5F5F5F5F5F5F5F5F5F5F5F5F5F5F5F5F5F5F5F5F5F5F5F5F5F5F5F5F5F5F5F5F5F5F5F5F5F5F5F5F5F5F5F5F5F5F5F5F5F5F5F5F5F5F5F5F5F5F5F5F5F5F5F5F5F5F5F5F5F5F5F5F5F5F5F5F5F5F5F5F5F5F5F5F5F5F5F5F5F5F5F5F5F5F5F5F5F5F5F5F5F5F5F5F5F5F5F5F5
310
F5F5F5F5F5F5F5F5F5F5F5F5E2F5E2E2E2E2F5E2E2E2E2E2E2E2E2F5F5F5F5F5F5F5F5F5E2E2E2E2E2E2E2E2E2E2E2E2E2E2E2E2F5F5F5F5F5F5F5F5F5E2E2E2E2E2E2E2E2E2E2E2E2E2E2E2E2F5F5F5F5F5F5F5F5F5E2E2E2E2E2E2E2E2E2E2E2E2E2E2E2E2F5F5F5F5F5F5F5F5E2E2E2E2E2E2E2E2E2E2E2E2E2E2E2E2F5
310
F5F5F5F5F5F5F5F5E2E2E2E2E2E2E2E2E2E2E2E2E2E2E2E2F5F5F5F5F5F5F5F5F5E2E2E2E2E2E2E2E2E2E2E2E2E2E2E2E2F5F5F5F5F5F5F5F5F5E2E2E2E2E2E2E2E2F5E2EFEFE2F5F5F5F5F5F5F5F5F5F5F5F5F5F5F5F5F5F5F5F5F5F5F5F5F5F5F5F5F5F5F5F5F5F5F5F5F5F5F5F5F5F5F5F5F5F5F5F5F5F5F5F5F5F5F5F5
310
F5F5F5F5F5F5F5F5F5F5F5F5F5F5F5F5F5F5F5F5F5F5F5F5F5F5F5F5F5F5F5F5F5F5F5F5F5F5F5F5F5F5F5F5F5F5F5F5F5F5F5F5F5F5F5F5F5F5F5F5F5F5F5F5F5F5F5F5F5F5F5F5F5F5F5F5F5F5F5F5F5F5F5F5F5F5F5F5F5F5F5F5F5F5F5F5F5F5F5F5F5F5F5F5F5F5F5F5F5F5F5F5F5F5F5F5F5F5F5F5E2EFEFE2E2E2E2
310
E2E2E2E2E2E2E2E2E2E2E2E2E2E2E2E2E2E2E2E2E2E2E2E2E2E2E2E2E2E2E2E2E2E2E2E2E2E2E2E2E2E2E2E2E2E2E2E2E2E2E2E2E2E2E2E2E2E2E2E2E2E2E2E2E2E2E2E2E2E2E2E2E2E2E2E2E2E2E2E2E2E2E2E2E2E2E2E2E2E2E2E2E2E2E2E2E2E2E2E2E2E2E2E2E2E2E2E2E2E2E2E2E2E2E2E2E2E2E2E2E2E2E2E2E2E2E2
310
E2E2E2E2E2E2E2E2E2E2E2E2E2E2E2E2E2E2E2E2E2E2E2E2E2E2E2E2E2E2E2E2E2E2E2E2E2E2E2E2E2E2E2E2E2E2E2EFEF
  0
XRECORD
  5
DFB5
102
{ACAD_REACTORS
330
DF64
102
}
330
DF64
100
AcDbXrecord
280
     1
102
MATERIAL
148
0.0
149
0.0
149
0.0
 93
        0
 94
      127
282
     0
 72
     0
 77
     0
171
     0
175
     0
179
     0
273
     0
  0
XRECORD
  5
DF66
102
{ACAD_REACTORS
330
DF64
102
}
330
DF64
100
AcDbXrecord
280
     1
270
     1
271
     1
  0
XRECORD
  5
DF65
102
{ACAD_REACTORS
330
DF64
102
}
330
DF64
100
AcDbXrecord
280
     1
270
     1
271
     1
  0
XRECORD
  5
DF69
102
{ACAD_REACTORS
330
DF64
102
}
330
DF64
100
AcDbXrecord
280
     1
270
     1
271
     1
  0
XRECORD
  5
DF68
102
{ACAD_REACTORS
330
DF64
102
}
330
DF64
100
AcDbXrecord
280
     1
270
     1
271
     1
  0
XRECORD
  5
DF6A
102
{ACAD_REACTORS
330
DF64
102
}
330
DF64
100
AcDbXrecord
280
     1
270
     1
271
     1
  0
XRECORD
  5
DF67
102
{ACAD_REACTORS
330
DF64
102
}
330
DF64
100
AcDbXrecord
280
     1
270
     1
271
     1
  0
XRECORD
  5
DFB4
102
{ACAD_REACTORS
330
DF5C
102
}
330
DF5C
100
AcDbXrecord
280
     1
102
MATERIAL
148
0.0
149
0.0
149
0.0
 93
        0
 94
      127
282
     0
 72
     0
 77
     0
171
     0
175
     0
179
     0
273
     0
  0
XRECORD
  5
DF5E
102
{ACAD_REACTORS
330
DF5C
102
}
330
DF5C
100
AcDbXrecord
280
     1
270
     1
271
     1
  0
XRECORD
  5
DF5D
102
{ACAD_REACTORS
330
DF5C
102
}
330
DF5C
100
AcDbXrecord
280
     1
270
     1
271
     1
  0
XRECORD
  5
DF61
102
{ACAD_REACTORS
330
DF5C
102
}
330
DF5C
100
AcDbXrecord
280
     1
270
     1
271
     1
  0
XRECORD
  5
DF60
102
{ACAD_REACTORS
330
DF5C
102
}
330
DF5C
100
AcDbXrecord
280
     1
270
     1
271
     1
  0
XRECORD
  5
DF62
102
{ACAD_REACTORS
330
DF5C
102
}
330
DF5C
100
AcDbXrecord
280
     1
270
     1
271
     1
  0
XRECORD
  5
DF5F
102
{ACAD_REACTORS
330
DF5C
102
}
330
DF5C
100
AcDbXrecord
280
     1
270
     1
271
     1
  0
XRECORD
  5
DFB3
102
{ACAD_REACTORS
330
DFB2
102
}
330
DFB2
100
AcDbXrecord
280
     1
102
MATERIAL
148
0.0
149
0.0
149
0.0
 93
        0
 94
       63
282
     0
 72
     1
 77
     1
171
     1
175
     1
179
     1
273
     0
  0
XRECORD
  5
DFAA
102
{ACAD_REACTORS
330
DFA9
102
}
330
DFA9
100
AcDbXrecord
280
     1
102
ACAD_ROUNDTRIP_2012_MLEADER_STYLE
298
     1
  0
CELLSTYLEMAP
  5
DFA8
102
{ACAD_REACTORS
330
DFA7
102
}
330
DFA7
100
AcDbCellStyleMap
 90
        3
300
CELLSTYLE
  1
TABLEFORMAT_BEGIN
 90
        5
170
     1
 91
        0
 92
    32768
 62
   257
 93
        1
300
CONTENTFORMAT
  1
CONTENTFORMAT_BEGIN
 90
        0
 91
        0
 92
        4
 93
        0
300

 40
0.0
140
1.0
 94
        5
 62
     0
340
11
144
0.25
309
CONTENTFORMAT_END
171
     0
 94
        6
 95
        1
302
GRIDFORMAT
  1
GRIDFORMAT_BEGIN
 90
        0
 91
        1
 62
     0
 92
       -2
340
0
 93
        0
 40
0.045
309
GRIDFORMAT_END
 95
        2
302
GRIDFORMAT
  1
GRIDFORMAT_BEGIN
 90
        0
 91
        1
 62
     0
 92
       -2
340
0
 93
        0
 40
0.045
309
GRIDFORMAT_END
 95
        4
302
GRIDFORMAT
  1
GRIDFORMAT_BEGIN
 90
        0
 91
        1
 62
     0
 92
       -2
340
0
 93
        0
 40
0.045
309
GRIDFORMAT_END
 95
        8
302
GRIDFORMAT
  1
GRIDFORMAT_BEGIN
 90
        0
 91
        1
 62
     0
 92
       -2
340
0
 93
        0
 40
0.045
309
GRIDFORMAT_END
 95
       16
302
GRIDFORMAT
  1
GRIDFORMAT_BEGIN
 90
        0
 91
        1
 62
     0
 92
       -2
340
0
 93
        0
 40
0.045
309
GRIDFORMAT_END
 95
       32
302
GRIDFORMAT
  1
GRIDFORMAT_BEGIN
 90
        0
 91
        1
 62
     0
 92
       -2
340
0
 93
        0
 40
0.045
309
GRIDFORMAT_END
309
TABLEFORMAT_END
  1
CELLSTYLE_BEGIN
 90
        1
 91
        1
300
_TITLE
309
CELLSTYLE_END
300
CELLSTYLE
  1
TABLEFORMAT_BEGIN
 90
        5
170
     1
 91
        0
 92
        0
 62
   257
 93
        1
300
CONTENTFORMAT
  1
CONTENTFORMAT_BEGIN
 90
        0
 91
        0
 92
        4
 93
        0
300

 40
0.0
140
1.0
 94
        5
 62
     0
340
11
144
0.18
309
CONTENTFORMAT_END
171
     0
 94
        6
 95
        1
302
GRIDFORMAT
  1
GRIDFORMAT_BEGIN
 90
        0
 91
        1
 62
     0
 92
       -2
340
0
 93
        0
 40
0.045
309
GRIDFORMAT_END
 95
        2
302
GRIDFORMAT
  1
GRIDFORMAT_BEGIN
 90
        0
 91
        1
 62
     0
 92
       -2
340
0
 93
        0
 40
0.045
309
GRIDFORMAT_END
 95
        4
302
GRIDFORMAT
  1
GRIDFORMAT_BEGIN
 90
        0
 91
        1
 62
     0
 92
       -2
340
0
 93
        0
 40
0.045
309
GRIDFORMAT_END
 95
        8
302
GRIDFORMAT
  1
GRIDFORMAT_BEGIN
 90
        0
 91
        1
 62
     0
 92
       -2
340
0
 93
        0
 40
0.045
309
GRIDFORMAT_END
 95
       16
302
GRIDFORMAT
  1
GRIDFORMAT_BEGIN
 90
        0
 91
        1
 62
     0
 92
       -2
340
0
 93
        0
 40
0.045
309
GRIDFORMAT_END
 95
       32
302
GRIDFORMAT
  1
GRIDFORMAT_BEGIN
 90
        0
 91
        1
 62
     0
 92
       -2
340
0
 93
        0
 40
0.045
309
GRIDFORMAT_END
309
TABLEFORMAT_END
  1
CELLSTYLE_BEGIN
 90
        2
 91
        1
300
_HEADER
309
CELLSTYLE_END
300
CELLSTYLE
  1
TABLEFORMAT_BEGIN
 90
        5
170
     1
 91
        0
 92
        0
 62
   257
 93
        1
300
CONTENTFORMAT
  1
CONTENTFORMAT_BEGIN
 90
        0
 91
        0
 92
        4
 93
        0
300

 40
0.0
140
1.0
 94
        2
 62
     0
340
11
144
0.18
309
CONTENTFORMAT_END
171
     0
 94
        6
 95
        1
302
GRIDFORMAT
  1
GRIDFORMAT_BEGIN
 90
        0
 91
        1
 62
     0
 92
       -2
340
0
 93
        0
 40
0.045
309
GRIDFORMAT_END
 95
        2
302
GRIDFORMAT
  1
GRIDFORMAT_BEGIN
 90
        0
 91
        1
 62
     0
 92
       -2
340
0
 93
        0
 40
0.045
309
GRIDFORMAT_END
 95
        4
302
GRIDFORMAT
  1
GRIDFORMAT_BEGIN
 90
        0
 91
        1
 62
     0
 92
       -2
340
0
 93
        0
 40
0.045
309
GRIDFORMAT_END
 95
        8
302
GRIDFORMAT
  1
GRIDFORMAT_BEGIN
 90
        0
 91
        1
 62
     0
 92
       -2
340
0
 93
        0
 40
0.045
309
GRIDFORMAT_END
 95
       16
302
GRIDFORMAT
  1
GRIDFORMAT_BEGIN
 90
        0
 91
        1
 62
     0
 92
       -2
340
0
 93
        0
 40
0.045
309
GRIDFORMAT_END
 95
       32
302
GRIDFORMAT
  1
GRIDFORMAT_BEGIN
 90
        0
 91
        1
 62
     0
 92
       -2
340
0
 93
        0
 40
0.045
309
GRIDFORMAT_END
309
TABLEFORMAT_END
  1
CELLSTYLE_BEGIN
 90
        3
 91
        2
300
_DATA
309
CELLSTYLE_END
  0
XRECORD
  5
DFB1
102
{ACAD_REACTORS
330
DFA7
102
}
330
DFA7
100
AcDbXrecord
280
     1
102
ACAD_ROUNDTRIP_PRE2007_TABLESTYLE
 90
        4
 91
        0
  1

 92
        4
 93
        0
  2

 94
        4
 95
        0
  3

  0
XRECORD
  5
DFC1
102
{ACAD_REACTORS
330
DFC0
102
}
330
DFC0
100
AcDbXrecord
280
     1
102
RTVSPropertyOp0
 70
     1
102
RTVSPropertyOp1
 70
     1
102
RTVSPropertyOp2
 70
     1
102
RTVSPropertyOp3
 70
     1
102
RTVSPropertyOp4
 70
     1
102
RTVSPropertyOp5
 70
     1
102
RTVSPropertyOp6
 70
     1
102
RTVSPropertyOp7
 70
     1
102
RTVSPropertyOp8
 70
     1
102
RTVSPropertyOp9
 70
     1
102
RTVSPropertyOp10
 70
     1
102
RTVSPropertyOp11
 70
     1
102
RTVSPropertyOp12
 70
     1
102
RTVSPropertyOp13
 70
     1
102
RTVSPropertyOp14
 70
     1
102
RTVSPropertyOp15
 70
     1
102
RTVSPropertyOp16
 70
     1
102
RTVSPropertyOp17
 70
     1
102
RTVSPropertyOp18
 70
     1
102
RTVSPropertyOp19
 70
     1
102
RTVSPropertyOp20
 70
     1
102
RTVSPropertyOp21
 70
     1
102
RTVSPropertyOp22
 70
     1
102
RTVSPropertyOp23
 70
     1
102
RTVSPropertyOp24
 70
     1
102
RTVSPropertyOp25
 70
     1
102
RTVSPropertyOp26
 70
     1
102
RTVSPropertyOp27
 70
     1
102
RTVSPropertyOp28
 70
     1
102
RTVSPropertyOp29
 70
     1
102
RTVSPropertyOp30
 70
     1
102
RTVSPropertyOp31
 70
     1
102
RTVSPropertyOp32
 70
     1
  0
XRECORD
  5
DFBF
102
{ACAD_REACTORS
330
DFBE
102
}
330
DFBE
100
AcDbXrecord
280
     1
102
RTVSPropertyOp0
 70
     1
102
RTVSPropertyOp1
 70
     1
102
RTVSPropertyOp2
 70
     1
102
RTVSPropertyOp3
 70
     1
102
RTVSPropertyOp4
 70
     1
102
RTVSPropertyOp5
 70
     1
102
RTVSPropertyOp6
 70
     1
102
RTVSPropertyOp7
 70
     1
102
RTVSPropertyOp8
 70
     1
102
RTVSPropertyOp9
 70
     1
102
RTVSPropertyOp10
 70
     1
102
RTVSPropertyOp11
 70
     1
102
RTVSPropertyOp12
 70
     1
102
RTVSPropertyOp13
 70
     1
102
RTVSPropertyOp14
 70
     1
102
RTVSPropertyOp15
 70
     1
102
RTVSPropertyOp16
 70
     1
102
RTVSPropertyOp17
 70
     1
102
RTVSPropertyOp18
 70
     1
102
RTVSPropertyOp19
 70
     1
102
RTVSPropertyOp20
 70
     1
102
RTVSPropertyOp21
 70
     1
102
RTVSPropertyOp22
 70
     1
102
RTVSPropertyOp23
 70
     1
102
RTVSPropertyOp24
 70
     1
102
RTVSPropertyOp25
 70
     1
102
RTVSPropertyOp26
 70
     1
102
RTVSPropertyOp27
 70
     1
102
RTVSPropertyOp28
 70
     1
102
RTVSPropertyOp29
 70
     1
102
RTVSPropertyOp30
 70
     1
102
RTVSPropertyOp31
 70
     1
102
RTVSPropertyOp32
 70
     1
  0
XRECORD
  5
DFCD
102
{ACAD_REACTORS
330
DFCC
102
}
330
DFCC
100
AcDbXrecord
280
     1
102
RTVSPropertyOp0
 70
     1
102
RTVSPropertyOp1
 70
     1
102
RTVSPropertyOp2
 70
     1
102
RTVSPropertyOp3
 70
     1
102
RTVSPropertyOp4
 70
     1
102
RTVSPropertyOp5
 70
     1
102
RTVSPropertyOp6
 70
     1
102
RTVSPropertyOp7
 70
     1
102
RTVSPropertyOp8
 70
     1
102
RTVSPropertyOp9
 70
     1
102
RTVSPropertyOp10
 70
     1
102
RTVSPropertyOp11
 70
     1
102
RTVSPropertyOp12
 70
     1
102
RTVSPropertyOp13
 70
     1
102
RTVSPropertyOp14
 70
     1
102
RTVSPropertyOp15
 70
     1
102
RTVSPropertyOp16
 70
     1
102
RTVSPropertyOp17
 70
     1
102
RTVSPropertyOp18
 70
     1
102
RTVSPropertyOp19
 70
     1
102
RTVSPropertyOp20
 70
     1
102
RTVSPropertyOp21
 70
     1
102
RTVSPropertyOp22
 70
     1
102
RTVSPropertyOp23
 70
     1
102
RTVSPropertyOp24
 70
     1
102
RTVSPropertyOp25
 70
     1
102
RTVSPropertyOp26
 70
     1
102
RTVSPropertyOp27
 70
     1
102
RTVSPropertyOp28
 70
     1
102
RTVSPropertyOp29
 70
     1
102
RTVSPropertyOp30
 70
     1
102
RTVSPropertyOp31
 70
     1
102
RTVSPropertyOp32
 70
     1
  0
XRECORD
  5
DFD5
102
{ACAD_REACTORS
330
DFD4
102
}
330
DFD4
100
AcDbXrecord
280
     1
102
RTVSPropertyOp0
 70
     1
102
RTVSPropertyOp1
 70
     1
102
RTVSPropertyOp2
 70
     1
102
RTVSPropertyOp3
 70
     1
102
RTVSPropertyOp4
 70
     1
102
RTVSPropertyOp5
 70
     1
102
RTVSPropertyOp6
 70
     1
102
RTVSPropertyOp7
 70
     1
102
RTVSPropertyOp8
 70
     1
102
RTVSPropertyOp9
 70
     1
102
RTVSPropertyOp10
 70
     1
102
RTVSPropertyOp11
 70
     1
102
RTVSPropertyOp12
 70
     1
102
RTVSPropertyOp13
 70
     1
102
RTVSPropertyOp14
 70
     1
102
RTVSPropertyOp15
 70
     1
102
RTVSPropertyOp16
 70
     1
102
RTVSPropertyOp17
 70
     1
102
RTVSPropertyOp18
 70
     1
102
RTVSPropertyOp19
 70
     1
102
RTVSPropertyOp20
 70
     1
102
RTVSPropertyOp21
 70
     1
102
RTVSPropertyOp22
 70
     1
102
RTVSPropertyOp23
 70
     1
102
RTVSPropertyOp24
 70
     1
102
RTVSPropertyOp25
 70
     1
102
RTVSPropertyOp26
 70
     1
102
RTVSPropertyOp27
 70
     1
102
RTVSPropertyOp28
 70
     1
102
RTVSPropertyOp29
 70
     1
102
RTVSPropertyOp30
 70
     1
102
RTVSPropertyOp31
 70
     1
102
RTVSPropertyOp32
 70
     1
  0
XRECORD
  5
DFC7
102
{ACAD_REACTORS
330
DFC6
102
}
330
DFC6
100
AcDbXrecord
280
     1
102
RTVSPropertyOp0
 70
     1
102
RTVSPropertyOp1
 70
     1
102
RTVSPropertyOp2
 70
     1
102
RTVSPropertyOp3
 70
     1
102
RTVSPropertyOp4
 70
     1
102
RTVSPropertyOp5
 70
     1
102
RTVSPropertyOp6
 70
     1
102
RTVSPropertyOp7
 70
     1
102
RTVSPropertyOp8
 70
     1
102
RTVSPropertyOp9
 70
     1
102
RTVSPropertyOp10
 70
     1
102
RTVSPropertyOp11
 70
     1
102
RTVSPropertyOp12
 70
     1
102
RTVSPropertyOp13
 70
     1
102
RTVSPropertyOp14
 70
     1
102
RTVSPropertyOp15
 70
     1
102
RTVSPropertyOp16
 70
     1
102
RTVSPropertyOp17
 70
     1
102
RTVSPropertyOp18
 70
     1
102
RTVSPropertyOp19
 70
     1
102
RTVSPropertyOp20
 70
     1
102
RTVSPropertyOp21
 70
     1
102
RTVSPropertyOp22
 70
     1
102
RTVSPropertyOp23
 70
     1
102
RTVSPropertyOp24
 70
     1
102
RTVSPropertyOp25
 70
     1
102
RTVSPropertyOp26
 70
     1
102
RTVSPropertyOp27
 70
     1
102
RTVSPropertyOp28
 70
     1
102
RTVSPropertyOp29
 70
     1
102
RTVSPropertyOp30
 70
     1
102
RTVSPropertyOp31
 70
     1
102
RTVSPropertyOp32
 70
     1
  0
XRECORD
  5
DFCB
102
{ACAD_REACTORS
330
DFCA
102
}
330
DFCA
100
AcDbXrecord
280
     1
102
RTVSPropertyOp0
 70
     1
102
RTVSPropertyOp1
 70
     1
102
RTVSPropertyOp2
 70
     1
102
RTVSPropertyOp3
 70
     1
102
RTVSPropertyOp4
 70
     1
102
RTVSPropertyOp5
 70
     1
102
RTVSPropertyOp6
 70
     1
102
RTVSPropertyOp7
 70
     1
102
RTVSPropertyOp8
 70
     1
102
RTVSPropertyOp9
 70
     1
102
RTVSPropertyOp10
 70
     1
102
RTVSPropertyOp11
 70
     1
102
RTVSPropertyOp12
 70
     1
102
RTVSPropertyOp13
 70
     1
102
RTVSPropertyOp14
 70
     1
102
RTVSPropertyOp15
 70
     1
102
RTVSPropertyOp16
 70
     1
102
RTVSPropertyOp17
 70
     1
102
RTVSPropertyOp18
 70
     1
102
RTVSPropertyOp19
 70
     1
102
RTVSPropertyOp20
 70
     1
102
RTVSPropertyOp21
 70
     1
102
RTVSPropertyOp22
 70
     1
102
RTVSPropertyOp23
 70
     1
102
RTVSPropertyOp24
 70
     1
102
RTVSPropertyOp25
 70
     1
102
RTVSPropertyOp26
 70
     1
102
RTVSPropertyOp27
 70
     1
102
RTVSPropertyOp28
 70
     1
102
RTVSPropertyOp29
 70
     1
102
RTVSPropertyOp30
 70
     1
102
RTVSPropertyOp31
 70
     1
102
RTVSPropertyOp32
 70
     1
  0
XRECORD
  5
DFE5
102
{ACAD_REACTORS
330
DFE4
102
}
330
DFE4
100
AcDbXrecord
280
     1
102
RTVSPropertyOp0
 70
     0
102
RTVSPropertyOp1
 70
     0
102
RTVSPropertyOp2
 70
     0
102
RTVSPropertyOp3
 70
     0
102
RTVSPropertyOp4
 70
     0
102
RTVSPropertyOp5
 70
     0
102
RTVSPropertyOp6
 70
     0
102
RTVSPropertyOp7
 70
     0
102
RTVSPropertyOp8
 70
     0
102
RTVSPropertyOp9
 70
     0
102
RTVSPropertyOp10
 70
     0
102
RTVSPropertyOp11
 70
     0
102
RTVSPropertyOp12
 70
     0
102
RTVSPropertyOp13
 70
     0
102
RTVSPropertyOp14
 70
     2
102
RTVSPropertyOp15
 70
     0
102
RTVSPropertyOp16
 70
     0
102
RTVSPropertyOp17
 70
     0
102
RTVSPropertyOp18
 70
     0
102
RTVSPropertyOp19
 70
     0
102
RTVSPropertyOp20
 70
     0
102
RTVSPropertyOp21
 70
     0
102
RTVSPropertyOp22
 70
     0
102
RTVSPropertyOp23
 70
     0
102
RTVSPropertyOp24
 70
     0
102
RTVSPropertyOp25
 70
     0
102
RTVSPropertyOp26
 70
     0
102
RTVSPropertyOp27
 70
     0
102
RTVSPropertyOp28
 70
     0
102
RTVSPropertyOp29
 70
     0
102
RTVSPropertyOp30
 70
     0
102
RTVSPropertyOp31
 70
     0
102
RTVSPropertyOp32
 70
     0
  0
XRECORD
  5
DFD3
102
{ACAD_REACTORS
330
DFD2
102
}
330
DFD2
100
AcDbXrecord
280
     1
102
RTVSPropertyOp0
 70
     1
102
RTVSPropertyOp1
 70
     1
102
RTVSPropertyOp2
 70
     1
102
RTVSPropertyOp3
 70
     1
102
RTVSPropertyOp4
 70
     1
102
RTVSPropertyOp5
 70
     1
102
RTVSPropertyOp6
 70
     1
102
RTVSPropertyOp7
 70
     1
102
RTVSPropertyOp8
 70
     1
102
RTVSPropertyOp9
 70
     1
102
RTVSPropertyOp10
 70
     1
102
RTVSPropertyOp11
 70
     1
102
RTVSPropertyOp12
 70
     1
102
RTVSPropertyOp13
 70
     1
102
RTVSPropertyOp14
 70
     1
102
RTVSPropertyOp15
 70
     1
102
RTVSPropertyOp16
 70
     1
102
RTVSPropertyOp17
 70
     1
102
RTVSPropertyOp18
 70
     1
102
RTVSPropertyOp19
 70
     1
102
RTVSPropertyOp20
 70
     1
102
RTVSPropertyOp21
 70
     1
102
RTVSPropertyOp22
 70
     1
102
RTVSPropertyOp23
 70
     1
102
RTVSPropertyOp24
 70
     1
102
RTVSPropertyOp25
 70
     1
102
RTVSPropertyOp26
 70
     1
102
RTVSPropertyOp27
 70
     1
102
RTVSPropertyOp28
 70
     1
102
RTVSPropertyOp29
 70
     1
102
RTVSPropertyOp30
 70
     1
102
RTVSPropertyOp31
 70
     1
102
RTVSPropertyOp32
 70
     1
  0
XRECORD
  5
DFB7
102
{ACAD_REACTORS
330
DFB6
102
}
330
DFB6
100
AcDbXrecord
280
     1
102
RTVSPropertyOp0
 70
     1
102
RTVSPropertyOp1
 70
     1
102
RTVSPropertyOp2
 70
     1
102
RTVSPropertyOp3
 70
     1
102
RTVSPropertyOp4
 70
     1
102
RTVSPropertyOp5
 70
     1
102
RTVSPropertyOp6
 70
     1
102
RTVSPropertyOp7
 70
     1
102
RTVSPropertyOp8
 70
     1
102
RTVSPropertyOp9
 70
     1
102
RTVSPropertyOp10
 70
     1
102
RTVSPropertyOp11
 70
     1
102
RTVSPropertyOp12
 70
     1
102
RTVSPropertyOp13
 70
     1
102
RTVSPropertyOp14
 70
     1
102
RTVSPropertyOp15
 70
     1
102
RTVSPropertyOp16
 70
     1
102
RTVSPropertyOp17
 70
     1
102
RTVSPropertyOp18
 70
     1
102
RTVSPropertyOp19
 70
     1
102
RTVSPropertyOp20
 70
     1
102
RTVSPropertyOp21
 70
     1
102
RTVSPropertyOp22
 70
     1
102
RTVSPropertyOp23
 70
     1
102
RTVSPropertyOp24
 70
     1
102
RTVSPropertyOp25
 70
     1
102
RTVSPropertyOp26
 70
     1
102
RTVSPropertyOp27
 70
     1
102
RTVSPropertyOp28
 70
     1
102
RTVSPropertyOp29
 70
     1
102
RTVSPropertyOp30
 70
     1
102
RTVSPropertyOp31
 70
     1
102
RTVSPropertyOp32
 70
     1
  0
XRECORD
  5
DFB9
102
{ACAD_REACTORS
330
DFB8
102
}
330
DFB8
100
AcDbXrecord
280
     1
102
RTVSPropertyOp0
 70
     1
102
RTVSPropertyOp1
 70
     1
102
RTVSPropertyOp2
 70
     1
102
RTVSPropertyOp3
 70
     1
102
RTVSPropertyOp4
 70
     1
102
RTVSPropertyOp5
 70
     1
102
RTVSPropertyOp6
 70
     1
102
RTVSPropertyOp7
 70
     1
102
RTVSPropertyOp8
 70
     1
102
RTVSPropertyOp9
 70
     1
102
RTVSPropertyOp10
 70
     1
102
RTVSPropertyOp11
 70
     1
102
RTVSPropertyOp12
 70
     1
102
RTVSPropertyOp13
 70
     1
102
RTVSPropertyOp14
 70
     1
102
RTVSPropertyOp15
 70
     1
102
RTVSPropertyOp16
 70
     1
102
RTVSPropertyOp17
 70
     1
102
RTVSPropertyOp18
 70
     1
102
RTVSPropertyOp19
 70
     1
102
RTVSPropertyOp20
 70
     1
102
RTVSPropertyOp21
 70
     1
102
RTVSPropertyOp22
 70
     1
102
RTVSPropertyOp23
 70
     1
102
RTVSPropertyOp24
 70
     1
102
RTVSPropertyOp25
 70
     1
102
RTVSPropertyOp26
 70
     1
102
RTVSPropertyOp27
 70
     1
102
RTVSPropertyOp28
 70
     1
102
RTVSPropertyOp29
 70
     1
102
RTVSPropertyOp30
 70
     1
102
RTVSPropertyOp31
 70
     1
102
RTVSPropertyOp32
 70
     1
  0
XRECORD
  5
DFBB
102
{ACAD_REACTORS
330
DFBA
102
}
330
DFBA
100
AcDbXrecord
280
     1
102
RTVSPropertyOp0
 70
     1
102
RTVSPropertyOp1
 70
     1
102
RTVSPropertyOp2
 70
     1
102
RTVSPropertyOp3
 70
     1
102
RTVSPropertyOp4
 70
     1
102
RTVSPropertyOp5
 70
     1
102
RTVSPropertyOp6
 70
     1
102
RTVSPropertyOp7
 70
     1
102
RTVSPropertyOp8
 70
     1
102
RTVSPropertyOp9
 70
     1
102
RTVSPropertyOp10
 70
     1
102
RTVSPropertyOp11
 70
     1
102
RTVSPropertyOp12
 70
     1
102
RTVSPropertyOp13
 70
     1
102
RTVSPropertyOp14
 70
     1
102
RTVSPropertyOp15
 70
     1
102
RTVSPropertyOp16
 70
     1
102
RTVSPropertyOp17
 70
     1
102
RTVSPropertyOp18
 70
     1
102
RTVSPropertyOp19
 70
     1
102
RTVSPropertyOp20
 70
     1
102
RTVSPropertyOp21
 70
     1
102
RTVSPropertyOp22
 70
     1
102
RTVSPropertyOp23
 70
     1
102
RTVSPropertyOp24
 70
     1
102
RTVSPropertyOp25
 70
     1
102
RTVSPropertyOp26
 70
     1
102
RTVSPropertyOp27
 70
     1
102
RTVSPropertyOp28
 70
     1
102
RTVSPropertyOp29
 70
     1
102
RTVSPropertyOp30
 70
     1
102
RTVSPropertyOp31
 70
     1
102
RTVSPropertyOp32
 70
     1
  0
XRECORD
  5
DFBD
102
{ACAD_REACTORS
330
DFBC
102
}
330
DFBC
100
AcDbXrecord
280
     1
102
RTVSPropertyOp0
 70
     1
102
RTVSPropertyOp1
 70
     1
102
RTVSPropertyOp2
 70
     1
102
RTVSPropertyOp3
 70
     1
102
RTVSPropertyOp4
 70
     1
102
RTVSPropertyOp5
 70
     1
102
RTVSPropertyOp6
 70
     1
102
RTVSPropertyOp7
 70
     1
102
RTVSPropertyOp8
 70
     1
102
RTVSPropertyOp9
 70
     1
102
RTVSPropertyOp10
 70
     1
102
RTVSPropertyOp11
 70
     1
102
RTVSPropertyOp12
 70
     1
102
RTVSPropertyOp13
 70
     1
102
RTVSPropertyOp14
 70
     1
102
RTVSPropertyOp15
 70
     1
102
RTVSPropertyOp16
 70
     1
102
RTVSPropertyOp17
 70
     1
102
RTVSPropertyOp18
 70
     1
102
RTVSPropertyOp19
 70
     1
102
RTVSPropertyOp20
 70
     1
102
RTVSPropertyOp21
 70
     1
102
RTVSPropertyOp22
 70
     1
102
RTVSPropertyOp23
 70
     1
102
RTVSPropertyOp24
 70
     1
102
RTVSPropertyOp25
 70
     1
102
RTVSPropertyOp26
 70
     1
102
RTVSPropertyOp27
 70
     1
102
RTVSPropertyOp28
 70
     1
102
RTVSPropertyOp29
 70
     1
102
RTVSPropertyOp30
 70
     1
102
RTVSPropertyOp31
 70
     1
102
RTVSPropertyOp32
 70
     1
  0
XRECORD
  5
DFC5
102
{ACAD_REACTORS
330
DFC4
102
}
330
DFC4
100
AcDbXrecord
280
     1
102
RTVSPropertyOp0
 70
     1
102
RTVSPropertyOp1
 70
     1
102
RTVSPropertyOp2
 70
     1
102
RTVSPropertyOp3
 70
     1
102
RTVSPropertyOp4
 70
     1
102
RTVSPropertyOp5
 70
     1
102
RTVSPropertyOp6
 70
     1
102
RTVSPropertyOp7
 70
     1
102
RTVSPropertyOp8
 70
     1
102
RTVSPropertyOp9
 70
     1
102
RTVSPropertyOp10
 70
     1
102
RTVSPropertyOp11
 70
     1
102
RTVSPropertyOp12
 70
     1
102
RTVSPropertyOp13
 70
     1
102
RTVSPropertyOp14
 70
     1
102
RTVSPropertyOp15
 70
     1
102
RTVSPropertyOp16
 70
     1
102
RTVSPropertyOp17
 70
     1
102
RTVSPropertyOp18
 70
     1
102
RTVSPropertyOp19
 70
     1
102
RTVSPropertyOp20
 70
     1
102
RTVSPropertyOp21
 70
     1
102
RTVSPropertyOp22
 70
     1
102
RTVSPropertyOp23
 70
     1
102
RTVSPropertyOp24
 70
     1
102
RTVSPropertyOp25
 70
     1
102
RTVSPropertyOp26
 70
     1
102
RTVSPropertyOp27
 70
     1
102
RTVSPropertyOp28
 70
     1
102
RTVSPropertyOp29
 70
     1
102
RTVSPropertyOp30
 70
     1
102
RTVSPropertyOp31
 70
     1
102
RTVSPropertyOp32
 70
     1
  0
XRECORD
  5
DFE1
102
{ACAD_REACTORS
330
DFE0
102
}
330
DFE0
100
AcDbXrecord
280
     1
102
RTVSPropertyOp0
 70
     0
102
RTVSPropertyOp1
 70
     0
102
RTVSPropertyOp2
 70
     0
102
RTVSPropertyOp3
 70
     0
102
RTVSPropertyOp4
 70
     0
102
RTVSPropertyOp5
 70
     0
102
RTVSPropertyOp6
 70
     0
102
RTVSPropertyOp7
 70
     0
102
RTVSPropertyOp8
 70
     0
102
RTVSPropertyOp9
 70
     0
102
RTVSPropertyOp10
 70
     0
102
RTVSPropertyOp11
 70
     0
102
RTVSPropertyOp12
 70
     0
102
RTVSPropertyOp13
 70
     0
102
RTVSPropertyOp14
 70
     2
102
RTVSPropertyOp15
 70
     0
102
RTVSPropertyOp16
 70
     0
102
RTVSPropertyOp17
 70
     0
102
RTVSPropertyOp18
 70
     0
102
RTVSPropertyOp19
 70
     0
102
RTVSPropertyOp20
 70
     0
102
RTVSPropertyOp21
 70
     0
102
RTVSPropertyOp22
 70
     0
102
RTVSPropertyOp23
 70
     0
102
RTVSPropertyOp24
 70
     0
102
RTVSPropertyOp25
 70
     0
102
RTVSPropertyOp26
 70
     0
102
RTVSPropertyOp27
 70
     0
102
RTVSPropertyOp28
 70
     0
102
RTVSPropertyOp29
 70
     0
102
RTVSPropertyOp30
 70
     0
102
RTVSPropertyOp31
 70
     0
102
RTVSPropertyOp32
 70
     0
  0
XRECORD
  5
DFD1
102
{ACAD_REACTORS
330
DFD0
102
}
330
DFD0
100
AcDbXrecord
280
     1
102
RTVSPropertyOp0
 70
     1
102
RTVSPropertyOp1
 70
     1
102
RTVSPropertyOp2
 70
     1
102
RTVSPropertyOp3
 70
     1
102
RTVSPropertyOp4
 70
     1
102
RTVSPropertyOp5
 70
     1
102
RTVSPropertyOp6
 70
     1
102
RTVSPropertyOp7
 70
     1
102
RTVSPropertyOp8
 70
     1
102
RTVSPropertyOp9
 70
     1
102
RTVSPropertyOp10
 70
     1
102
RTVSPropertyOp11
 70
     1
102
RTVSPropertyOp12
 70
     1
102
RTVSPropertyOp13
 70
     1
102
RTVSPropertyOp14
 70
     1
102
RTVSPropertyOp15
 70
     1
102
RTVSPropertyOp16
 70
     1
102
RTVSPropertyOp17
 70
     1
102
RTVSPropertyOp18
 70
     1
102
RTVSPropertyOp19
 70
     1
102
RTVSPropertyOp20
 70
     1
102
RTVSPropertyOp21
 70
     1
102
RTVSPropertyOp22
 70
     1
102
RTVSPropertyOp23
 70
     1
102
RTVSPropertyOp24
 70
     1
102
RTVSPropertyOp25
 70
     1
102
RTVSPropertyOp26
 70
     1
102
RTVSPropertyOp27
 70
     1
102
RTVSPropertyOp28
 70
     1
102
RTVSPropertyOp29
 70
     1
102
RTVSPropertyOp30
 70
     1
102
RTVSPropertyOp31
 70
     1
102
RTVSPropertyOp32
 70
     1
  0
XRECORD
  5
DFE3
102
{ACAD_REACTORS
330
DFE2
102
}
330
DFE2
100
AcDbXrecord
280
     1
102
RTVSPropertyOp0
 70
     0
102
RTVSPropertyOp1
 70
     0
102
RTVSPropertyOp2
 70
     0
102
RTVSPropertyOp3
 70
     0
102
RTVSPropertyOp4
 70
     0
102
RTVSPropertyOp5
 70
     0
102
RTVSPropertyOp6
 70
     0
102
RTVSPropertyOp7
 70
     0
102
RTVSPropertyOp8
 70
     0
102
RTVSPropertyOp9
 70
     0
102
RTVSPropertyOp10
 70
     0
102
RTVSPropertyOp11
 70
     0
102
RTVSPropertyOp12
 70
     0
102
RTVSPropertyOp13
 70
     0
102
RTVSPropertyOp14
 70
     2
102
RTVSPropertyOp15
 70
     0
102
RTVSPropertyOp16
 70
     0
102
RTVSPropertyOp17
 70
     0
102
RTVSPropertyOp18
 70
     0
102
RTVSPropertyOp19
 70
     0
102
RTVSPropertyOp20
 70
     0
102
RTVSPropertyOp21
 70
     0
102
RTVSPropertyOp22
 70
     0
102
RTVSPropertyOp23
 70
     0
102
RTVSPropertyOp24
 70
     0
102
RTVSPropertyOp25
 70
     0
102
RTVSPropertyOp26
 70
     0
102
RTVSPropertyOp27
 70
     0
102
RTVSPropertyOp28
 70
     0
102
RTVSPropertyOp29
 70
     0
102
RTVSPropertyOp30
 70
     0
102
RTVSPropertyOp31
 70
     0
102
RTVSPropertyOp32
 70
     0
  0
XRECORD
  5
DFC9
102
{ACAD_REACTORS
330
DFC8
102
}
330
DFC8
100
AcDbXrecord
280
     1
102
RTVSPropertyOp0
 70
     1
102
RTVSPropertyOp1
 70
     1
102
RTVSPropertyOp2
 70
     1
102
RTVSPropertyOp3
 70
     1
102
RTVSPropertyOp4
 70
     1
102
RTVSPropertyOp5
 70
     1
102
RTVSPropertyOp6
 70
     1
102
RTVSPropertyOp7
 70
     1
102
RTVSPropertyOp8
 70
     1
102
RTVSPropertyOp9
 70
     1
102
RTVSPropertyOp10
 70
     1
102
RTVSPropertyOp11
 70
     1
102
RTVSPropertyOp12
 70
     1
102
RTVSPropertyOp13
 70
     1
102
RTVSPropertyOp14
 70
     1
102
RTVSPropertyOp15
 70
     1
102
RTVSPropertyOp16
 70
     1
102
RTVSPropertyOp17
 70
     1
102
RTVSPropertyOp18
 70
     1
102
RTVSPropertyOp19
 70
     1
102
RTVSPropertyOp20
 70
     1
102
RTVSPropertyOp21
 70
     1
102
RTVSPropertyOp22
 70
     1
102
RTVSPropertyOp23
 70
     1
102
RTVSPropertyOp24
 70
     1
102
RTVSPropertyOp25
 70
     1
102
RTVSPropertyOp26
 70
     1
102
RTVSPropertyOp27
 70
     1
102
RTVSPropertyOp28
 70
     1
102
RTVSPropertyOp29
 70
     1
102
RTVSPropertyOp30
 70
     1
102
RTVSPropertyOp31
 70
     1
102
RTVSPropertyOp32
 70
     1
  0
XRECORD
  5
DFDF
102
{ACAD_REACTORS
330
DFDE
102
}
330
DFDE
100
AcDbXrecord
280
     1
102
RTVSPropertyOp0
 70
     1
102
RTVSPropertyOp1
 70
     1
102
RTVSPropertyOp2
 70
     1
102
RTVSPropertyOp3
 70
     1
102
RTVSPropertyOp4
 70
     1
102
RTVSPropertyOp5
 70
     1
102
RTVSPropertyOp6
 70
     1
102
RTVSPropertyOp7
 70
     1
102
RTVSPropertyOp8
 70
     1
102
RTVSPropertyOp9
 70
     1
102
RTVSPropertyOp10
 70
     1
102
RTVSPropertyOp11
 70
     1
102
RTVSPropertyOp12
 70
     1
102
RTVSPropertyOp13
 70
     1
102
RTVSPropertyOp14
 70
     1
102
RTVSPropertyOp15
 70
     1
102
RTVSPropertyOp16
 70
     1
102
RTVSPropertyOp17
 70
     1
102
RTVSPropertyOp18
 70
     1
102
RTVSPropertyOp19
 70
     1
102
RTVSPropertyOp20
 70
     1
102
RTVSPropertyOp21
 70
     1
102
RTVSPropertyOp22
 70
     1
102
RTVSPropertyOp23
 70
     1
102
RTVSPropertyOp24
 70
     1
102
RTVSPropertyOp25
 70
     1
102
RTVSPropertyOp26
 70
     1
102
RTVSPropertyOp27
 70
     1
102
RTVSPropertyOp28
 70
     1
102
RTVSPropertyOp29
 70
     1
102
RTVSPropertyOp30
 70
     1
102
RTVSPropertyOp31
 70
     1
102
RTVSPropertyOp32
 70
     1
  0
XRECORD
  5
DFDD
102
{ACAD_REACTORS
330
DFDC
102
}
330
DFDC
100
AcDbXrecord
280
     1
102
RTVSPropertyOp0
 70
     1
102
RTVSPropertyOp1
 70
     1
102
RTVSPropertyOp2
 70
     1
102
RTVSPropertyOp3
 70
     1
102
RTVSPropertyOp4
 70
     1
102
RTVSPropertyOp5
 70
     1
102
RTVSPropertyOp6
 70
     1
102
RTVSPropertyOp7
 70
     1
102
RTVSPropertyOp8
 70
     1
102
RTVSPropertyOp9
 70
     1
102
RTVSPropertyOp10
 70
     1
102
RTVSPropertyOp11
 70
     1
102
RTVSPropertyOp12
 70
     1
102
RTVSPropertyOp13
 70
     1
102
RTVSPropertyOp14
 70
     1
102
RTVSPropertyOp15
 70
     1
102
RTVSPropertyOp16
 70
     1
102
RTVSPropertyOp17
 70
     1
102
RTVSPropertyOp18
 70
     1
102
RTVSPropertyOp19
 70
     1
102
RTVSPropertyOp20
 70
     1
102
RTVSPropertyOp21
 70
     1
102
RTVSPropertyOp22
 70
     1
102
RTVSPropertyOp23
 70
     1
102
RTVSPropertyOp24
 70
     1
102
RTVSPropertyOp25
 70
     1
102
RTVSPropertyOp26
 70
     1
102
RTVSPropertyOp27
 70
     1
102
RTVSPropertyOp28
 70
     1
102
RTVSPropertyOp29
 70
     1
102
RTVSPropertyOp30
 70
     1
102
RTVSPropertyOp31
 70
     1
102
RTVSPropertyOp32
 70
     1
  0
XRECORD
  5
DFD7
102
{ACAD_REACTORS
330
DFD6
102
}
330
DFD6
100
AcDbXrecord
280
     1
102
RTVSPropertyOp0
 70
     1
102
RTVSPropertyOp1
 70
     1
102
RTVSPropertyOp2
 70
     1
102
RTVSPropertyOp3
 70
     1
102
RTVSPropertyOp4
 70
     1
102
RTVSPropertyOp5
 70
     1
102
RTVSPropertyOp6
 70
     1
102
RTVSPropertyOp7
 70
     1
102
RTVSPropertyOp8
 70
     1
102
RTVSPropertyOp9
 70
     1
102
RTVSPropertyOp10
 70
     1
102
RTVSPropertyOp11
 70
     1
102
RTVSPropertyOp12
 70
     1
102
RTVSPropertyOp13
 70
     1
102
RTVSPropertyOp14
 70
     1
102
RTVSPropertyOp15
 70
     1
102
RTVSPropertyOp16
 70
     1
102
RTVSPropertyOp17
 70
     1
102
RTVSPropertyOp18
 70
     1
102
RTVSPropertyOp19
 70
     1
102
RTVSPropertyOp20
 70
     1
102
RTVSPropertyOp21
 70
     1
102
RTVSPropertyOp22
 70
     1
102
RTVSPropertyOp23
 70
     1
102
RTVSPropertyOp24
 70
     1
102
RTVSPropertyOp25
 70
     1
102
RTVSPropertyOp26
 70
     1
102
RTVSPropertyOp27
 70
     1
102
RTVSPropertyOp28
 70
     1
102
RTVSPropertyOp29
 70
     1
102
RTVSPropertyOp30
 70
     1
102
RTVSPropertyOp31
 70
     1
102
RTVSPropertyOp32
 70
     1
  0
XRECORD
  5
DFD9
102
{ACAD_REACTORS
330
DFD8
102
}
330
DFD8
100
AcDbXrecord
280
     1
102
RTVSPropertyOp0
 70
     1
102
RTVSPropertyOp1
 70
     1
102
RTVSPropertyOp2
 70
     1
102
RTVSPropertyOp3
 70
     1
102
RTVSPropertyOp4
 70
     1
102
RTVSPropertyOp5
 70
     1
102
RTVSPropertyOp6
 70
     1
102
RTVSPropertyOp7
 70
     1
102
RTVSPropertyOp8
 70
     1
102
RTVSPropertyOp9
 70
     1
102
RTVSPropertyOp10
 70
     1
102
RTVSPropertyOp11
 70
     1
102
RTVSPropertyOp12
 70
     1
102
RTVSPropertyOp13
 70
     1
102
RTVSPropertyOp14
 70
     1
102
RTVSPropertyOp15
 70
     1
102
RTVSPropertyOp16
 70
     1
102
RTVSPropertyOp17
 70
     1
102
RTVSPropertyOp18
 70
     1
102
RTVSPropertyOp19
 70
     1
102
RTVSPropertyOp20
 70
     1
102
RTVSPropertyOp21
 70
     1
102
RTVSPropertyOp22
 70
     1
102
RTVSPropertyOp23
 70
     1
102
RTVSPropertyOp24
 70
     1
102
RTVSPropertyOp25
 70
     1
102
RTVSPropertyOp26
 70
     1
102
RTVSPropertyOp27
 70
     1
102
RTVSPropertyOp28
 70
     1
102
RTVSPropertyOp29
 70
     1
102
RTVSPropertyOp30
 70
     1
102
RTVSPropertyOp31
 70
     1
102
RTVSPropertyOp32
 70
     1
  0
XRECORD
  5
DFCF
102
{ACAD_REACTORS
330
DFCE
102
}
330
DFCE
100
AcDbXrecord
280
     1
102
RTVSPropertyOp0
 70
     1
102
RTVSPropertyOp1
 70
     1
102
RTVSPropertyOp2
 70
     1
102
RTVSPropertyOp3
 70
     1
102
RTVSPropertyOp4
 70
     1
102
RTVSPropertyOp5
 70
     1
102
RTVSPropertyOp6
 70
     1
102
RTVSPropertyOp7
 70
     1
102
RTVSPropertyOp8
 70
     1
102
RTVSPropertyOp9
 70
     1
102
RTVSPropertyOp10
 70
     1
102
RTVSPropertyOp11
 70
     1
102
RTVSPropertyOp12
 70
     1
102
RTVSPropertyOp13
 70
     1
102
RTVSPropertyOp14
 70
     1
102
RTVSPropertyOp15
 70
     1
102
RTVSPropertyOp16
 70
     1
102
RTVSPropertyOp17
 70
     1
102
RTVSPropertyOp18
 70
     1
102
RTVSPropertyOp19
 70
     1
102
RTVSPropertyOp20
 70
     1
102
RTVSPropertyOp21
 70
     1
102
RTVSPropertyOp22
 70
     1
102
RTVSPropertyOp23
 70
     1
102
RTVSPropertyOp24
 70
     1
102
RTVSPropertyOp25
 70
     1
102
RTVSPropertyOp26
 70
     1
102
RTVSPropertyOp27
 70
     1
102
RTVSPropertyOp28
 70
     1
102
RTVSPropertyOp29
 70
     1
102
RTVSPropertyOp30
 70
     1
102
RTVSPropertyOp31
 70
     1
102
RTVSPropertyOp32
 70
     1
  0
XRECORD
  5
DFC3
102
{ACAD_REACTORS
330
DFC2
102
}
330
DFC2
100
AcDbXrecord
280
     1
102
RTVSPropertyOp0
 70
     1
102
RTVSPropertyOp1
 70
     1
102
RTVSPropertyOp2
 70
     1
102
RTVSPropertyOp3
 70
     1
102
RTVSPropertyOp4
 70
     1
102
RTVSPropertyOp5
 70
     1
102
RTVSPropertyOp6
 70
     1
102
RTVSPropertyOp7
 70
     1
102
RTVSPropertyOp8
 70
     1
102
RTVSPropertyOp9
 70
     1
102
RTVSPropertyOp10
 70
     1
102
RTVSPropertyOp11
 70
     1
102
RTVSPropertyOp12
 70
     1
102
RTVSPropertyOp13
 70
     1
102
RTVSPropertyOp14
 70
     1
102
RTVSPropertyOp15
 70
     1
102
RTVSPropertyOp16
 70
     1
102
RTVSPropertyOp17
 70
     1
102
RTVSPropertyOp18
 70
     1
102
RTVSPropertyOp19
 70
     1
102
RTVSPropertyOp20
 70
     1
102
RTVSPropertyOp21
 70
     1
102
RTVSPropertyOp22
 70
     1
102
RTVSPropertyOp23
 70
     1
102
RTVSPropertyOp24
 70
     1
102
RTVSPropertyOp25
 70
     1
102
RTVSPropertyOp26
 70
     1
102
RTVSPropertyOp27
 70
     1
102
RTVSPropertyOp28
 70
     1
102
RTVSPropertyOp29
 70
     1
102
RTVSPropertyOp30
 70
     1
102
RTVSPropertyOp31
 70
     1
102
RTVSPropertyOp32
 70
     1
  0
XRECORD
  5
DFDB
102
{ACAD_REACTORS
330
DFDA
102
}
330
DFDA
100
AcDbXrecord
280
     1
102
RTVSPropertyOp0
 70
     1
102
RTVSPropertyOp1
 70
     1
102
RTVSPropertyOp2
 70
     1
102
RTVSPropertyOp3
 70
     1
102
RTVSPropertyOp4
 70
     1
102
RTVSPropertyOp5
 70
     1
102
RTVSPropertyOp6
 70
     1
102
RTVSPropertyOp7
 70
     1
102
RTVSPropertyOp8
 70
     1
102
RTVSPropertyOp9
 70
     1
102
RTVSPropertyOp10
 70
     1
102
RTVSPropertyOp11
 70
     1
102
RTVSPropertyOp12
 70
     1
102
RTVSPropertyOp13
 70
     1
102
RTVSPropertyOp14
 70
     1
102
RTVSPropertyOp15
 70
     1
102
RTVSPropertyOp16
 70
     1
102
RTVSPropertyOp17
 70
     1
102
RTVSPropertyOp18
 70
     1
102
RTVSPropertyOp19
 70
     1
102
RTVSPropertyOp20
 70
     1
102
RTVSPropertyOp21
 70
     1
102
RTVSPropertyOp22
 70
     1
102
RTVSPropertyOp23
 70
     1
102
RTVSPropertyOp24
 70
     1
102
RTVSPropertyOp25
 70
     1
102
RTVSPropertyOp26
 70
     1
102
RTVSPropertyOp27
 70
     1
102
RTVSPropertyOp28
 70
     1
102
RTVSPropertyOp29
 70
     1
102
RTVSPropertyOp30
 70
     1
102
RTVSPropertyOp31
 70
     1
102
RTVSPropertyOp32
 70
     1
  0
ENDSEC
  0
EOF
