  0
SECTION
  2
HEADER
  9
$ACADVER
  1
AC1015
  9
$ACADMAINTVER
 70
    20
  9
$DWGCODEPAGE
  3
ANSI_1252
  9
$INSBASE
 10
0.0
 20
0.0
 30
0.0
  9
$EXTMIN
 10
1201.809987078793
 20
962.3089744486879
 30
0.0
  9
$EXTMAX
 10
1270.011435051221
 20
1002.567374232164
 30
0.0
  9
$LIMMIN
 10
0.0
 20
0.0
  9
$LIMMAX
 10
12.0
 20
9.0
  9
$ORTHOMODE
 70
     1
  9
$REGENMODE
 70
     1
  9
$FILLMODE
 70
     1
  9
$QTEXTMODE
 70
     0
  9
$MIRRTEXT
 70
     0
  9
$LTSCALE
 40
1.0
  9
$ATTMODE
 70
     1
  9
$TEXTSIZE
 40
0.2
  9
$TRACEWID
 40
0.05
  9
$TEXTSTYLE
  7
Standard
  9
$CLAYER
  8
0
  9
$CELTYPE
  6
ByLayer
  9
$CECOLOR
 62
   256
  9
$CELTSCALE
 40
1.0
  9
$DISPSILH
 70
     0
  9
$DIMSCALE
 40
1.0
  9
$DIMASZ
 40
0.18
  9
$DIMEXO
 40
0.0625
  9
$DIMDLI
 40
0.38
  9
$DIMRND
 40
0.0
  9
$DIMDLE
 40
0.0
  9
$DIMEXE
 40
0.18
  9
$DIMTP
 40
0.0
  9
$DIMTM
 40
0.0
  9
$DIMTXT
 40
0.18
  9
$DIMCEN
 40
0.09
  9
$DIMTSZ
 40
0.0
  9
$DIMTOL
 70
     0
  9
$DIMLIM
 70
     0
  9
$DIMTIH
 70
     1
  9
$DIMTOH
 70
     1
  9
$DIMSE1
 70
     0
  9
$DIMSE2
 70
     0
  9
$DIMTAD
 70
     0
  9
$DIMZIN
 70
     0
  9
$DIMBLK
  1

  9
$DIMASO
 70
     1
  9
$DIMSHO
 70
     1
  9
$DIMPOST
  1

  9
$DIMAPOST
  1
mm
  9
$DIMALT
 70
     1
  9
$DIMALTD
 70
     2
  9
$DIMALTF
 40
25.4
  9
$DIMLFAC
 40
1.0
  9
$DIMTOFL
 70
     0
  9
$DIMTVP
 40
0.0
  9
$DIMTIX
 70
     0
  9
$DIMSOXD
 70
     0
  9
$DIMSAH
 70
     0
  9
$DIMBLK1
  1

  9
$DIMBLK2
  1

  9
$DIMSTYLE
  2
Standard
  9
$DIMCLRD
 70
     0
  9
$DIMCLRE
 70
     0
  9
$DIMCLRT
 70
     0
  9
$DIMTFAC
 40
1.0
  9
$DIMGAP
 40
0.09
  9
$DIMJUST
 70
     0
  9
$DIMSD1
 70
     0
  9
$DIMSD2
 70
     0
  9
$DIMTOLJ
 70
     1
  9
$DIMTZIN
 70
     0
  9
$DIMALTZ
 70
     0
  9
$DIMALTTZ
 70
     0
  9
$DIMUPT
 70
     0
  9
$DIMDEC
 70
     4
  9
$DIMTDEC
 70
     4
  9
$DIMALTU
 70
     2
  9
$DIMALTTD
 70
     2
  9
$DIMTXSTY
  7
Standard
  9
$DIMAUNIT
 70
     0
  9
$DIMADEC
 70
     0
  9
$DIMALTRND
 40
0.0
  9
$DIMAZIN
 70
     0
  9
$DIMDSEP
 70
    46
  9
$DIMATFIT
 70
     3
  9
$DIMFRAC
 70
     0
  9
$DIMLDRBLK
  1

  9
$DIMLUNIT
 70
     5
  9
$DIMLWD
 70
    -2
  9
$DIMLWE
 70
    -2
  9
$DIMTMOVE
 70
     0
  9
$LUNITS
 70
     2
  9
$LUPREC
 70
     4
  9
$SKETCHINC
 40
0.1
  9
$FILLETRAD
 40
0.0
  9
$AUNITS
 70
     0
  9
$AUPREC
 70
     0
  9
$MENU
  1
.
  9
$ELEVATION
 40
0.0
  9
$PELEVATION
 40
0.0
  9
$THICKNESS
 40
0.0
  9
$LIMCHECK
 70
     0
  9
$CHAMFERA
 40
0.0
  9
$CHAMFERB
 40
0.0
  9
$CHAMFERC
 40
0.0
  9
$CHAMFERD
 40
0.0
  9
$SKPOLY
 70
     0
  9
$TDCREATE
 40
2454741.571576030
  9
$TDUCREATE
 40
2454741.738242697
  9
$TDUPDATE
 40
2456134.632018310
  9
$TDUUPDATE
 40
2456134.798684977
  9
$TDINDWG
 40
0.0325631944
  9
$TDUSRTIMER
 40
0.0325628472
  9
$USRTIMER
 70
     1
  9
$ANGBASE
 50
0.0
  9
$ANGDIR
 70
     0
  9
$PDMODE
 70
     0
  9
$PDSIZE
 40
0.0
  9
$PLINEWID
 40
0.0
  9
$SPLFRAME
 70
     0
  9
$SPLINETYPE
 70
     6
  9
$SPLINESEGS
 70
     8
  9
$HANDSEED
  5
2B72
  9
$SURFTAB1
 70
     6
  9
$SURFTAB2
 70
     6
  9
$SURFTYPE
 70
     6
  9
$SURFU
 70
     6
  9
$SURFV
 70
     6
  9
$UCSBASE
  2

  9
$UCSNAME
  2

  9
$UCSORG
 10
0.0
 20
0.0
 30
0.0
  9
$UCSXDIR
 10
1.0
 20
0.0
 30
0.0
  9
$UCSYDIR
 10
0.0
 20
1.0
 30
0.0
  9
$UCSORTHOREF
  2

  9
$UCSORTHOVIEW
 70
     0
  9
$UCSORGTOP
 10
0.0
 20
0.0
 30
0.0
  9
$UCSORGBOTTOM
 10
0.0
 20
0.0
 30
0.0
  9
$UCSORGLEFT
 10
0.0
 20
0.0
 30
0.0
  9
$UCSORGRIGHT
 10
0.0
 20
0.0
 30
0.0
  9
$UCSORGFRONT
 10
0.0
 20
0.0
 30
0.0
  9
$UCSORGBACK
 10
0.0
 20
0.0
 30
0.0
  9
$PUCSBASE
  2

  9
$PUCSNAME
  2

  9
$PUCSORG
 10
0.0
 20
0.0
 30
0.0
  9
$PUCSXDIR
 10
1.0
 20
0.0
 30
0.0
  9
$PUCSYDIR
 10
0.0
 20
1.0
 30
0.0
  9
$PUCSORTHOREF
  2

  9
$PUCSORTHOVIEW
 70
     0
  9
$PUCSORGTOP
 10
0.0
 20
0.0
 30
0.0
  9
$PUCSORGBOTTOM
 10
0.0
 20
0.0
 30
0.0
  9
$PUCSORGLEFT
 10
0.0
 20
0.0
 30
0.0
  9
$PUCSORGRIGHT
 10
0.0
 20
0.0
 30
0.0
  9
$PUCSORGFRONT
 10
0.0
 20
0.0
 30
0.0
  9
$PUCSORGBACK
 10
0.0
 20
0.0
 30
0.0
  9
$USERI1
 70
     0
  9
$USERI2
 70
     0
  9
$USERI3
 70
     0
  9
$USERI4
 70
     0
  9
$USERI5
 70
     0
  9
$USERR1
 40
0.0
  9
$USERR2
 40
0.0
  9
$USERR3
 40
0.0
  9
$USERR4
 40
0.0
  9
$USERR5
 40
0.0
  9
$WORLDVIEW
 70
     1
  9
$SHADEDGE
 70
     3
  9
$SHADEDIF
 70
    70
  9
$TILEMODE
 70
     1
  9
$MAXACTVP
 70
    64
  9
$PINSBASE
 10
0.0
 20
0.0
 30
0.0
  9
$PLIMCHECK
 70
     0
  9
$PEXTMIN
 10
1.000000000000000E+20
 20
1.000000000000000E+20
 30
1.000000000000000E+20
  9
$PEXTMAX
 10
-1.000000000000000E+20
 20
-1.000000000000000E+20
 30
-1.000000000000000E+20
  9
$PLIMMIN
 10
-20.0
 20
-7.5
  9
$PLIMMAX
 10
277.0
 20
202.5
  9
$UNITMODE
 70
     0
  9
$VISRETAIN
 70
     1
  9
$PLINEGEN
 70
     0
  9
$PSLTSCALE
 70
     1
  9
$TREEDEPTH
 70
  3020
  9
$CMLSTYLE
  2
Standard
  9
$CMLJUST
 70
     0
  9
$CMLSCALE
 40
1.0
  9
$PROXYGRAPHICS
 70
     1
  9
$MEASUREMENT
 70
     0
  9
$CELWEIGHT
370
    -1
  9
$ENDCAPS
280
     0
  9
$JOINSTYLE
280
     0
  9
$LWDISPLAY
290
     0
  9
$INSUNITS
 70
     1
  9
$HYPERLINKBASE
  1

  9
$STYLESHEET
  1

  9
$XEDIT
290
     1
  9
$CEPSNTYPE
380
     0
  9
$PSTYLEMODE
290
     1
  9
$FINGERPRINTGUID
  2
{CE3D1872-8BE4-4280-B1B1-C751DCEBB459}
  9
$VERSIONGUID
  2
{9F8D1A70-9DF7-4783-ABA9-22824883AEE9}
  9
$EXTNAMES
290
     1
  9
$PSVPSCALE
 40
0.0
  9
$OLESTARTUP
290
     0
  0
ENDSEC
  0
SECTION
  2
CLASSES
  0
CLASS
  1
ACDBDICTIONARYWDFLT
  2
AcDbDictionaryWithDefault
  3
ObjectDBX Classes
 90
        0
280
     0
281
     0
  0
CLASS
  1
ACDBPLACEHOLDER
  2
AcDbPlaceHolder
  3
ObjectDBX Classes
 90
        0
280
     0
281
     0
  0
CLASS
  1
LAYOUT
  2
AcDbLayout
  3
ObjectDBX Classes
 90
        0
280
     0
281
     0
  0
CLASS
  1
DICTIONARYVAR
  2
AcDbDictionaryVar
  3
ObjectDBX Classes
 90
        0
280
     0
281
     0
  0
CLASS
  1
TABLESTYLE
  2
AcDbTableStyle
  3
ObjectDBX Classes
 90
     4095
280
     0
281
     0
  0
CLASS
  1
SORTENTSTABLE
  2
AcDbSortentsTable
  3
ObjectDBX Classes
 90
    32768
280
     0
281
     0
  0
CLASS
  1
DIMASSOC
  2
AcDbDimAssoc
  3
"AcDbDimAssoc|Product Desc:     AcDim ARX App For Dimension|Company:          Autodesk, Inc.|WEB Address:      www.autodesk.com"
 90
    32768
280
     0
281
     0
  0
CLASS
  1
MATERIAL
  2
AcDbMaterial
  3
ObjectDBX Classes
 90
     1153
280
     0
281
     0
  0
CLASS
  1
VISUALSTYLE
  2
AcDbVisualStyle
  3
ObjectDBX Classes
 90
     4095
280
     0
281
     0
  0
CLASS
  1
SCALE
  2
AcDbScale
  3
ObjectDBX Classes
 90
     1153
280
     0
281
     0
  0
CLASS
  1
MLEADERSTYLE
  2
AcDbMLeaderStyle
  3
ACDB_MLEADERSTYLE_CLASS
 90
     4095
280
     0
281
     0
  0
CLASS
  1
CELLSTYLEMAP
  2
AcDbCellStyleMap
  3
ObjectDBX Classes
 90
     1152
280
     0
281
     0
  0
ENDSEC
  0
SECTION
  2
TABLES
  0
TABLE
  2
VPORT
  5
8
330
0
100
AcDbSymbolTable
 70
     1
  0
VPORT
  5
2AD4
330
8
100
AcDbSymbolTableRecord
100
AcDbViewportTableRecord
  2
*Active
 70
     0
 10
0.0
 20
0.0
 11
1.0
 21
1.0
 12
1253.830234539656
 22
994.9967599263402
 13
0.0
 23
0.0
 14
0.5
 24
0.5
 15
0.5
 25
0.5
 16
0.0
 26
0.0
 36
1.0
 17
0.0
 27
0.0
 37
0.0
 40
71.02775911394987
 41
2.408320493066255
 42
50.0
 43
0.0
 44
0.0
 50
0.0
 51
0.0
 71
     0
 72
 20000
 73
     1
 74
     3
 75
     0
 76
     0
 77
     0
 78
     0
281
     0
 65
     1
110
0.0
120
0.0
130
0.0
111
1.0
121
0.0
131
0.0
112
0.0
122
1.0
132
0.0
 79
     0
146
0.0
1001
ACAD_NAV_VCDISPLAY
1070
     3
  0
ENDTAB
  0
TABLE
  2
LTYPE
  5
5
330
0
100
AcDbSymbolTable
 70
     4
  0
LTYPE
  5
14
330
5
100
AcDbSymbolTableRecord
100
AcDbLinetypeTableRecord
  2
ByBlock
 70
     0
  3

 72
    65
 73
     0
 40
0.0
  0
LTYPE
  5
15
330
5
100
AcDbSymbolTableRecord
100
AcDbLinetypeTableRecord
  2
ByLayer
 70
     0
  3

 72
    65
 73
     0
 40
0.0
  0
LTYPE
  5
16
330
5
100
AcDbSymbolTableRecord
100
AcDbLinetypeTableRecord
  2
Continuous
 70
     0
  3
Solid line
 72
    65
 73
     0
 40
0.0
  0
LTYPE
  5
7B1
330
5
100
AcDbSymbolTableRecord
100
AcDbLinetypeTableRecord
  2
DASHED
 70
     0
  3
-- -- -- -- -- -- -- -- -- --
 72
    65
 73
     2
 40
3.0
 49
2.0
 74
     0
 49
-1.0
 74
     0
  0
LTYPE
  5
7B2
330
5
100
AcDbSymbolTableRecord
100
AcDbLinetypeTableRecord
  2
CENTER
 70
     0
  3
--- - --- - --- - --- - --- -
 72
    65
 73
     4
 40
6.0
 49
3.0
 74
     0
 49
-1.0
 74
     0
 49
1.0
 74
     0
 49
-1.0
 74
     0
  0
LTYPE
  5
1C24
330
5
100
AcDbSymbolTableRecord
100
AcDbLinetypeTableRecord
  2
PHANTOM
 70
     0
  3
----- - - ----- - - ----- - -
 72
    65
 73
     6
 40
12.0
 49
7.0
 74
     0
 49
-1.0
 74
     0
 49
1.0
 74
     0
 49
-1.0
 74
     0
 49
1.0
 74
     0
 49
-1.0
 74
     0
  0
ENDTAB
  0
TABLE
  2
LAYER
  5
2
102
{ACAD_XDICTIONARY
360
1D0
102
}
330
0
100
AcDbSymbolTable
 70
     3
  0
LAYER
  5
10
102
{ACAD_XDICTIONARY
360
2B26
102
}
330
2
100
AcDbSymbolTableRecord
100
AcDbLayerTableRecord
  2
0
 70
     0
 62
     7
  6
Continuous
370
    -3
390
F
  0
LAYER
  5
200
330
2
100
AcDbSymbolTableRecord
100
AcDbLayerTableRecord
  2
Defpoints
 70
     0
 62
     7
  6
Continuous
290
     0
370
    -3
390
F
  0
LAYER
  5
240B
102
{ACAD_XDICTIONARY
360
2B28
102
}
330
2
100
AcDbSymbolTableRecord
100
AcDbLayerTableRecord
  2
PIC01
 70
     0
 62
     7
  6
Continuous
370
    -3
390
F
  0
ENDTAB
  0
TABLE
  2
STYLE
  5
3
330
0
100
AcDbSymbolTable
 70
     1
  0
STYLE
  5
11
330
3
100
AcDbSymbolTableRecord
100
AcDbTextStyleTableRecord
  2
Standard
 70
     0
 40
0.0
 41
1.0
 50
0.0
 71
     0
 42
0.2
  3
txt
  4

  0
ENDTAB
  0
TABLE
  2
VIEW
  5
6
330
0
100
AcDbSymbolTable
 70
     0
  0
ENDTAB
  0
TABLE
  2
UCS
  5
7
330
0
100
AcDbSymbolTable
 70
     0
  0
ENDTAB
  0
TABLE
  2
APPID
  5
9
330
0
100
AcDbSymbolTable
 70
    13
  0
APPID
  5
12
330
9
100
AcDbSymbolTableRecord
100
AcDbRegAppTableRecord
  2
ACAD
 70
     0
  0
APPID
  5
1CA
330
9
100
AcDbSymbolTableRecord
100
AcDbRegAppTableRecord
  2
ACAD_PSEXT
 70
     0
  0
APPID
  5
1CB
330
9
100
AcDbSymbolTableRecord
100
AcDbRegAppTableRecord
  2
ACAD_DSTYLE_DIMEXT_LENGTH
 70
     0
  0
APPID
  5
1CC
330
9
100
AcDbSymbolTableRecord
100
AcDbRegAppTableRecord
  2
ACAD_DSTYLE_DIMEXT_ENABLED
 70
     0
  0
APPID
  5
1CD
330
9
100
AcDbSymbolTableRecord
100
AcDbRegAppTableRecord
  2
ACAD_DSTYLE_DIMJOGGED_JOGANGLE_SYMBOL
 70
     0
  0
APPID
  5
1CE
330
9
100
AcDbSymbolTableRecord
100
AcDbRegAppTableRecord
  2
ACAD_DSTYLE_DIMARC_LENGTH_SYMBOL
 70
     0
  0
APPID
  5
1CF
330
9
100
AcDbSymbolTableRecord
100
AcDbRegAppTableRecord
  2
DCO15
 70
     0
  0
APPID
  5
2A8
330
9
100
AcDbSymbolTableRecord
100
AcDbRegAppTableRecord
  2
ACAD_DSTYLE_DIMTEXT_FILL
 70
     0
  0
APPID
  5
2AB
330
9
100
AcDbSymbolTableRecord
100
AcDbRegAppTableRecord
  2
ACAD_DSTYLE_DIM_LINETYPE
 70
     0
  0
APPID
  5
2AC
330
9
100
AcDbSymbolTableRecord
100
AcDbRegAppTableRecord
  2
ACAD_DSTYLE_DIM_EXT1_LINETYPE
 70
     0
  0
APPID
  5
2AD
330
9
100
AcDbSymbolTableRecord
100
AcDbRegAppTableRecord
  2
ACAD_DSTYLE_DIM_EXT2_LINETYPE
 70
     0
  0
APPID
  5
2B2F
330
9
100
AcDbSymbolTableRecord
100
AcDbRegAppTableRecord
  2
ACAD_NAV_VCDISPLAY
 70
     0
  0
APPID
  5
2B71
330
9
100
AcDbSymbolTableRecord
100
AcDbRegAppTableRecord
  2
ACAD_MLEADERVER
 70
     0
  0
ENDTAB
  0
TABLE
  2
DIMSTYLE
  5
A
330
0
100
AcDbSymbolTable
 70
     1
100
AcDbDimStyleTable
 71
     1
340
27
  0
DIMSTYLE
105
27
330
A
100
AcDbSymbolTableRecord
100
AcDbDimStyleTableRecord
  2
Standard
 70
     0
  4
mm
170
     1
277
     5
340
11
1001
ACAD_DSTYLE_DIMJOGGED_JOGANGLE_SYMBOL
1070
   384
1040
0.7853981633974483
1001
ACAD_DSTYLE_DIMEXT_LENGTH
1070
   378
1040
0.18
  0
ENDTAB
  0
TABLE
  2
BLOCK_RECORD
  5
1
330
0
100
AcDbSymbolTable
 70
     1
  0
BLOCK_RECORD
  5
1F
330
1
100
AcDbSymbolTableRecord
100
AcDbBlockTableRecord
  2
*Model_Space
340
22
  0
BLOCK_RECORD
  5
58
330
1
100
AcDbSymbolTableRecord
100
AcDbBlockTableRecord
  2
*Paper_Space
340
59
  0
BLOCK_RECORD
  5
1BB8
330
1
100
AcDbSymbolTableRecord
100
AcDbBlockTableRecord
  2
MARK1_1
340
0
102
{BLKREFS
331
285D
102
}
  0
ENDTAB
  0
ENDSEC
  0
SECTION
  2
BLOCKS
  0
BLOCK
  5
20
330
1F
100
AcDbEntity
  8
0
100
AcDbBlockBegin
  2
*Model_Space
 70
     0
 10
0.0
 20
0.0
 30
0.0
  3
*Model_Space
  1

  0
ENDBLK
  5
21
330
1F
100
AcDbEntity
  8
0
100
AcDbBlockEnd
  0
BLOCK
  5
5A
330
58
100
AcDbEntity
 67
     1
  8
0
100
AcDbBlockBegin
  2
*Paper_Space
 70
     0
 10
0.0
 20
0.0
 30
0.0
  3
*Paper_Space
  1

  0
ENDBLK
  5
5B
330
58
100
AcDbEntity
 67
     1
  8
0
100
AcDbBlockEnd
  0
BLOCK
  5
1BB9
330
1BB8
100
AcDbEntity
  8
0
100
AcDbBlockBegin
  2
MARK1_1
 70
     0
 10
0.0
 20
0.0
 30
0.0
  3
MARK1_1
  1

  0
LINE
  5
1BBA
330
1BB8
100
AcDbEntity
  8
0
  6
Continuous
 62
     0
100
AcDbLine
 10
1.0
 20
-0.25
 30
0.0
 11
0.0
 21
0.0
 31
0.0
  0
LINE
  5
1BBB
330
1BB8
100
AcDbEntity
  8
0
  6
Continuous
 62
     0
100
AcDbLine
 10
0.0
 20
0.0
 30
0.0
 11
1.0
 21
0.25
 31
0.0
  0
ENDBLK
  5
1BBC
330
1BB8
100
AcDbEntity
  8
0
100
AcDbBlockEnd
  0
ENDSEC
  0
SECTION
  2
ENTITIES
  0
CIRCLE
  5
2737
330
1F
100
AcDbEntity
  8
PIC01
  6
Continuous
 62
     7
100
AcDbCircle
 10
1210.391398997518
 20
995.5004764179113
 30
0.0
 40
0.8661394192366541
  0
ARC
  5
2738
330
1F
100
AcDbEntity
  8
PIC01
  6
Continuous
 62
     7
100
AcDbCircle
 10
1222.79294471189
 20
995.5004764179113
 30
0.0
 40
2.165344518245041
100
AcDbArc
 50
311.7081340914583
 51
48.2918659085417
  0
ARC
  5
2739
330
1F
100
AcDbEntity
  8
PIC01
  6
Continuous
 62
     7
100
AcDbCircle
 10
1219.64334279391
 20
995.5004764179113
 30
0.0
 40
1.181099208050016
100
AcDbArc
 50
89.96043531496601
 51
270.0
  0
CIRCLE
  5
273A
330
1F
100
AcDbEntity
  8
PIC01
  6
Continuous
 62
     7
100
AcDbCircle
 10
1219.64334279391
 20
995.5004764179113
 30
0.0
 40
0.3936997360166606
  0
CIRCLE
  5
273B
330
1F
100
AcDbEntity
  8
PIC01
  6
Continuous
 62
     7
100
AcDbCircle
 10
1205.785112086124
 20
995.5004764179113
 30
0.0
 40
0.6889745380291567
  0
CIRCLE
  5
273C
330
1F
100
AcDbEntity
  8
PIC01
  6
Continuous
 62
     7
100
AcDbCircle
 10
1205.037082587692
 20
999.4965287384804
 30
0.0
 40
0.6889745380291567
  0
ARC
  5
273D
330
1F
100
AcDbEntity
  8
PIC01
  6
Continuous
 62
     7
100
AcDbCircle
 10
1222.79294471189
 20
995.5004764179113
 30
0.0
 40
4.724392802353323
100
AcDbArc
 50
311.8886573278037
 51
48.11134267219626
  0
ARC
  5
273E
330
1F
100
AcDbEntity
  8
PIC01
  6
Continuous
 62
     7
100
AcDbCircle
 10
1216.878432947685
 20
988.9060058396321
 30
0.0
 40
13.58262844532825
100
AcDbArc
 50
48.11137871688043
 51
97.94331727902488
  0
ARC
  5
273F
330
1F
100
AcDbEntity
  8
PIC01
  6
Continuous
 62
     7
100
AcDbCircle
 10
1204.120054511317
 20
1080.342769529502
 30
0.0
 40
78.73994720333219
100
AcDbArc
 50
270.0
 51
277.9433244466442
  0
ARC
  5
2740
330
1F
100
AcDbEntity
  8
PIC01
  6
Continuous
 62
     7
100
AcDbCircle
 10
1216.878432947685
 20
988.9060058396321
 30
0.0
 40
11.02358016121996
100
AcDbArc
 50
48.11137871688043
 51
97.94331727902488
  0
ARC
  5
2741
330
1F
100
AcDbEntity
  8
PIC01
  6
Continuous
 62
     7
100
AcDbCircle
 10
1204.120054511317
 20
910.6581833063209
 30
0.0
 40
78.73994720333219
100
AcDbArc
 50
82.05667555335585
 51
90.0
  0
ARC
  5
2742
330
1F
100
AcDbEntity
  8
PIC01
  6
Continuous
 62
     7
100
AcDbCircle
 10
1216.878432947685
 20
1002.09494699619
 30
0.0
 40
11.02358016121996
100
AcDbArc
 50
262.0566827209751
 51
311.8886212831196
  0
ARC
  5
2743
330
1F
100
AcDbEntity
  8
PIC01
  6
Continuous
 62
     7
100
AcDbCircle
 10
1216.878432947685
 20
1002.09494699619
 30
0.0
 40
13.58262844532825
100
AcDbArc
 50
262.0566827209751
 51
311.8886212831196
  0
ARC
  5
2744
330
1F
100
AcDbEntity
  8
PIC01
  6
Continuous
 62
     7
100
AcDbCircle
 10
1204.120054511317
 20
910.6581833063209
 30
0.0
 40
81.29899548744047
100
AcDbArc
 50
82.05667555335585
 51
85.80019933274353
  0
CIRCLE
  5
2745
330
1F
100
AcDbEntity
  8
PIC01
  6
Continuous
 62
     7
100
AcDbCircle
 10
1205.037082587692
 20
991.5044240973422
 30
0.0
 40
0.6889745380291567
  0
LINE
  5
2746
330
1F
100
AcDbEntity
  8
PIC01
  6
Continuous
 62
     7
100
AcDbLine
 10
1202.462058385052
 20
977.3132873604277
 30
0.0
 11
1227.216409816386
 21
977.3132873604277
 31
0.0
  0
LINE
  5
2747
330
1F
100
AcDbEntity
  8
PIC01
  6
Continuous
 62
     7
100
AcDbLine
 10
1206.690605540629
 20
962.3526961903182
 30
0.0
 11
1224.56456874988
 21
962.3526961903182
 31
0.0
  0
LINE
  5
2748
330
1F
100
AcDbEntity
  8
PIC01
  6
Continuous
 62
     7
100
AcDbLine
 10
1224.958287709516
 20
976.3337096263009
 30
0.0
 11
1224.958287709516
 21
976.6116397907211
 31
0.0
  0
LINE
  5
2749
330
1F
100
AcDbEntity
  8
PIC01
  6
Continuous
 62
     7
100
AcDbLine
 10
1209.21029826885
 20
976.2896680467843
 30
0.0
 11
1224.958287709516
 21
976.1321881523777
 31
0.0
  0
LINE
  5
274A
330
1F
100
AcDbEntity
  8
PIC01
  6
Continuous
 62
     7
100
AcDbLine
 10
1209.21029826885
 20
976.919587624411
 30
0.0
 11
1224.958287709516
 21
976.919587624411
 31
0.0
  0
LINE
  5
274B
330
1F
100
AcDbEntity
  8
PIC01
  6
PHANTOM
 62
     7
100
AcDbLine
 10
1220.037041009308
 20
971.9196009769994
 30
0.0
 11
1220.037041009308
 21
972.3133007130162
 31
0.0
  0
LINE
  5
274C
330
1F
100
AcDbEntity
  8
PIC01
  6
Continuous
 62
     7
100
AcDbLine
 10
1218.685529921233
 20
972.3133007130162
 30
0.0
 11
1220.794250539676
 21
972.3133007130162
 31
0.0
  0
LINE
  5
274D
330
1F
100
AcDbEntity
  8
PIC01
  6
PHANTOM
 62
     7
100
AcDbLine
 10
1219.249641537275
 20
971.9196009769994
 30
0.0
 11
1219.249641537275
 21
972.3133007130162
 31
0.0
  0
LINE
  5
274E
330
1F
100
AcDbEntity
  8
PIC01
  6
Continuous
 62
     7
100
AcDbLine
 10
1208.026344037808
 20
974.675499129116
 30
0.0
 11
1208.344041469284
 21
974.675499129116
 31
0.0
  0
LINE
  5
274F
330
1F
100
AcDbEntity
  8
PIC01
  6
Continuous
 62
     7
100
AcDbLine
 10
1208.097090795042
 20
974.1636894722942
 30
0.0
 11
1208.415365172598
 21
974.1636894722942
 31
0.0
  0
LINE
  5
2750
330
1F
100
AcDbEntity
  8
PIC01
  6
Continuous
 62
     7
100
AcDbLine
 10
1209.318582743108
 20
969.714882455306
 30
0.0
 11
1211.460670086646
 21
969.714882455306
 31
0.0
  0
LINE
  5
2751
330
1F
100
AcDbEntity
  8
PIC01
  6
Continuous
 62
     7
100
AcDbLine
 10
1209.525258057663
 20
969.714882455306
 30
0.0
 11
1209.525258057663
 21
970.0298422441195
 31
0.0
  0
LINE
  5
2752
330
1F
100
AcDbEntity
  8
PIC01
  6
Continuous
 62
     7
100
AcDbLine
 10
1211.257536896137
 20
969.714882455306
 30
0.0
 11
1211.257536896137
 21
970.0298422441195
 31
0.0
  0
LINE
  5
2753
330
1F
100
AcDbEntity
  8
PIC01
  6
Continuous
 62
     7
100
AcDbLine
 10
1211.257536896137
 20
971.0928315313644
 30
0.0
 11
1211.257536896137
 21
971.3290513729743
 31
0.0
  0
LINE
  5
2754
330
1F
100
AcDbEntity
  8
PIC01
  6
Continuous
 62
     7
100
AcDbLine
 10
1209.131558321647
 20
971.7227511089911
 30
0.0
 11
1211.651236632153
 21
971.7227511089911
 31
0.0
  0
LINE
  5
2755
330
1F
100
AcDbEntity
  8
PIC01
  6
Continuous
 62
     7
100
AcDbLine
 10
1209.525258057663
 20
971.3290513729743
 30
0.0
 11
1211.257536896137
 21
971.3290513729743
 31
0.0
  0
LINE
  5
2756
330
1F
100
AcDbEntity
  8
PIC01
  6
Continuous
 62
     7
100
AcDbLine
 10
1209.525258057663
 20
971.0928315313644
 30
0.0
 11
1209.525258057663
 21
971.3290513729743
 31
0.0
  0
LINE
  5
2757
330
1F
100
AcDbEntity
  8
PIC01
  6
Continuous
 62
     7
100
AcDbLine
 10
1209.525258057663
 20
971.3290513729743
 30
0.0
 11
1209.131558321647
 21
971.7227511089911
 31
0.0
  0
LINE
  5
2758
330
1F
100
AcDbEntity
  8
PIC01
  6
Continuous
 62
     7
100
AcDbLine
 10
1212.113519619438
 20
962.3527103558242
 30
0.0
 11
1224.564568616769
 21
962.352696323429
 31
0.0
  0
ARC
  5
2759
330
1F
100
AcDbEntity
  8
PIC01
  6
Continuous
 62
     7
100
AcDbCircle
 10
1224.452023831243
 20
963.5337965998445
 30
0.0
 40
0.1968498680083306
100
AcDbArc
 50
195.7491954783723
 51
261.1997175076497
  0
ARC
  5
275A
330
1F
100
AcDbEntity
  8
PIC01
  6
Continuous
 62
     7
100
AcDbCircle
 10
1223.504724148625
 20
963.2666448177346
 30
0.0
 40
0.7873994720333219
100
AcDbArc
 50
14.54498567727823
 51
72.3644881206587
  0
ARC
  5
275B
330
1F
100
AcDbEntity
  8
PIC01
  6
Continuous
 62
     7
100
AcDbCircle
 10
1223.814790890697
 20
964.2007783086411
 30
0.0
 40
0.1968498680083371
100
AcDbArc
 50
189.3436312170875
 51
251.6374565490429
  0
ARC
  5
275C
330
1F
100
AcDbEntity
  8
PIC01
  6
Continuous
 62
     7
100
AcDbCircle
 10
1224.09214829028
 20
969.7542524289078
 30
0.0
 40
1.181099208049982
100
AcDbArc
 50
110.7133712746567
 51
185.4774256045302
  0
LINE
  5
275D
330
1F
100
AcDbEntity
  8
PIC01
  6
Continuous
 62
     7
100
AcDbLine
 10
1211.513476717543
 20
971.5849911943809
 30
0.0
 11
1211.257536896137
 21
971.3290513729743
 31
0.0
  0
ARC
  5
275E
330
1F
100
AcDbEntity
  8
PIC01
  6
Continuous
 62
     7
100
AcDbCircle
 10
1265.422455067684
 20
999.2820075137242
 30
0.0
 40
0.590549604024993
100
AcDbArc
 50
8.379693802073234
 51
84.92863265903551
  0
ARC
  5
275F
330
1F
100
AcDbEntity
  8
PIC01
  6
Continuous
 62
     7
100
AcDbCircle
 10
1260.041732546786
 20
995.5004764179113
 30
0.0
 40
6.692895512283231
100
AcDbArc
 50
342.8031139841647
 51
17.19688601583531
  0
ARC
  5
2760
330
1F
100
AcDbEntity
  8
PIC01
  6
Continuous
 62
     7
100
AcDbCircle
 10
1265.422455067684
 20
991.7189453220984
 30
0.0
 40
0.590549604024993
100
AcDbArc
 50
275.0713673409645
 51
351.6203061979268
  0
ARC
  5
2761
330
1F
100
AcDbEntity
  8
PIC01
  6
Continuous
 62
     7
100
AcDbCircle
 10
1278.470591670356
 20
1001.204063711951
 30
0.0
 40
12.59839155253313
100
AcDbArc
 50
188.2345006401882
 51
197.1968860158353
  0
ARC
  5
2762
330
1F
100
AcDbEntity
  8
PIC01
  6
Continuous
 62
     7
100
AcDbCircle
 10
1268.954826657197
 20
1039.086099838838
 30
0.0
 40
39.36997360166609
100
AcDbArc
 50
259.5263818705248
 51
264.9776645581237
  0
ARC
  5
2763
330
1F
100
AcDbEntity
  8
PIC01
  6
Continuous
 62
     7
100
AcDbCircle
 10
1268.954826657197
 20
951.9148529969847
 30
0.0
 40
39.36997360166609
100
AcDbArc
 50
94.98653126505198
 51
100.4736168930522
  0
ARC
  5
2764
330
1F
100
AcDbEntity
  8
PIC01
  6
Continuous
 62
     7
100
AcDbCircle
 10
1278.470591670356
 20
989.796889123871
 30
0.0
 40
12.59839155253313
100
AcDbArc
 50
162.8031139841646
 51
171.8616672516745
  0
ARC
  5
2765
330
1F
100
AcDbEntity
  8
PIC01
  6
Continuous
 62
     7
100
AcDbCircle
 10
1195.824508281057
 20
995.5004744819909
 30
0.0
 40
13.38579102456652
100
AcDbArc
 50
0.0
 51
10.12604478676748
  0
ARC
  5
2766
330
1F
100
AcDbEntity
  8
PIC01
  6
Continuous
 62
     7
100
AcDbCircle
 10
1259.385532010229
 20
1006.852229153671
 30
0.0
 40
51.18096568216589
100
AcDbArc
 50
185.7520988073154
 51
190.1260447867675
  0
ARC
  5
2767
330
1F
100
AcDbEntity
  8
PIC01
  6
Continuous
 62
     7
100
AcDbCircle
 10
1204.120054511317
 20
1080.342769529502
 30
0.0
 40
81.29899548744047
100
AcDbArc
 50
274.1589332605682
 51
277.9433244466442
  0
ARC
  5
2768
330
1F
100
AcDbEntity
  8
PIC01
  6
Continuous
 62
     7
100
AcDbCircle
 10
1195.824508281057
 20
995.5004783538315
 30
0.0
 40
13.38579102456652
100
AcDbArc
 50
349.8739552132325
 51
0.0
  0
ARC
  5
2769
330
1F
100
AcDbEntity
  8
PIC01
  6
Continuous
 62
     7
100
AcDbCircle
 10
1210.160461766952
 20
992.916796844133
 30
0.0
 40
1.181099208049988
100
AcDbArc
 50
169.900279031152
 51
265.8001993327435
  0
ARC
  5
276A
330
1F
100
AcDbEntity
  8
PIC01
  6
Continuous
 62
     7
100
AcDbCircle
 10
1208.895338480037
 20
976.9983275716143
 30
0.0
 40
0.3149597888133286
100
AcDbArc
 50
0.0
 51
90.0
  0
ARC
  5
276B
330
1F
100
AcDbEntity
  8
PIC01
  6
Continuous
 62
     7
100
AcDbCircle
 10
1202.674884171592
 20
1001.012272722144
 30
0.0
 40
0.5905496040249913
100
AcDbArc
 50
90.0
 51
180.0
  0
LINE
  5
276C
330
1F
100
AcDbEntity
  8
PIC01
  6
Continuous
 62
     7
100
AcDbLine
 10
1202.630838052444
 20
1001.602822326169
 30
0.0
 11
1204.120054511317
 21
1001.602822326169
 31
0.0
  0
LINE
  5
276D
330
1F
100
AcDbEntity
  8
PIC01
  6
Continuous
 62
     7
100
AcDbLine
 10
1205.78509614779
 20
970.2261015262857
 30
0.0
 11
1205.78509614779
 21
975.8039307760073
 31
0.0
  0
LINE
  5
276E
330
1F
100
AcDbEntity
  8
PIC01
  6
Continuous
 62
     7
100
AcDbLine
 10
1209.21029826885
 20
976.4902543091441
 30
0.0
 11
1209.21029826885
 21
976.9983275716143
 31
0.0
  0
ARC
  5
276F
330
1F
100
AcDbEntity
  8
PIC01
  6
Continuous
 62
     7
100
AcDbCircle
 10
1202.674884171592
 20
989.988680113678
 30
0.0
 40
0.5905496040249913
100
AcDbArc
 50
180.0
 51
270.0
  0
LINE
  5
2770
330
1F
100
AcDbEntity
  8
PIC01
  6
Continuous
 62
     7
100
AcDbLine
 10
1202.628543232816
 20
989.3981305096529
 30
0.0
 11
1204.120054511317
 21
989.3981305096529
 31
0.0
  0
LINE
  5
2771
330
1F
100
AcDbEntity
  8
PIC01
  6
Continuous
 62
     7
100
AcDbLine
 10
1202.084334567567
 20
989.9493101400762
 30
0.0
 11
1202.084334567567
 21
1001.012272722144
 31
0.0
  0
LINE
  5
2772
330
1F
100
AcDbEntity
  8
PIC01
  6
CENTER
 62
     7
100
AcDbLine
 10
1201.809987078793
 20
995.5004764179113
 30
0.0
 11
1227.727438989405
 21
995.5004764179113
 31
0.0
  0
LINE
  5
2773
330
1F
100
AcDbEntity
  8
PIC01
  6
CENTER
 62
     7
100
AcDbLine
 10
1210.391398997518
 20
994.1014951998122
 30
0.0
 11
1210.391398997518
 21
996.8495741445252
 31
0.0
  0
LINE
  5
2774
330
1F
100
AcDbEntity
  8
PIC01
  6
CENTER
 62
     7
100
AcDbLine
 10
1219.64334279391
 20
994.2125710779398
 30
0.0
 11
1219.64334279391
 21
996.769393627304
 31
0.0
  0
LINE
  5
2775
330
1F
100
AcDbEntity
  8
PIC01
  6
CENTER
 62
     7
100
AcDbLine
 10
1205.785112086124
 20
994.1598581286704
 30
0.0
 11
1205.785112086124
 21
996.8496834976367
 31
0.0
  0
LINE
  5
2776
330
1F
100
AcDbEntity
  8
PIC01
  6
CENTER
 62
     7
100
AcDbLine
 10
1203.501653617227
 20
994.9886667610895
 30
0.0
 11
1203.501653617227
 21
996.0961079848573
 31
0.0
  0
LINE
  5
2777
330
1F
100
AcDbEntity
  8
PIC01
  6
CENTER
 62
     7
100
AcDbLine
 10
1243.824159735543
 20
995.5004764179113
 30
0.0
 11
1270.011435051221
 21
995.5004764179113
 31
0.0
  0
LINE
  5
2778
330
1F
100
AcDbEntity
  8
PIC01
  6
PHANTOM
 62
     7
100
AcDbLine
 10
1254.72678549023
 20
989.9886792125709
 30
0.0
 11
1254.72678549023
 21
1000.712603814772
 31
0.0
  0
LINE
  5
2779
330
1F
100
AcDbEntity
  8
PIC01
  6
Continuous
 62
     7
100
AcDbLine
 10
1227.523069385703
 20
977.0041648111675
 30
0.0
 11
1227.52305627186
 21
977.0048722728787
 31
0.0
  0
LINE
  5
277A
330
1F
100
AcDbEntity
  8
PIC01
  6
Continuous
 62
     7
100
AcDbLine
 10
1210.981947080925
 20
975.7384884163611
 30
0.0
 11
1210.164241339675
 21
975.7782882533245
 31
0.0
  0
LINE
  5
277B
330
1F
100
AcDbEntity
  8
PIC01
  6
DASHED
 62
     7
100
AcDbLine
 10
1210.164241339675
 20
975.7782882533245
 30
0.0
 11
1205.78509614779
 21
975.9914324883277
 31
0.0
  0
ARC
  5
277C
330
1F
100
AcDbEntity
  8
PIC01
  6
Continuous
 62
     7
100
AcDbCircle
 10
1223.504724148625
 20
963.2666448177346
 30
0.0
 40
0.7873994720333219
100
AcDbArc
 50
5.122398463336647
 51
14.54498567727823
  0
ARC
  5
277D
330
1F
100
AcDbEntity
  8
PIC01
  6
Continuous
 62
     7
100
AcDbCircle
 10
1223.504724148625
 20
963.2666448177346
 30
0.0
 40
0.7873994720333212
100
AcDbArc
 50
72.3644881206587
 51
81.60444745346639
  0
LINE
  5
277E
330
1F
100
AcDbEntity
  8
PIC01
  6
Continuous
 62
     7
100
AcDbLine
 10
1223.304729594627
 20
964.3605660454795
 30
0.0
 11
1223.289611623965
 21
964.5182232352844
 31
0.0
  0
ARC
  5
277F
330
1F
100
AcDbEntity
  8
PIC01
  6
Continuous
 62
     7
100
AcDbCircle
 10
1204.120054511317
 20
1080.342769529502
 30
0.0
 40
81.29899548744047
100
AcDbArc
 50
273.2882048315046
 51
274.1589332605682
  0
ARC
  5
2780
330
1F
100
AcDbEntity
  8
PIC01
  6
DASHED
 62
     7
100
AcDbCircle
 10
1222.79294471189
 20
995.5004764179113
 30
0.0
 40
4.488172960743331
100
AcDbArc
 50
311.8886573278037
 51
48.11134267219626
  0
ARC
  5
2781
330
1F
100
AcDbEntity
  8
PIC01
  6
DASHED
 62
     7
100
AcDbCircle
 10
1216.878432947685
 20
988.9060058396321
 30
0.0
 40
13.34640860371826
100
AcDbArc
 50
48.11137871688043
 51
97.94331727902488
  0
ARC
  5
2782
330
1F
100
AcDbEntity
  8
PIC01
  6
DASHED
 62
     7
100
AcDbCircle
 10
1204.120054511317
 20
1080.342769529502
 30
0.0
 40
78.97616704494217
100
AcDbArc
 50
271.3196929065183
 51
277.9433244466442
  0
ARC
  5
2783
330
1F
100
AcDbEntity
  8
PIC01
  6
DASHED
 62
     7
100
AcDbCircle
 10
1216.878432947685
 20
1002.09494699619
 30
0.0
 40
13.34640860371826
100
AcDbArc
 50
262.0566827209751
 51
311.8886212831196
  0
ARC
  5
2784
330
1F
100
AcDbEntity
  8
PIC01
  6
DASHED
 62
     7
100
AcDbCircle
 10
1204.120054511317
 20
910.6581833063209
 30
0.0
 40
78.97616704494217
100
AcDbArc
 50
82.05667555335585
 51
88.68030709348165
  0
ARC
  5
2785
330
1F
100
AcDbEntity
  8
PIC01
  6
DASHED
 62
     7
100
AcDbCircle
 10
1195.824508281057
 20
995.5004783538315
 30
0.0
 40
12.40154168452488
100
AcDbArc
 50
349.8739552132325
 51
0.0
  0
ARC
  5
2786
330
1F
100
AcDbEntity
  8
PIC01
  6
DASHED
 62
     7
100
AcDbCircle
 10
1195.824508281057
 20
995.5004744819909
 30
0.0
 40
12.40154168452488
100
AcDbArc
 50
0.0
 51
10.12604478676748
  0
ARC
  5
2787
330
1F
100
AcDbEntity
  8
PIC01
  6
DASHED
 62
     7
100
AcDbCircle
 10
1259.385532010229
 20
1006.852229153671
 30
0.0
 40
52.16521502220758
100
AcDbArc
 50
189.2584671714132
 51
190.1260447867675
  0
ARC
  5
2788
330
1F
100
AcDbEntity
  8
PIC01
  6
DASHED
 62
     7
100
AcDbCircle
 10
1259.385532010229
 20
984.1487236821514
 30
0.0
 40
52.16521502220757
100
AcDbArc
 50
169.8739552132325
 51
170.7415325065053
  0
LINE
  5
2789
330
1F
100
AcDbEntity
  8
PIC01
  6
Continuous
 62
     7
100
AcDbLine
 10
1202.251761442438
 20
976.1634089562873
 30
0.0
 11
1202.081910900607
 21
976.1716760180579
 31
0.0
  0
LINE
  5
278A
330
1F
100
AcDbEntity
  8
PIC01
  6
Continuous
 62
     7
100
AcDbLine
 10
1209.21029826885
 20
976.2896680467843
 30
0.0
 11
1209.21029826885
 21
976.4951856241806
 31
0.0
  0
LINE
  5
278B
330
1F
100
AcDbEntity
  8
PIC01
  6
CENTER
 62
     7
100
AcDbLine
 10
1254.224878223084
 20
991.0122994273212
 30
0.0
 11
1255.216170616875
 21
991.0122994273212
 31
0.0
  0
LINE
  5
278C
330
1F
100
AcDbEntity
  8
PIC01
  6
CENTER
 62
     7
100
AcDbLine
 10
1254.097617859196
 20
999.9886534085012
 30
0.0
 11
1255.216170616875
 21
999.9886534085012
 31
0.0
  0
ARC
  5
278D
330
1F
100
AcDbEntity
  8
PIC01
  6
DASHED
 62
     7
100
AcDbCircle
 10
1209.560994548869
 20
969.1068312028566
 30
0.0
 40
6.692895512283236
100
AcDbArc
 50
71.1904087947929
 51
87.21346643050869
  0
ARC
  5
278E
330
1F
100
AcDbEntity
  8
PIC01
  6
Continuous
 62
     7
100
AcDbCircle
 10
1213.397079329409
 20
980.6929848309009
 30
0.0
 40
5.511796304233253
100
AcDbArc
 50
244.0124927403847
 51
250.467028188667
  0
LINE
  5
278F
330
1F
100
AcDbEntity
  8
PIC01
  6
DASHED
 62
     7
100
AcDbLine
 10
1207.870948059992
 20
994.5162270778697
 30
0.0
 11
1208.18693059947
 21
994.5162270778697
 31
0.0
  0
LINE
  5
2790
330
1F
100
AcDbEntity
  8
PIC01
  6
DASHED
 62
     7
100
AcDbLine
 10
1207.870948059992
 20
996.4847257579529
 30
0.0
 11
1208.18693059947
 21
996.4847257579529
 31
0.0
  0
ARC
  5
2791
330
1F
100
AcDbEntity
  8
PIC01
  6
DASHED
 62
     7
100
AcDbCircle
 10
1213.496082031589
 20
980.6597351165693
 30
0.0
 40
5.511796304233254
100
AcDbArc
 50
251.1904087947929
 51
270.8204746901599
  0
LINE
  5
2792
330
1F
100
AcDbEntity
  8
PIC01
  6
DASHED
 62
     7
100
AcDbLine
 10
1227.281116020603
 20
975.3447886052521
 30
0.0
 11
1213.575008173211
 21
975.1485039325661
 31
0.0
  0
ARC
  5
2793
330
1F
100
AcDbEntity
  8
PIC01
  6
Continuous
 62
     7
100
AcDbCircle
 10
1227.359855967806
 20
975.581008446862
 30
0.0
 40
0.2362198416099969
100
AcDbArc
 50
285.826682089486
 51
2.610662820064778
  0
LINE
  5
2794
330
1F
100
AcDbEntity
  8
PIC01
  6
Continuous
 62
     7
100
AcDbLine
 10
1227.531042711704
 20
977.0126736426199
 30
0.0
 11
1227.595830639295
 21
975.5917680001163
 31
0.0
  0
ARC
  5
2795
330
1F
100
AcDbEntity
  8
PIC01
  6
Continuous
 62
     7
100
AcDbCircle
 10
1227.216409816386
 20
976.9983275716143
 30
0.0
 40
0.3149597888133286
100
AcDbArc
 50
2.610662820064778
 51
100.0098528886334
  0
ARC
  5
2796
330
1F
100
AcDbEntity
  8
PIC01
  6
Continuous
 62
     7
100
AcDbCircle
 10
1223.387466990783
 20
964.1304671576703
 30
0.0
 40
0.2362198416099969
100
AcDbArc
 50
9.343631217087464
 51
76.57039148428785
  0
ARC
  5
2797
330
1F
100
AcDbEntity
  8
PIC01
  6
Continuous
 62
     7
100
AcDbCircle
 10
1224.56456874988
 20
962.4708062442337
 30
0.0
 40
0.1181099208049972
100
AcDbArc
 50
269.9999354273578
 51
0.0
  0
LINE
  5
2798
330
1F
100
AcDbEntity
  8
PIC01
  6
Continuous
 62
     7
100
AcDbLine
 10
1224.655048736518
 20
963.0794713813033
 30
0.0
 11
1224.682556087257
 21
962.4761859850533
 31
0.0
  0
ARC
  5
2799
330
1F
100
AcDbEntity
  8
PIC01
  6
Continuous
 62
     7
100
AcDbCircle
 10
1224.379744949305
 20
963.0669186527246
 30
0.0
 40
0.2755898152116627
100
AcDbArc
 50
2.61064543150191
 51
81.19971750764975
  0
ARC
  5
279A
330
1F
100
AcDbEntity
  8
PIC01
  6
Continuous
 62
     7
100
AcDbCircle
 10
1224.251076826234
 20
962.431436623939
 30
0.0
 40
0.0787399472033305
100
AcDbArc
 50
179.9999354273577
 51
269.9999354273578
  0
LINE
  5
279B
330
1F
100
AcDbEntity
  8
PIC01
  6
Continuous
 62
     7
100
AcDbLine
 10
1208.226048797397
 20
975.6597484691576
 30
0.0
 11
1208.226048797397
 21
975.870786968352
 31
0.0
  0
LINE
  5
279C
330
1F
100
AcDbEntity
  8
PIC01
  6
Continuous
 62
     7
100
AcDbLine
 10
1227.531042711704
 20
977.0126736426199
 30
0.0
 11
1227.517335862213
 21
977.3132873604277
 31
0.0
  0
LINE
  5
279D
330
1F
100
AcDbEntity
  8
PIC01
  6
Continuous
 62
     7
100
AcDbLine
 10
1227.216409816386
 20
977.3132873604277
 30
0.0
 11
1227.517335862213
 21
977.3132873604277
 31
0.0
  0
ARC
  5
279E
330
1F
100
AcDbEntity
  8
PIC01
  6
DASHED
 62
     7
100
AcDbCircle
 10
1259.385532010229
 20
984.1487236821514
 30
0.0
 40
52.87387454703756
100
AcDbArc
 50
169.8739552132325
 51
170.7415321358088
  0
ARC
  5
279F
330
1F
100
AcDbEntity
  8
PIC01
  6
DASHED
 62
     7
100
AcDbCircle
 10
1195.824508281057
 20
995.5004783538315
 30
0.0
 40
11.69288215969489
100
AcDbArc
 50
349.8739552132325
 51
351.3831594481955
  0
ARC
  5
27A0
330
1F
100
AcDbEntity
  8
PIC01
  6
DASHED
 62
     7
100
AcDbCircle
 10
1195.824508281057
 20
995.5004744819909
 30
0.0
 40
11.69288215969489
100
AcDbArc
 50
8.616840551804489
 51
10.12604478676748
  0
ARC
  5
27A1
330
1F
100
AcDbEntity
  8
PIC01
  6
DASHED
 62
     7
100
AcDbCircle
 10
1259.385532010229
 20
1006.852229153671
 30
0.0
 40
52.87387454703756
100
AcDbArc
 50
189.394873177429
 51
190.1260447867675
  0
LINE
  5
27A2
330
1F
100
AcDbEntity
  8
PIC01
  6
Continuous
 62
     7
100
AcDbLine
 10
1208.344158718202
 20
975.9589602685304
 30
0.0
 11
1208.344158718202
 21
976.2801574903615
 31
0.0
  0
LINE
  5
27A3
330
1F
100
AcDbEntity
  8
PIC01
  6
Continuous
 62
     7
100
AcDbLine
 10
1208.462268639007
 20
975.9825822526913
 30
0.0
 11
1208.462268639007
 21
976.3037794745226
 31
0.0
  0
LINE
  5
27A4
330
1F
100
AcDbEntity
  8
PIC01
  6
Continuous
 62
     7
100
AcDbLine
 10
1208.289346570474
 20
975.9479978389848
 30
0.0
 11
1208.619748533414
 21
976.0140782315726
 31
0.0
  0
LINE
  5
27A5
330
1F
100
AcDbEntity
  8
PIC01
  6
Continuous
 62
     7
100
AcDbLine
 10
1208.619748533414
 20
976.0140782315726
 30
0.0
 11
1209.028530372551
 21
976.2048430473873
 31
0.0
  0
ARC
  5
27A6
330
1F
100
AcDbEntity
  8
PIC01
  6
Continuous
 62
     7
100
AcDbCircle
 10
1208.895338480037
 20
976.4902543091441
 30
0.0
 40
0.3149597888133286
100
AcDbArc
 50
295.0168885922381
 51
0.0
  0
ARC
  5
27A7
330
1F
100
AcDbEntity
  8
PIC01
  6
Continuous
 62
     7
100
AcDbCircle
 10
1208.3047887446
 20
975.870786968352
 30
0.0
 40
0.0787399472033327
100
AcDbArc
 50
101.3099324740202
 51
180.0
  0
ARC
  5
27A8
330
1F
100
AcDbEntity
  8
PIC01
  6
Continuous
 62
     7
100
AcDbCircle
 10
1247.372032721359
 20
979.8534060637633
 30
0.0
 40
39.36997360166609
100
AcDbArc
 50
186.1147005073408
 51
190.6788323849696
  0
LINE
  5
27A9
330
1F
100
AcDbEntity
  8
PIC01
  6
Continuous
 62
     7
100
AcDbLine
 10
1209.028530372551
 20
976.2048430473873
 30
0.0
 11
1209.21029826885
 21
976.2896680467843
 31
0.0
  0
ARC
  5
27AA
330
1F
100
AcDbEntity
  8
PIC01
  6
Continuous
 62
     7
100
AcDbCircle
 10
1222.79294471189
 20
995.5004764179113
 30
0.0
 40
4.803132749556657
100
AcDbArc
 50
311.8886573278037
 51
48.11134267219626
  0
ARC
  5
27AB
330
1F
100
AcDbEntity
  8
PIC01
  6
Continuous
 62
     7
100
AcDbCircle
 10
1216.878432947685
 20
988.9060058396321
 30
0.0
 40
13.66136839253156
100
AcDbArc
 50
48.11137871688043
 51
97.94331940759715
  0
ARC
  5
27AC
330
1F
100
AcDbEntity
  8
PIC01
  6
Continuous
 62
     7
100
AcDbCircle
 10
1209.322124604331
 20
970.0298422441195
 30
0.0
 40
0.3149597888133315
100
AcDbArc
 50
188.6699498275906
 51
270.0
  0
LINE
  5
27AD
330
1F
100
AcDbEntity
  8
PIC01
  6
Continuous
 62
     7
100
AcDbLine
 10
1211.729976447945
 20
969.714882455306
 30
0.0
 11
1211.771807204796
 21
969.980920242129
 31
0.0
  0
LINE
  5
27AE
330
1F
100
AcDbEntity
  8
PIC01
  6
Continuous
 62
     7
100
AcDbLine
 10
1212.051219690671
 20
969.714882455306
 30
0.0
 11
1212.320526183382
 21
969.714882455306
 31
0.0
  0
LINE
  5
27AF
330
1F
100
AcDbEntity
  8
PIC01
  6
Continuous
 62
     7
100
AcDbLine
 10
1204.883436006975
 20
975.9353382843693
 30
0.0
 11
1207.753608363254
 21
975.9353382843693
 31
0.0
  0
LINE
  5
27B0
330
1F
100
AcDbEntity
  8
PIC01
  6
Continuous
 62
     7
100
AcDbLine
 10
1205.096136027476
 20
975.9353382843693
 30
0.0
 11
1205.096136027476
 21
976.2502980731825
 31
0.0
  0
LINE
  5
27B1
330
1F
100
AcDbEntity
  8
PIC01
  6
Continuous
 62
     7
100
AcDbLine
 10
1206.474085103534
 20
975.9353382843693
 30
0.0
 11
1206.474085103534
 21
976.2502980731825
 31
0.0
  0
LINE
  5
27B2
330
1F
100
AcDbEntity
  8
PIC01
  6
Continuous
 62
     7
100
AcDbLine
 10
1205.096121609761
 20
976.9983275716143
 30
0.0
 11
1205.096121609761
 21
977.3132873604277
 31
0.0
  0
LINE
  5
27B3
330
1F
100
AcDbEntity
  8
PIC01
  6
Continuous
 62
     7
100
AcDbLine
 10
1206.474070685819
 20
976.9983275716143
 30
0.0
 11
1206.474070685819
 21
977.3132873604277
 31
0.0
  0
LINE
  5
27B4
330
1F
100
AcDbEntity
  8
PIC01
  6
DASHED
 62
     7
100
AcDbLine
 10
1205.785097668408
 20
996.7996855466862
 30
0.0
 11
1206.996149900103
 21
996.7996855466862
 31
0.0
  0
LINE
  5
27B5
330
1F
100
AcDbEntity
  8
PIC01
  6
DASHED
 62
     7
100
AcDbLine
 10
1205.785097668408
 20
994.2012672891362
 30
0.0
 11
1206.996149900103
 21
994.2012672891362
 31
0.0
  0
ARC
  5
27B6
330
1F
100
AcDbEntity
  8
PIC01
  6
DASHED
 62
     7
100
AcDbCircle
 10
1206.996149900103
 20
993.8075675531196
 30
0.0
 40
0.3936997360166606
100
AcDbArc
 50
351.3831594481955
 51
90.0
  0
ARC
  5
27B7
330
1F
100
AcDbEntity
  8
PIC01
  6
DASHED
 62
     7
100
AcDbCircle
 10
1206.996149900103
 20
997.193385282703
 30
0.0
 40
0.3936997360166606
100
AcDbArc
 50
270.0
 51
8.616840551804489
  0
ARC
  5
27B8
330
1F
100
AcDbEntity
  8
PIC01
  6
DASHED
 62
     7
100
AcDbCircle
 10
1205.785112086124
 20
995.5004764179113
 30
0.0
 40
1.299209128854978
100
AcDbArc
 50
89.99936417149067
 51
270.0006358285094
  0
LINE
  5
27B9
330
1F
100
AcDbEntity
  8
PIC01
  6
Continuous
 62
     7
100
AcDbLine
 10
1224.172032151915
 20
962.4363256565562
 30
0.0
 11
1224.172418601316
 21
962.4278501300594
 31
0.0
  0
ARC
  5
27BA
330
1F
100
AcDbEntity
  8
PIC01
  6
Continuous
 62
     7
100
AcDbCircle
 10
1224.132966905429
 20
962.4314367570496
 30
0.0
 40
0.0393699736016665
100
AcDbArc
 50
359.9999354273577
 51
89.99993542735772
  0
LINE
  5
27BB
330
1F
100
AcDbEntity
  8
PIC01
  6
CENTER
 62
     7
100
AcDbLine
 10
1204.190628155256
 20
991.5044240973422
 30
0.0
 11
1205.883537020128
 21
991.5044240973422
 31
0.0
  0
LINE
  5
27BC
330
1F
100
AcDbEntity
  8
PIC01
  6
CENTER
 62
     7
100
AcDbLine
 10
1205.037082587692
 20
990.6579696649062
 30
0.0
 11
1205.037082587692
 21
992.350878529778
 31
0.0
  0
LINE
  5
27BD
330
1F
100
AcDbEntity
  8
PIC01
  6
CENTER
 62
     7
100
AcDbLine
 10
1204.081995479073
 20
999.4965287384804
 30
0.0
 11
1205.883537020128
 21
999.4965287384804
 31
0.0
  0
LINE
  5
27BE
330
1F
100
AcDbEntity
  8
PIC01
  6
CENTER
 62
     7
100
AcDbLine
 10
1205.037082587692
 20
998.6500743060444
 30
0.0
 11
1205.037082587692
 21
1000.342983170916
 31
0.0
  0
LINE
  5
27BF
330
1F
100
AcDbEntity
  8
PIC01
  6
DASHED
 62
     7
100
AcDbLine
 10
1202.753624118795
 20
990.3823798496945
 30
0.0
 11
1204.120054511317
 21
990.3823798496945
 31
0.0
  0
ARC
  5
27C0
330
1F
100
AcDbEntity
  8
PIC01
  6
Continuous
 62
     7
100
AcDbCircle
 10
1255.474814988662
 20
983.68948363418
 30
0.0
 40
17.32278838473311
100
AcDbArc
 50
87.83326100889823
 51
102.6244886252852
  0
ARC
  5
27C1
330
1F
100
AcDbEntity
  8
PIC01
  6
Continuous
 62
     7
100
AcDbCircle
 10
1254.641261262089
 20
961.6580614337257
 30
0.0
 40
39.36997360166609
100
AcDbArc
 50
79.52638187052475
 51
87.83326100889823
  0
ARC
  5
27C2
330
1F
100
AcDbEntity
  8
PIC01
  6
Continuous
 62
     7
100
AcDbCircle
 10
1254.641261262089
 20
1029.342891402097
 30
0.0
 40
39.36997360166609
100
AcDbArc
 50
272.1667389911017
 51
280.4736181294753
  0
ARC
  5
27C3
330
1F
100
AcDbEntity
  8
PIC01
  6
Continuous
 62
     7
100
AcDbCircle
 10
1255.474814988662
 20
1007.311469201642
 30
0.0
 40
17.32278838473311
100
AcDbArc
 50
257.3755113747148
 51
272.1667389911017
  0
ARC
  5
27C4
330
1F
100
AcDbEntity
  8
PIC01
  6
Continuous
 62
     7
100
AcDbCircle
 10
1228.521951137528
 20
963.2017294326155
 30
0.0
 40
14.17319049659979
100
AcDbArc
 50
95.40567533056835
 51
103.2999806190605
  0
LINE
  5
27C5
330
1F
100
AcDbEntity
  8
PIC01
  6
Continuous
 62
     7
100
AcDbLine
 10
1224.958287709516
 20
976.1321881523777
 30
0.0
 11
1224.958287709516
 21
976.3337096263009
 31
0.0
  0
ARC
  5
27C6
330
1F
100
AcDbEntity
  8
PIC01
  6
Continuous
 62
     7
100
AcDbCircle
 10
1228.521951137532
 20
963.2017294326015
 30
0.0
 40
14.17319049661425
100
AcDbArc
 50
103.5576794887472
 51
104.5625582690975
  0
LINE
  5
27C7
330
1F
100
AcDbEntity
  8
PIC01
  6
Continuous
 62
     7
100
AcDbLine
 10
1224.958287709516
 20
976.6737924897309
 30
0.0
 11
1224.958287709516
 21
976.9195875680811
 31
0.0
  0
ARC
  5
27C8
330
1F
100
AcDbEntity
  8
PIC01
  6
Continuous
 62
     7
100
AcDbCircle
 10
1225.351987445533
 20
976.6116397907211
 30
0.0
 40
0.3936997360166606
100
AcDbArc
 50
103.2999806190605
 51
180.0
  0
LINE
  5
27C9
330
1F
100
AcDbEntity
  8
PIC01
  6
DASHED
 62
     7
100
AcDbLine
 10
1214.737722493746
 20
964.0455955483719
 30
0.0
 11
1223.61968938344
 21
964.0455955483719
 31
0.0
  0
LINE
  5
27CA
330
1F
100
AcDbEntity
  8
PIC01
  6
DASHED
 62
     7
100
AcDbLine
 10
1215.097739772201
 20
964.3605553371852
 30
0.0
 11
1223.422839515431
 21
964.3605553371852
 31
0.0
  0
LINE
  5
27CB
330
1F
100
AcDbEntity
  8
PIC01
  6
DASHED
 62
     7
100
AcDbLine
 10
1206.848085435035
 20
963.3369460560057
 30
0.0
 11
1224.355029659466
 21
963.3369460560057
 31
0.0
  0
ARC
  5
27CC
330
1F
100
AcDbEntity
  8
PIC01
  6
DASHED
 62
     7
100
AcDbCircle
 10
1204.120054511317
 20
910.6581833063209
 30
0.0
 40
79.72419654337382
100
AcDbArc
 50
89.67810497115456
 51
90.0
  0
ARC
  5
27CD
330
1F
100
AcDbEntity
  8
PIC01
  6
DASHED
 62
     7
100
AcDbCircle
 10
1205.467174306513
 20
989.5834847003566
 30
0.0
 40
0.7873994720333277
100
AcDbArc
 50
89.0221540693011
 51
102.6201931301732
  0
ARC
  5
27CE
330
1F
100
AcDbEntity
  8
PIC01
  6
DASHED
 62
     7
100
AcDbCircle
 10
1204.563529216027
 20
989.5937346255349
 30
0.0
 40
0.7873994720333278
100
AcDbArc
 50
76.08006591030278
 51
89.67810497115456
  0
ARC
  5
27CF
330
1F
100
AcDbEntity
  8
PIC01
  6
DASHED
 62
     7
100
AcDbCircle
 10
1205.037082587692
 20
991.5044240973422
 30
0.0
 40
1.181099208049982
100
AcDbArc
 50
256.0800591105334
 51
282.6201879987305
  0
LINE
  5
27D0
330
1F
100
AcDbEntity
  8
PIC01
  6
Continuous
 62
     7
100
AcDbLine
 10
1202.674884171592
 20
1001.642192299771
 30
0.0
 11
1203.835423562226
 21
1001.642192299771
 31
0.0
  0
LINE
  5
27D1
330
1F
100
AcDbEntity
  8
PIC01
  6
Continuous
 62
     7
100
AcDbLine
 10
1206.572495619824
 20
962.4708061111233
 30
0.0
 11
1206.572495619824
 21
969.8329911746348
 31
0.0
  0
ARC
  5
27D2
330
1F
100
AcDbEntity
  8
PIC01
  6
DASHED
 62
     7
100
AcDbCircle
 10
1206.848085435035
 20
963.061356240794
 30
0.0
 40
0.2755898152116627
100
AcDbArc
 50
90.0
 51
180.0
  0
ARC
  5
27D3
330
1F
100
AcDbEntity
  8
PIC01
  6
Continuous
 62
     7
100
AcDbCircle
 10
1243.017780633966
 20
1038.996730507736
 30
0.0
 40
39.36997360166609
100
AcDbArc
 50
278.7620401365288
 51
282.6931064779103
  0
ARC
  5
27D4
330
1F
100
AcDbEntity
  8
PIC01
  6
Continuous
 62
     7
100
AcDbCircle
 10
1243.017780633966
 20
952.0042223280867
 30
0.0
 40
39.36997360166609
100
AcDbArc
 50
77.30689352208975
 51
81.23795986347126
  0
ARC
  5
27D5
330
1F
100
AcDbEntity
  8
PIC01
  6
Continuous
 62
     7
100
AcDbCircle
 10
1211.90234597408
 20
971.1386971916509
 30
0.0
 40
0.5905496040249911
100
AcDbArc
 50
91.5866960476656
 51
135.0
  0
ARC
  5
27D6
330
1F
100
AcDbEntity
  8
PIC01
  6
Continuous
 62
     7
100
AcDbCircle
 10
1210.231420509122
 20
972.84982470144
 30
0.0
 40
1.574798944066644
100
AcDbArc
 50
190.6788325782037
 51
225.7000745529738
  0
ARC
  5
27D7
330
1F
100
AcDbEntity
  8
PIC01
  6
Continuous
 62
     7
100
AcDbCircle
 10
1210.391398997518
 20
995.5004764179113
 30
0.0
 40
1.259839155253313
100
AcDbArc
 50
199.4836198914815
 51
160.5163801085185
  0
ARC
  5
27D8
330
1F
100
AcDbEntity
  8
PIC01
  6
DASHED
 62
     7
100
AcDbCircle
 10
1210.391398997518
 20
995.5004764179113
 30
0.0
 40
1.259839155253322
100
AcDbArc
 50
160.5163801085185
 51
199.4836198914815
  0
ARC
  5
27D9
330
1F
100
AcDbEntity
  8
PIC01
  6
Continuous
 62
     7
100
AcDbCircle
 10
1218.697790354627
 20
972.077080871406
 30
0.0
 40
0.2362198416089977
100
AcDbArc
 50
154.3127707659577
 51
175.6737296765767
  0
ARC
  5
27DA
330
1F
100
AcDbEntity
  8
PIC01
  6
Continuous
 62
     7
100
AcDbCircle
 10
1218.697790354627
 20
972.077080871406
 30
0.0
 40
0.2362198416089995
100
AcDbArc
 50
90.0
 51
152.0263084821204
  0
ARC
  5
27DB
330
1F
100
AcDbEntity
  8
PIC01
  6
Continuous
 62
     7
100
AcDbCircle
 10
1218.315319181718
 20
972.2802191870473
 30
0.0
 40
0.1968498680083272
100
AcDbArc
 50
274.7185821103856
 51
332.0263084821205
  0
ARC
  5
27DC
330
1F
100
AcDbEntity
  8
PIC01
  6
Continuous
 62
     7
100
AcDbCircle
 10
1208.615585650819
 20
1089.793654449663
 30
0.0
 40
118.1099208049983
100
AcDbArc
 50
275.9184576316561
 51
277.519279828301
  0
ARC
  5
27DD
330
1F
100
AcDbEntity
  8
PIC01
  6
DASHED
 62
     7
100
AcDbCircle
 10
1208.615585650819
 20
1089.793654449663
 30
0.0
 40
118.1099208049983
100
AcDbArc
 50
274.7185821103856
 51
275.9184576316561
  0
ARC
  5
27DE
330
1F
100
AcDbEntity
  8
PIC01
  6
Continuous
 62
     7
100
AcDbCircle
 10
1208.615585650819
 20
1089.793654449663
 30
0.0
 40
118.1099208049983
100
AcDbArc
 50
271.472772927112
 51
274.7185821103856
  0
LINE
  5
27DF
330
1F
100
AcDbEntity
  8
PIC01
  6
Continuous
 62
     7
100
AcDbLine
 10
1222.429401544253
 20
962.3526987297729
 30
0.0
 11
1224.56456874988
 21
962.3526961903182
 31
0.0
  0
ARC
  5
27E0
330
1F
100
AcDbEntity
  8
PIC01
  6
Continuous
 62
     7
100
AcDbCircle
 10
1204.120054511317
 20
1080.342769529502
 30
0.0
 40
78.66120725612884
100
AcDbArc
 50
276.8456501517675
 51
277.9433244466442
  0
ARC
  5
27E1
330
1F
100
AcDbEntity
  8
PIC01
  6
Continuous
 62
     7
100
AcDbCircle
 10
1203.792862089367
 20
1080.382139503103
 30
0.0
 40
78.73994720333219
100
AcDbArc
 50
270.0
 51
277.0786230647232
  0
ARC
  5
27E2
330
1F
100
AcDbEntity
  8
PIC01
  6
Continuous
 62
     7
100
AcDbCircle
 10
1204.120054511317
 20
910.6581833063209
 30
0.0
 40
78.66120725612884
100
AcDbArc
 50
82.05667555335585
 51
83.15434984823255
  0
ARC
  5
27E3
330
1F
100
AcDbEntity
  8
PIC01
  6
Continuous
 62
     7
100
AcDbCircle
 10
1216.878432947685
 20
1002.09494699619
 30
0.0
 40
13.66136839253156
100
AcDbArc
 50
262.0566805924029
 51
311.8886212831196
  0
ARC
  5
27E4
330
1F
100
AcDbEntity
  8
PIC01
  6
Continuous
 62
     7
100
AcDbCircle
 10
1203.792862089367
 20
910.6188133327192
 30
0.0
 40
78.73994720333219
100
AcDbArc
 50
82.92137693527683
 51
90.0
  0
LINE
  5
27E5
330
1F
100
AcDbEntity
  8
PIC01
  6
Continuous
 62
     7
100
AcDbLine
 10
1202.674884171592
 20
989.3587605360513
 30
0.0
 11
1203.835423562226
 21
989.3587605360513
 31
0.0
  0
ARC
  5
27E6
330
1F
100
AcDbEntity
  8
PIC01
  6
DASHED
 62
     7
100
AcDbCircle
 10
1204.120054511317
 20
910.6581833063209
 30
0.0
 40
79.72419654337382
100
AcDbArc
 50
87.58780982320393
 51
89.02215401370149
  0
ARC
  5
27E7
330
1F
100
AcDbEntity
  8
PIC01
  6
DASHED
 62
     7
100
AcDbCircle
 10
1204.120054511317
 20
1080.342769529502
 30
0.0
 40
79.72419654337382
100
AcDbArc
 50
270.9778459306989
 51
272.4269080415488
  0
ARC
  5
27E8
330
1F
100
AcDbEntity
  8
PIC01
  6
DASHED
 62
     7
100
AcDbCircle
 10
1205.037082587692
 20
999.4965287384804
 30
0.0
 40
1.181099208049982
100
AcDbArc
 50
77.37981200126945
 51
103.9199340896972
  0
LINE
  5
27E9
330
1F
100
AcDbEntity
  8
PIC01
  6
DASHED
 62
     7
100
AcDbLine
 10
1202.753624118795
 20
1000.618572986128
 30
0.0
 11
1204.120054511317
 21
1000.618572986128
 31
0.0
  0
ARC
  5
27EA
330
1F
100
AcDbEntity
  8
PIC01
  6
DASHED
 62
     7
100
AcDbCircle
 10
1204.120054511317
 20
1080.342769529502
 30
0.0
 40
79.72419654337382
100
AcDbArc
 50
270.0
 51
270.3218950288455
  0
ARC
  5
27EB
330
1F
100
AcDbEntity
  8
PIC01
  6
DASHED
 62
     7
100
AcDbCircle
 10
1205.467174306513
 20
1001.417468135466
 30
0.0
 40
0.7873994720333278
100
AcDbArc
 50
257.3798068698267
 51
270.9778459306989
  0
ARC
  5
27EC
330
1F
100
AcDbEntity
  8
PIC01
  6
DASHED
 62
     7
100
AcDbCircle
 10
1204.563529216027
 20
1001.407218210287
 30
0.0
 40
0.787399472033327
100
AcDbArc
 50
270.3218950288455
 51
283.9199340896972
  0
LINE
  5
27ED
330
1F
100
AcDbEntity
  8
PIC01
  6
DASHED
 62
     7
100
AcDbLine
 10
1202.596144224388
 20
990.5398597441013
 30
0.0
 11
1202.596144224388
 21
1000.461093091721
 31
0.0
  0
ARC
  5
27EE
330
1F
100
AcDbEntity
  8
PIC01
  6
DASHED
 62
     7
100
AcDbCircle
 10
1202.753624118795
 20
990.5398597441013
 30
0.0
 40
0.1574798944066643
100
AcDbArc
 50
180.0
 51
270.0
  0
ARC
  5
27EF
330
1F
100
AcDbEntity
  8
PIC01
  6
DASHED
 62
     7
100
AcDbCircle
 10
1202.753624118795
 20
1000.461093091721
 30
0.0
 40
0.1574798944066643
100
AcDbArc
 50
90.0
 51
180.0
  0
ARC
  5
27F0
330
1F
100
AcDbEntity
  8
PIC01
  6
Continuous
 62
     7
100
AcDbCircle
 10
1206.375644869481
 20
969.8329911746348
 30
0.0
 40
0.1968498680083303
100
AcDbArc
 50
0.0
 51
90.0
  0
ARC
  5
27F1
330
1F
100
AcDbEntity
  8
PIC01
  6
Continuous
 62
     7
100
AcDbCircle
 10
1205.981945133464
 20
970.2266909106516
 30
0.0
 40
0.1968498680083303
100
AcDbArc
 50
180.0
 51
270.0
  0
LINE
  5
27F2
330
1F
100
AcDbEntity
  8
PIC01
  6
DASHED
 62
     7
100
AcDbLine
 10
1205.78509614779
 20
970.3107145230362
 30
0.0
 11
1215.430749921216
 21
969.1049792414371
 31
0.0
  0
ARC
  5
27F3
330
1F
100
AcDbEntity
  8
PIC01
  6
Continuous
 62
     7
100
AcDbCircle
 10
1264.84489418474
 20
995.5004764179113
 30
0.0
 40
4.80313274955666
100
AcDbArc
 50
311.8886573278037
 51
48.11134267219626
  0
ARC
  5
27F4
330
1F
100
AcDbEntity
  8
PIC01
  6
Continuous
 62
     7
100
AcDbCircle
 10
1258.930382420536
 20
988.9060058396323
 30
0.0
 40
13.66136839253156
100
AcDbArc
 50
48.11137871688043
 51
97.94331940759715
  0
ARC
  5
27F5
330
1F
100
AcDbEntity
  8
PIC01
  6
Continuous
 62
     7
100
AcDbCircle
 10
1246.172003984167
 20
1080.342769529502
 30
0.0
 40
78.66120725612884
100
AcDbArc
 50
276.8456501517675
 51
277.9433244466442
  0
ARC
  5
27F6
330
1F
100
AcDbEntity
  8
PIC01
  6
Continuous
 62
     7
100
AcDbCircle
 10
1245.844811562218
 20
1080.382139503103
 30
0.0
 40
78.73994720333219
100
AcDbArc
 50
270.0
 51
277.0786230647232
  0
LINE
  5
27F7
330
1F
100
AcDbEntity
  8
PIC01
  6
Continuous
 62
     7
100
AcDbLine
 10
1244.726833644442
 20
1001.642192299771
 30
0.0
 11
1245.887373035076
 21
1001.642192299771
 31
0.0
  0
LINE
  5
27F8
330
1F
100
AcDbEntity
  8
PIC01
  6
Continuous
 62
     7
100
AcDbLine
 10
1244.726833644442
 20
989.3587605360513
 30
0.0
 11
1245.887373035076
 21
989.3587605360513
 31
0.0
  0
LINE
  5
27F9
330
1F
100
AcDbEntity
  8
PIC01
  6
Continuous
 62
     7
100
AcDbLine
 10
1244.687463670841
 20
990.3823798496945
 30
0.0
 11
1246.172003984167
 21
990.3823798496945
 31
0.0
  0
ARC
  5
27FA
330
1F
100
AcDbEntity
  8
PIC01
  6
Continuous
 62
     7
100
AcDbCircle
 10
1246.615478688878
 20
989.5937346255349
 30
0.0
 40
0.7873994720333278
100
AcDbArc
 50
76.08006591030278
 51
89.67810497115456
  0
ARC
  5
27FB
330
1F
100
AcDbEntity
  8
PIC01
  6
Continuous
 62
     7
100
AcDbCircle
 10
1246.172003984167
 20
910.6581833063209
 30
0.0
 40
79.72419654337382
100
AcDbArc
 50
89.67810497115456
 51
90.0
  0
ARC
  5
27FC
330
1F
100
AcDbEntity
  8
PIC01
  6
Continuous
 62
     7
100
AcDbCircle
 10
1246.172003984167
 20
910.6581833063209
 30
0.0
 40
79.72419654337382
100
AcDbArc
 50
88.80328934878052
 51
89.0221540693011
  0
LINE
  5
27FD
330
1F
100
AcDbEntity
  8
PIC01
  6
Continuous
 62
     7
100
AcDbLine
 10
1244.529983776434
 20
990.5398597441013
 30
0.0
 11
1244.529983776434
 21
1000.461093091721
 31
0.0
  0
LINE
  5
27FE
330
1F
100
AcDbEntity
  8
PIC01
  6
Continuous
 62
     7
100
AcDbLine
 10
1244.687463670841
 20
1000.618572986128
 30
0.0
 11
1246.172003984167
 21
1000.618572986128
 31
0.0
  0
ARC
  5
27FF
330
1F
100
AcDbEntity
  8
PIC01
  6
Continuous
 62
     7
100
AcDbCircle
 10
1246.172003984167
 20
1080.342769529502
 30
0.0
 40
79.72419654337382
100
AcDbArc
 50
270.0
 51
270.3218950288455
  0
ARC
  5
2800
330
1F
100
AcDbEntity
  8
PIC01
  6
Continuous
 62
     7
100
AcDbCircle
 10
1247.089032060542
 20
999.4965287384804
 30
0.0
 40
1.181099208049979
100
AcDbArc
 50
77.37980686982675
 51
103.9199408894665
  0
CIRCLE
  5
2801
330
1F
100
AcDbEntity
  8
PIC01
  6
Continuous
 62
     7
100
AcDbCircle
 10
1247.089032060542
 20
999.4965287384804
 30
0.0
 40
0.6889745380291567
  0
ARC
  5
2802
330
1F
100
AcDbEntity
  8
PIC01
  6
Continuous
 62
     7
100
AcDbCircle
 10
1247.837061558974
 20
995.5004764179113
 30
0.0
 40
1.299209128854978
100
AcDbArc
 50
89.99936417149067
 51
270.0006358285094
  0
CIRCLE
  5
2803
330
1F
100
AcDbEntity
  8
PIC01
  6
Continuous
 62
     7
100
AcDbCircle
 10
1247.837061558974
 20
995.5004764179113
 30
0.0
 40
0.6889745380291567
  0
LINE
  5
2804
330
1F
100
AcDbEntity
  8
PIC01
  6
Continuous
 62
     7
100
AcDbLine
 10
1247.837047141259
 20
996.7996855466862
 30
0.0
 11
1249.048099372953
 21
996.7996855466862
 31
0.0
  0
LINE
  5
2805
330
1F
100
AcDbEntity
  8
PIC01
  6
Continuous
 62
     7
100
AcDbLine
 10
1247.837047141259
 20
994.2012672891364
 30
0.0
 11
1249.048099372953
 21
994.2012672891364
 31
0.0
  0
ARC
  5
2806
330
1F
100
AcDbEntity
  8
PIC01
  6
Continuous
 62
     7
100
AcDbCircle
 10
1247.089032060542
 20
991.5044240973422
 30
0.0
 40
1.181099208049979
100
AcDbArc
 50
256.0800591105334
 51
282.6201931301732
  0
ARC
  5
2807
330
1F
100
AcDbEntity
  8
PIC01
  6
Continuous
 62
     7
100
AcDbCircle
 10
1245.844811562218
 20
910.6188133327192
 30
0.0
 40
78.73994720333219
100
AcDbArc
 50
82.92137693527683
 51
90.0
  0
ARC
  5
2808
330
1F
100
AcDbEntity
  8
PIC01
  6
Continuous
 62
     7
100
AcDbCircle
 10
1246.172003984167
 20
910.6581833063209
 30
0.0
 40
78.66120725612884
100
AcDbArc
 50
82.05667555335585
 51
83.15434984823255
  0
ARC
  5
2809
330
1F
100
AcDbEntity
  8
PIC01
  6
Continuous
 62
     7
100
AcDbCircle
 10
1258.930382420536
 20
1002.09494699619
 30
0.0
 40
13.66136839253156
100
AcDbArc
 50
262.0566805924029
 51
311.8886212831196
  0
ARC
  5
280A
330
1F
100
AcDbEntity
  8
PIC01
  6
Continuous
 62
     7
100
AcDbCircle
 10
1258.930382420536
 20
1002.09494699619
 30
0.0
 40
13.34640860371826
100
AcDbArc
 50
262.0566827209751
 51
311.8886212831196
  0
ARC
  5
280B
330
1F
100
AcDbEntity
  8
PIC01
  6
Continuous
 62
     7
100
AcDbCircle
 10
1264.84489418474
 20
995.5004764179113
 30
0.0
 40
4.488172960743331
100
AcDbArc
 50
311.8886573278037
 51
48.11134267219626
  0
ARC
  5
280C
330
1F
100
AcDbEntity
  8
PIC01
  6
Continuous
 62
     7
100
AcDbCircle
 10
1258.930382420536
 20
988.9060058396323
 30
0.0
 40
13.34640860371826
100
AcDbArc
 50
48.11137871688043
 51
97.94331727902488
  0
ARC
  5
280D
330
1F
100
AcDbEntity
  8
PIC01
  6
Continuous
 62
     7
100
AcDbCircle
 10
1246.172003984167
 20
1080.342769529502
 30
0.0
 40
78.97616704494217
100
AcDbArc
 50
271.3475343569444
 51
277.9433244466442
  0
ARC
  5
280E
330
1F
100
AcDbEntity
  8
PIC01
  6
Continuous
 62
     7
100
AcDbCircle
 10
1246.172003984167
 20
910.6581833063209
 30
0.0
 40
78.9761670449422
100
AcDbArc
 50
82.05667555335585
 51
88.65246564305557
  0
CIRCLE
  5
280F
330
1F
100
AcDbEntity
  8
PIC01
  6
PHANTOM
 62
     7
100
AcDbCircle
 10
1261.69529226676
 20
995.5004764179113
 30
0.0
 40
0.3936997360166606
  0
ARC
  5
2810
330
1F
100
AcDbEntity
  8
PIC01
  6
Continuous
 62
     7
100
AcDbCircle
 10
1248.033895488649
 20
1001.191648456431
 30
0.0
 40
0.1968498680083303
100
AcDbArc
 50
91.34753435694442
 51
180.0
  0
ARC
  5
2811
330
1F
100
AcDbEntity
  8
PIC01
  6
Continuous
 62
     7
100
AcDbCircle
 10
1248.033895488649
 20
989.8093043793915
 30
0.0
 40
0.1968498680083303
100
AcDbArc
 50
180.0
 51
268.6524656430556
  0
CIRCLE
  5
2812
330
1F
100
AcDbEntity
  8
PIC01
  6
Continuous
 62
     7
100
AcDbCircle
 10
1252.443346067416
 20
995.5004764179113
 30
0.0
 40
1.338579102456646
  0
CIRCLE
  5
2813
330
1F
100
AcDbEntity
  8
PIC01
  6
Continuous
 62
     7
100
AcDbCircle
 10
1252.443346067416
 20
995.5004764179113
 30
0.0
 40
0.8661394192366541
  0
LINE
  5
2814
330
1F
100
AcDbEntity
  8
PIC01
  6
Continuous
 62
     7
100
AcDbLine
 10
1248.624445092674
 20
999.2318377453264
 30
0.0
 11
1248.054971102397
 21
999.2931606170543
 31
0.0
  0
ARC
  5
2815
330
1F
100
AcDbEntity
  8
PIC01
  6
Continuous
 62
     7
100
AcDbCircle
 10
1248.033895488649
 20
999.097442224868
 30
0.0
 40
0.1968498680083303
100
AcDbArc
 50
83.85388122553417
 51
180.0
  0
ARC
  5
2816
330
1F
100
AcDbEntity
  8
PIC01
  6
Continuous
 62
     7
100
AcDbCircle
 10
1248.033895488649
 20
998.9786494938362
 30
0.0
 40
0.19684986800833
100
AcDbArc
 50
180.0
 51
263.8538812255342
  0
ARC
  5
2817
330
1F
100
AcDbEntity
  8
PIC01
  6
Continuous
 62
     7
100
AcDbCircle
 10
1248.033895488649
 20
992.0223033419862
 30
0.0
 40
0.19684986800833
100
AcDbArc
 50
96.14611877446584
 51
180.0
  0
ARC
  5
2818
330
1F
100
AcDbEntity
  8
PIC01
  6
Continuous
 62
     7
100
AcDbCircle
 10
1248.033895488649
 20
991.9035106109545
 30
0.0
 40
0.1968498680083303
100
AcDbArc
 50
180.0
 51
276.1461187744658
  0
LINE
  5
2819
330
1F
100
AcDbEntity
  8
PIC01
  6
Continuous
 62
     7
100
AcDbLine
 10
1248.054971102397
 20
991.7077922187681
 30
0.0
 11
1248.624445092674
 21
991.7691150904961
 31
0.0
  0
ARC
  5
281A
330
1F
100
AcDbEntity
  8
PIC01
  6
DASHED
 62
     7
100
AcDbCircle
 10
1215.097739772201
 20
964.1369748523956
 30
0.0
 40
0.236219841609995
100
AcDbArc
 50
102.9217290971491
 51
165.9043267114962
  0
ARC
  5
281B
330
1F
100
AcDbEntity
  8
PIC01
  6
DASHED
 62
     7
100
AcDbCircle
 10
1214.677709614329
 20
964.2424454163801
 30
0.0
 40
0.1968498680083296
100
AcDbArc
 50
287.186315499426
 51
345.9043267114962
  0
ARC
  5
281C
330
1F
100
AcDbEntity
  8
PIC01
  6
DASHED
 62
     7
100
AcDbCircle
 10
1214.968535494481
 20
963.3021438313521
 30
0.0
 40
0.7873994720333226
100
AcDbArc
 50
107.186315499426
 51
166.3872053486624
  0
ARC
  5
281D
330
1F
100
AcDbEntity
  8
PIC01
  6
Continuous
 62
     7
100
AcDbCircle
 10
1247.837061558974
 20
995.5004764179113
 30
0.0
 40
1.18109920804998
100
AcDbArc
 50
89.99936417149067
 51
270.0006358285094
  0
LINE
  5
281E
330
1F
100
AcDbEntity
  8
PIC01
  6
Continuous
 62
     7
100
AcDbLine
 10
1247.837047141259
 20
994.3193772099412
 30
0.0
 11
1249.048099372953
 21
994.3193772099412
 31
0.0
  0
LINE
  5
281F
330
1F
100
AcDbEntity
  8
PIC01
  6
Continuous
 62
     7
100
AcDbLine
 10
1247.837047141259
 20
996.6815756258812
 30
0.0
 11
1249.048099372953
 21
996.6815756258812
 31
0.0
  0
LINE
  5
2820
330
1F
100
AcDbEntity
  8
PIC01
  6
CENTER
 62
     7
100
AcDbLine
 10
1247.837061558974
 20
994.130210475709
 30
0.0
 11
1247.837061558974
 21
996.8787880330639
 31
0.0
  0
LINE
  5
2821
330
1F
100
AcDbEntity
  8
PIC01
  6
CENTER
 62
     7
100
AcDbLine
 10
1252.443346067416
 20
993.9256774738446
 30
0.0
 11
1252.443346067416
 21
997.0752753619779
 31
0.0
  0
LINE
  5
2822
330
1F
100
AcDbEntity
  8
PIC01
  6
Continuous
 62
     7
100
AcDbLine
 10
1247.837045620641
 20
989.8093043793915
 30
0.0
 11
1247.837045620641
 21
992.0223033419862
 31
0.0
  0
LINE
  5
2823
330
1F
100
AcDbEntity
  8
PIC01
  6
Continuous
 62
     7
100
AcDbLine
 10
1247.837045620641
 20
1001.191648456431
 30
0.0
 11
1247.837045620641
 21
998.9786494938362
 31
0.0
  0
ARC
  5
2824
330
1F
100
AcDbEntity
  8
PIC01
  6
Continuous
 62
     7
100
AcDbCircle
 10
1246.172003984167
 20
1080.342769529502
 30
0.0
 40
79.72419654337382
100
AcDbArc
 50
270.9778459306989
 51
271.1967106512195
  0
ARC
  5
2825
330
1F
100
AcDbEntity
  8
PIC01
  6
Continuous
 62
     7
100
AcDbCircle
 10
1246.615478688878
 20
1001.407218210287
 30
0.0
 40
0.7873994720333278
100
AcDbArc
 50
270.3218950288455
 51
283.9199340896972
  0
ARC
  5
2826
330
1F
100
AcDbEntity
  8
PIC01
  6
Continuous
 62
     7
100
AcDbCircle
 10
1252.431246717867
 20
1037.68774367919
 30
0.0
 40
45.275469641916
100
AcDbArc
 50
278.1131145651162
 51
284.2271996167063
  0
LINE
  5
2827
330
1F
100
AcDbEntity
  8
PIC01
  6
CENTER
 62
     7
100
AcDbLine
 10
1245.839311738226
 20
999.4965287384804
 30
0.0
 11
1248.299560227741
 21
999.4965287384804
 31
0.0
  0
LINE
  5
2828
330
1F
100
AcDbEntity
  8
PIC01
  6
CENTER
 62
     7
100
AcDbLine
 10
1247.089032060542
 20
998.1681618773759
 30
0.0
 11
1247.089032060542
 21
1000.77292392966
 31
0.0
  0
LINE
  5
2829
330
1F
100
AcDbEntity
  8
PIC01
  6
CENTER
 62
     7
100
AcDbLine
 10
1245.553603090077
 20
994.8705568402846
 30
0.0
 11
1245.553603090077
 21
996.130395995538
 31
0.0
  0
CIRCLE
  5
282A
330
1F
100
AcDbEntity
  8
PIC01
  6
Continuous
 62
     7
100
AcDbCircle
 10
1247.089032060542
 20
991.5044240973422
 30
0.0
 40
0.6889745380291567
  0
LINE
  5
282B
330
1F
100
AcDbEntity
  8
PIC01
  6
CENTER
 62
     7
100
AcDbLine
 10
1245.789138090227
 20
991.5044240973422
 30
0.0
 11
1248.330161827706
 21
991.5044240973422
 31
0.0
  0
LINE
  5
282C
330
1F
100
AcDbEntity
  8
PIC01
  6
CENTER
 62
     7
100
AcDbLine
 10
1247.089032060542
 20
992.8750054143334
 30
0.0
 11
1247.089032060542
 21
990.2201057583381
 31
0.0
  0
ARC
  5
282D
330
1F
100
AcDbEntity
  8
PIC01
  6
Continuous
 62
     7
100
AcDbCircle
 10
1253.009657291196
 20
1038.359061056755
 30
0.0
 40
46.85026858598265
100
AcDbArc
 50
276.5069990789525
 51
284.3130043858285
  0
LINE
  5
282E
330
1F
100
AcDbEntity
  8
PIC01
  6
Continuous
 62
     7
100
AcDbLine
 10
1257.734055933976
 20
992.3598471433198
 30
0.0
 11
1257.756910047144
 21
992.2302372646329
 31
0.0
  0
ARC
  5
282F
330
1F
100
AcDbEntity
  8
PIC01
  6
Continuous
 62
     7
100
AcDbCircle
 10
1245.844811562218
 20
1080.382139503103
 30
0.0
 40
79.52734667536552
100
AcDbArc
 50
270.0
 51
271.4354627717528
  0
LINE
  5
2830
330
1F
100
AcDbEntity
  8
PIC01
  6
Continuous
 62
     7
100
AcDbLine
 10
1244.648093697239
 20
1000.854792827738
 30
0.0
 11
1245.887373035076
 21
1000.854792827738
 31
0.0
  0
ARC
  5
2831
330
1F
100
AcDbEntity
  8
PIC01
  6
Continuous
 62
     7
100
AcDbCircle
 10
1245.844811562218
 20
910.6188133327192
 30
0.0
 40
79.52734667536552
100
AcDbArc
 50
88.56453722824719
 51
90.0
  0
LINE
  5
2832
330
1F
100
AcDbEntity
  8
PIC01
  6
Continuous
 62
     7
100
AcDbLine
 10
1244.648093697239
 20
990.1461600080848
 30
0.0
 11
1245.887373035076
 21
990.1461600080848
 31
0.0
  0
ARC
  5
2833
330
1F
100
AcDbEntity
  8
PIC01
  6
Continuous
 62
     7
100
AcDbCircle
 10
1206.690605540629
 20
962.4708061111233
 30
0.0
 40
0.1181099208049983
100
AcDbArc
 50
180.0
 51
270.0
  0
LINE
  5
2834
330
1F
100
AcDbEntity
  8
PIC01
  6
DASHED
 62
     7
100
AcDbLine
 10
1205.597816139165
 20
976.0005478869777
 30
0.0
 11
1204.638159176579
 21
976.0472568541832
 31
0.0
  0
LINE
  5
2835
330
1F
100
AcDbEntity
  8
PIC01
  6
Continuous
 62
     7
100
AcDbLine
 10
1204.638159176579
 20
976.0472568541832
 30
0.0
 11
1202.232322325492
 21
976.1643551079972
 31
0.0
  0
ARC
  5
2836
330
1F
100
AcDbEntity
  8
PIC01
  6
Continuous
 62
     7
100
AcDbCircle
 10
1205.588246279782
 20
975.8039307760073
 30
0.0
 40
0.1968498680083303
100
AcDbArc
 50
0.0
 51
41.87840123200194
  0
ARC
  5
2837
330
1F
100
AcDbEntity
  8
PIC01
  6
DASHED
 62
     7
100
AcDbCircle
 10
1205.588246279782
 20
975.8039307760073
 30
0.0
 40
0.1968498680083297
100
AcDbArc
 50
41.87840123200194
 51
87.21346643050869
  0
LINE
  5
2838
330
1F
100
AcDbEntity
  8
PIC01
  6
Continuous
 62
     7
100
AcDbLine
 10
1210.385379854783
 20
962.4248971480476
 30
0.0
 11
1210.348200878298
 21
962.8710453622598
 31
0.0
  0
ARC
  5
2839
330
1F
100
AcDbEntity
  8
PIC01
  6
Continuous
 62
     7
100
AcDbCircle
 10
1210.463847815775
 20
962.4314361375216
 30
0.0
 40
0.0787399472033317
100
AcDbArc
 50
184.7636364149855
 51
270.0
  0
ARC
  5
283A
330
1F
100
AcDbEntity
  8
PIC01
  6
Continuous
 62
     7
100
AcDbCircle
 10
1217.222082358734
 20
962.4117595588506
 30
0.0
 40
0.0590549604024992
100
AcDbArc
 50
269.9999354273578
 51
0.0
  0
LINE
  5
283B
330
1F
100
AcDbEntity
  8
PIC01
  6
DASHED
 62
     7
100
AcDbLine
 10
1214.556859660263
 20
962.4708175229725
 30
0.0
 11
1222.429401604209
 21
962.470808650578
 31
0.0
  0
LINE
  5
283C
330
1F
100
AcDbEntity
  8
PIC01
  6
CENTER
 62
     7
100
AcDbLine
 10
1203.501653617227
 20
976.7602392842585
 30
0.0
 11
1203.501653617227
 21
977.4675891999814
 31
0.0
  0
LINE
  5
283D
330
1F
100
AcDbEntity
  8
PIC01
  6
CENTER
 62
     7
100
AcDbLine
 10
1261.69529226676
 20
994.5559643964706
 30
0.0
 11
1261.69529226676
 21
996.453561560374
 31
0.0
  0
ARC
  5
283E
330
1F
100
AcDbEntity
  8
PIC01
  6
Continuous
 62
     7
100
AcDbCircle
 10
1261.69529226676
 20
995.5004764179113
 30
0.0
 40
0.8070844588341531
100
AcDbArc
 50
75.52248781410932
 51
284.4775121858907
  0
ARC
  5
283F
330
1F
100
AcDbEntity
  8
PIC01
  6
Continuous
 62
     7
100
AcDbCircle
 10
1262.088992002777
 20
993.9756838969126
 30
0.0
 40
0.7677144852324905
100
AcDbArc
 50
53.63312734394862
 51
104.4775121858906
  0
ARC
  5
2840
330
1F
100
AcDbEntity
  8
PIC01
  6
Continuous
 62
     7
100
AcDbCircle
 10
1262.088992002777
 20
997.02526893891
 30
0.0
 40
0.7677144852324905
100
AcDbArc
 50
255.5224878141093
 51
306.3668726560514
  0
ARC
  5
2841
330
1F
100
AcDbEntity
  8
PIC01
  6
Continuous
 62
     7
100
AcDbCircle
 10
1252.443346067416
 20
995.5004764179113
 30
0.0
 40
1.574798944066645
100
AcDbArc
 50
277.5920084878999
 51
82.40799151210007
  0
ARC
  5
2842
330
1F
100
AcDbEntity
  8
PIC01
  6
Continuous
 62
     7
100
AcDbCircle
 10
1252.443346067416
 20
995.5004764179113
 30
0.0
 40
1.456689023261643
100
AcDbArc
 50
90.0
 51
270.0
  0
LINE
  5
2843
330
1F
100
AcDbEntity
  8
PIC01
  6
CENTER
 62
     7
100
AcDbLine
 10
1205.785097668408
 20
975.6920031502509
 30
0.0
 11
1205.785097668408
 21
977.5105053307207
 31
0.0
  0
LINE
  5
2844
330
1F
100
AcDbEntity
  8
PIC01
  6
Continuous
 62
     7
100
AcDbLine
 10
1213.830850626846
 20
964.439295029212
 30
0.0
 11
1213.535573421881
 21
964.439295029212
 31
0.0
  0
LINE
  5
2845
330
1F
100
AcDbEntity
  8
PIC01
  6
Continuous
 62
     7
100
AcDbLine
 10
1213.535573421881
 20
964.439295029212
 30
0.0
 11
1213.535573421881
 21
964.1440172235089
 31
0.0
  0
LINE
  5
2846
330
1F
100
AcDbEntity
  8
PIC01
  6
CENTER
 62
     7
100
AcDbLine
 10
1213.535573421881
 20
964.1440172235089
 30
0.0
 11
1213.535573421881
 21
963.71096373382
 31
0.0
  0
LINE
  5
2847
330
1F
100
AcDbEntity
  8
PIC01
  6
Continuous
 62
     7
100
AcDbLine
 10
1213.535573421881
 20
963.71096373382
 30
0.0
 11
1213.535573421881
 21
963.4156859281169
 31
0.0
  0
LINE
  5
2848
330
1F
100
AcDbEntity
  8
PIC01
  6
Continuous
 62
     7
100
AcDbLine
 10
1213.535573421881
 20
963.4156859281169
 30
0.0
 11
1213.240310634631
 21
963.4126864426708
 31
0.0
  0
ARC
  5
2849
330
1F
100
AcDbEntity
  8
PIC01
  6
PHANTOM
 62
     7
100
AcDbCircle
 10
1247.089032060542
 20
991.5044240973422
 30
0.0
 40
1.181099208049984
100
AcDbArc
 50
282.6201879987305
 51
256.0800591105334
  0
LINE
  5
284A
330
1F
100
AcDbEntity
  8
PIC01
  6
Continuous
 62
     7
100
AcDbLine
 10
1208.415365172598
 20
974.1636894722942
 30
0.0
 11
1226.574422931895
 21
974.1636894722942
 31
0.0
  0
LINE
  5
284B
330
1F
100
AcDbEntity
  8
PIC01
  6
CENTER
 62
     7
100
AcDbLine
 10
1207.753610766207
 20
995.0083517478903
 30
0.0
 11
1207.753610766207
 21
995.9926010879321
 31
0.0
  0
LINE
  5
284C
330
1F
100
AcDbEntity
  8
PIC01
  6
CENTER
 62
     7
100
AcDbLine
 10
1207.753610766207
 20
995.0083517478903
 30
0.0
 11
1207.970145621016
 21
995.0083517478903
 31
0.0
  0
LINE
  5
284D
330
1F
100
AcDbEntity
  8
PIC01
  6
CENTER
 62
     7
100
AcDbLine
 10
1207.753610766207
 20
995.9926010879321
 30
0.0
 11
1207.970145621016
 21
995.9926010879321
 31
0.0
  0
LINE
  5
284E
330
1F
100
AcDbEntity
  8
PIC01
  6
CENTER
 62
     7
100
AcDbLine
 10
1207.970145621016
 20
995.0083517478903
 30
0.0
 11
1207.970145621016
 21
995.9926010879321
 31
0.0
  0
LINE
  5
284F
330
1F
100
AcDbEntity
  8
PIC01
  6
Continuous
 62
     7
100
AcDbLine
 10
1207.792980739809
 20
995.0380904063148
 30
0.0
 11
1207.792980739809
 21
995.9617997613149
 31
0.0
  0
LINE
  5
2850
330
1F
100
AcDbEntity
  8
PIC01
  6
Continuous
 62
     7
100
AcDbLine
 10
1207.796969640942
 20
995.5398463915129
 30
0.0
 11
1207.953397042158
 21
995.5398463915129
 31
0.0
  0
LINE
  5
2851
330
1F
100
AcDbEntity
  8
PIC01
  6
CENTER
 62
     7
100
AcDbLine
 10
1219.64334279391
 20
971.4934601057947
 30
0.0
 11
1219.64334279391
 21
972.4996857229291
 31
0.0
  0
LINE
  5
2852
330
1F
100
AcDbEntity
  8
PIC01
  6
Continuous
 62
     7
100
AcDbLine
 10
1211.460670086646
 20
969.714882455306
 30
0.0
 11
1211.729976447945
 21
969.714882455306
 31
0.0
  0
LINE
  5
2853
330
1F
100
AcDbEntity
  8
PIC01
  6
Continuous
 62
     7
100
AcDbLine
 10
1209.318582743108
 20
969.714882455306
 30
0.0
 11
1209.052818243032
 21
969.714882455306
 31
0.0
  0
LINE
  5
2854
330
1F
100
AcDbEntity
  8
PIC01
  6
Continuous
 62
     7
100
AcDbLine
 10
1209.010987486182
 20
969.980920242129
 30
0.0
 11
1209.052818243032
 21
969.714882455306
 31
0.0
  0
LINE
  5
2855
330
1F
100
AcDbEntity
  8
PIC01
  6
Continuous
 62
     7
100
AcDbLine
 10
1211.513476717543
 20
971.5849911943809
 30
0.0
 11
1211.651236632153
 21
971.7227511089911
 31
0.0
  0
ARC
  5
2856
330
1F
100
AcDbEntity
  8
PIC01
  6
PHANTOM
 62
     7
100
AcDbCircle
 10
1247.089032060542
 20
999.4965287384804
 30
0.0
 40
1.181099208049982
100
AcDbArc
 50
103.9199408894665
 51
71.60113010930356
  0
CIRCLE
  5
2857
330
1F
100
AcDbEntity
  8
PIC01
  6
PHANTOM
 62
     7
100
AcDbCircle
 10
1245.553603090077
 20
995.5004764179113
 30
0.0
 40
0.7873994720333219
  0
CIRCLE
  5
2858
330
1F
100
AcDbEntity
  8
PIC01
  6
Continuous
 62
     7
100
AcDbCircle
 10
1254.732922453353
 20
990.9875799483215
 30
0.0
 40
0.3740147492158279
  0
LINE
  5
2859
330
1F
100
AcDbEntity
  8
PIC01
  6
CENTER
 62
     7
100
AcDbLine
 10
1212.67483601738
 20
962.7388426957352
 30
0.0
 11
1212.67483601738
 21
963.5091595785148
 31
0.0
  0
LINE
  5
285A
330
1F
100
AcDbEntity
  8
PIC01
  6
DASHED
 62
     7
100
AcDbLine
 10
1212.300821268164
 20
962.9432463199892
 30
0.0
 11
1212.300821268164
 21
963.3369460560057
 31
0.0
  0
LINE
  5
285B
330
1F
100
AcDbEntity
  8
PIC01
  6
DASHED
 62
     7
100
AcDbLine
 10
1213.048850766595
 20
962.9432463199892
 30
0.0
 11
1213.048850766595
 21
963.3369460560057
 31
0.0
  0
CIRCLE
  5
285C
330
1F
100
AcDbEntity
  8
PIC01
  6
PHANTOM
 62
     7
100
AcDbCircle
 10
1261.69529226676
 20
995.5004764179113
 30
0.0
 40
0.7086595248299897
  0
INSERT
  5
285D
330
1F
100
AcDbEntity
  8
PIC01
  6
Continuous
 62
     7
100
AcDbBlockReference
  2
MARK1_1
 10
1207.83235071341
 20
995.992600806336
 30
0.0
 41
0.2952777500000335
 42
0.2952777500000335
 43
0.1181111
 50
102.0000000000057
  0
ARC
  5
285E
330
1F
100
AcDbEntity
  8
PIC01
  6
Continuous
 62
     7
100
AcDbCircle
 10
1259.385532010229
 20
984.1487236821514
 30
0.0
 40
51.18096568216589
100
AcDbArc
 50
169.8739552132325
 51
174.2479011926845
  0
ARC
  5
285F
330
1F
100
AcDbEntity
  8
PIC01
  6
Continuous
 62
     7
100
AcDbCircle
 10
1247.519123779363
 20
989.5834847003566
 30
0.0
 40
0.7873994720333188
100
AcDbArc
 50
89.0221540693011
 51
102.6201931301732
  0
ARC
  5
2860
330
1F
100
AcDbEntity
  8
PIC01
  6
Continuous
 62
     7
100
AcDbCircle
 10
1247.519123779363
 20
1001.417468135466
 30
0.0
 40
0.7873994720333188
100
AcDbArc
 50
257.3798068698267
 51
270.9778459306989
  0
LINE
  5
2861
330
1F
100
AcDbEntity
  8
PIC01
  6
Continuous
 62
     7
100
AcDbLine
 10
1223.291728544829
 20
964.5372496386945
 30
0.0
 11
1222.914233492819
 21
969.6675802351036
 31
0.0
  0
ARC
  5
2862
330
1F
100
AcDbEntity
  8
PIC01
  6
Continuous
 62
     7
100
AcDbCircle
 10
1223.488047677739
 20
964.5516950043285
 30
0.0
 40
0.196849868008331
100
AcDbArc
 50
184.2082990655891
 51
256.5703914842879
  0
LINE
  5
2863
330
1F
100
AcDbEntity
  8
PIC01
  6
Continuous
 62
     7
100
AcDbLine
 10
1222.421348705706
 20
962.5802512283266
 30
0.0
 11
1221.794346465554
 21
971.1014987507448
 31
0.0
  0
ARC
  5
2864
330
1F
100
AcDbEntity
  8
PIC01
  6
Continuous
 62
     7
100
AcDbCircle
 10
1221.676554985808
 20
971.0928315313644
 30
0.0
 40
0.1181099208049985
100
AcDbArc
 50
4.208299065589111
 51
90.0
  0
LINE
  5
2865
330
1F
100
AcDbEntity
  8
PIC01
  6
Continuous
 62
     7
100
AcDbLine
 10
1226.80867678111
 20
975.344788613521
 30
0.0
 11
1226.214343031272
 21
975.3447885619937
 31
0.0
  0
LINE
  5
2866
330
1F
100
AcDbEntity
  8
PIC01
  6
DASHED
 62
     7
100
AcDbLine
 10
1226.454347025522
 20
995.1067766818946
 30
0.0
 11
1226.736232172874
 21
995.1067766818946
 31
0.0
  0
LINE
  5
2867
330
1F
100
AcDbEntity
  8
PIC01
  6
DASHED
 62
     7
100
AcDbLine
 10
1226.454347025522
 20
995.8941761539279
 30
0.0
 11
1226.736232172874
 21
995.8941761539279
 31
0.0
  0
ARC
  5
2868
330
1F
100
AcDbEntity
  8
PIC01
  6
DASHED
 62
     7
100
AcDbCircle
 10
1226.454347025522
 20
995.5004764179113
 30
0.0
 40
0.3936997360166606
100
AcDbArc
 50
90.0
 51
270.0
  0
LINE
  5
2869
330
1F
100
AcDbEntity
  8
PIC01
  6
Continuous
 62
     7
100
AcDbLine
 10
1202.044964593965
 20
989.988680113678
 30
0.0
 11
1202.044964593965
 21
1001.012272722144
 31
0.0
  0
ARC
  5
286A
330
1F
100
AcDbEntity
  8
PIC01
  6
Continuous
 62
     7
100
AcDbCircle
 10
1202.674884171592
 20
989.988680113678
 30
0.0
 40
0.6299195776266574
100
AcDbArc
 50
180.0
 51
270.0
  0
ARC
  5
286B
330
1F
100
AcDbEntity
  8
PIC01
  6
Continuous
 62
     7
100
AcDbCircle
 10
1202.674884171592
 20
1001.012272722144
 30
0.0
 40
0.6299195776266574
100
AcDbArc
 50
90.0
 51
180.0
  0
LINE
  5
286C
330
1F
100
AcDbEntity
  8
PIC01
  6
Continuous
 62
     7
100
AcDbLine
 10
1202.068696212258
 20
976.935887414425
 30
0.0
 11
1202.045211098478
 21
976.3691221139744
 31
0.0
  0
ARC
  5
286D
330
1F
100
AcDbEntity
  8
PIC01
  6
Continuous
 62
     7
100
AcDbCircle
 10
1202.462058385052
 20
976.919587624411
 30
0.0
 40
0.3936997360166606
100
AcDbArc
 50
90.0
 51
177.6271861621308
  0
LINE
  5
286E
330
1F
100
AcDbEntity
  8
PIC01
  6
Continuous
 62
     7
100
AcDbLine
 10
1206.375644869481
 20
970.0298410426432
 30
0.0
 11
1205.981945133464
 21
970.0298410426432
 31
0.0
  0
LINE
  5
286F
330
1F
100
AcDbEntity
  8
PIC01
  6
Continuous
 62
     7
100
AcDbLine
 10
1244.490613802832
 20
990.3036399024912
 30
0.0
 11
1244.490613802832
 21
1000.697312933331
 31
0.0
  0
LINE
  5
2870
330
1F
100
AcDbEntity
  8
PIC01
  6
Continuous
 62
     7
100
AcDbLine
 10
1244.096914066816
 20
989.988680113678
 30
0.0
 11
1244.096914066816
 21
1001.012272722144
 31
0.0
  0
ARC
  5
2871
330
1F
100
AcDbEntity
  8
PIC01
  6
Continuous
 62
     7
100
AcDbCircle
 10
1244.726833644442
 20
1001.012272722144
 30
0.0
 40
0.6299195776266574
100
AcDbArc
 50
90.0
 51
180.0
  0
LINE
  5
2872
330
1F
100
AcDbEntity
  8
PIC01
  6
Continuous
 62
     7
100
AcDbLine
 10
1209.318582743108
 20
970.0298422441195
 30
0.0
 11
1211.460670086646
 21
970.0298422441195
 31
0.0
  0
LINE
  5
2873
330
1F
100
AcDbEntity
  8
PIC01
  6
Continuous
 62
     7
100
AcDbLine
 10
1209.200745511403
 20
971.2081435142922
 30
0.0
 11
1208.908848119176
 21
971.5000409065201
 31
0.0
  0
ARC
  5
2874
330
1F
100
AcDbEntity
  8
PIC01
  6
Continuous
 62
     7
100
AcDbCircle
 10
1210.231420509122
 20
972.84982470144
 30
0.0
 40
1.889758732879972
100
AcDbArc
 50
190.6788325782037
 51
225.7000745529738
  0
LINE
  5
2875
330
1F
100
AcDbEntity
  8
PIC01
  6
Continuous
 62
     7
100
AcDbLine
 10
1209.479133264492
 20
971.0928315313644
 30
0.0
 11
1211.303661689308
 21
971.0928315313644
 31
0.0
  0
ARC
  5
2876
330
1F
100
AcDbEntity
  8
PIC01
  6
Continuous
 62
     7
100
AcDbCircle
 10
1209.479133264492
 20
971.4865312673811
 30
0.0
 40
0.3936997360166606
100
AcDbArc
 50
225.0
 51
270.0
  0
LINE
  5
2877
330
1F
100
AcDbEntity
  8
PIC01
  6
Continuous
 62
     7
100
AcDbLine
 10
1211.460670086646
 20
970.0298422441195
 30
0.0
 11
1211.657862135519
 21
971.2839562074147
 31
0.0
  0
LINE
  5
2878
330
1F
100
AcDbEntity
  8
PIC01
  6
Continuous
 62
     7
100
AcDbLine
 10
1211.657862135519
 20
971.2839562074147
 30
0.0
 11
1211.582049442397
 21
971.2081435142922
 31
0.0
  0
ARC
  5
2879
330
1F
100
AcDbEntity
  8
PIC01
  6
Continuous
 62
     7
100
AcDbCircle
 10
1211.303661689308
 20
971.4865312673811
 30
0.0
 40
0.3936997360166616
100
AcDbArc
 50
270.0
 51
315.0
  0
ARC
  5
287A
330
1F
100
AcDbEntity
  8
PIC01
  6
Continuous
 62
     7
100
AcDbCircle
 10
1247.372032721359
 20
979.8534060637633
 30
0.0
 40
39.68493339047942
100
AcDbArc
 50
186.8426589578523
 51
190.6788323849696
  0
ARC
  5
287B
330
1F
100
AcDbEntity
  8
PIC01
  6
Continuous
 62
     7
100
AcDbCircle
 10
1247.372032721359
 20
979.8534060637633
 30
0.0
 40
40.47233286251274
100
AcDbArc
 50
187.0130880598756
 51
190.7552524330366
  0
ARC
  5
287C
330
1F
100
AcDbEntity
  8
PIC01
  6
Continuous
 62
     7
100
AcDbCircle
 10
1211.09171900068
 20
972.9619272699661
 30
0.0
 40
3.543297624149948
100
AcDbArc
 50
190.7552526987703
 51
231.680149312582
  0
ARC
  5
287D
330
1F
100
AcDbEntity
  8
PIC01
  6
Continuous
 62
     7
100
AcDbCircle
 10
1208.699403065255
 20
969.9348866805792
 30
0.0
 40
0.3149597888133273
100
AcDbArc
 50
8.669949827590654
 51
51.68014931258202
  0
ARC
  5
287E
330
1F
100
AcDbEntity
  8
PIC01
  6
Continuous
 62
     7
100
AcDbCircle
 10
1211.09171900068
 20
972.9619272699661
 30
0.0
 40
3.228337835336618
100
AcDbArc
 50
190.7552526987703
 51
231.680149312582
  0
ARC
  5
287F
330
1F
100
AcDbEntity
  8
PIC01
  6
Continuous
 62
     7
100
AcDbCircle
 10
1247.372032721359
 20
979.8534060637633
 30
0.0
 40
40.15737307369938
100
AcDbArc
 50
186.9995922126409
 51
190.7552524330366
  0
ARC
  5
2880
330
1F
100
AcDbEntity
  8
PIC01
  6
Continuous
 62
     7
100
AcDbCircle
 10
1208.699403065255
 20
969.9348866805792
 30
0.0
 40
0.6299195776266562
100
AcDbArc
 50
8.669949827590654
 51
51.68014931258202
  0
ARC
  5
2881
330
1F
100
AcDbEntity
  8
PIC01
  6
Continuous
 62
     7
100
AcDbCircle
 10
1247.372032721371
 20
979.8534060637651
 30
0.0
 40
40.47233286252454
100
AcDbArc
 50
186.4521125967483
 51
187.0130880598756
  0
LINE
  5
2882
330
1F
100
AcDbEntity
  8
PIC01
  6
Continuous
 62
     7
100
AcDbLine
 10
1202.537603147304
 20
976.919587624411
 30
0.0
 11
1204.38111871462
 21
976.919587624411
 31
0.0
  0
LINE
  5
2883
330
1F
100
AcDbEntity
  8
PIC01
  6
Continuous
 62
     7
100
AcDbLine
 10
1202.458930712746
 20
976.8441076352106
 30
0.0
 11
1202.43528968846
 21
976.2735797528382
 31
0.0
  0
ARC
  5
2884
330
1F
100
AcDbEntity
  8
PIC01
  6
Continuous
 62
     7
100
AcDbCircle
 10
1202.537603147304
 20
976.8408476772076
 30
0.0
 40
0.0787399472033322
100
AcDbArc
 50
90.0
 51
177.6271861621308
  0
LINE
  5
2885
330
1F
100
AcDbEntity
  8
PIC01
  6
Continuous
 62
     7
100
AcDbLine
 10
1204.570719670548
 20
976.2127725951623
 30
0.0
 11
1204.49838734078
 21
976.8155497578636
 31
0.0
  0
ARC
  5
2886
330
1F
100
AcDbEntity
  8
PIC01
  6
Continuous
 62
     7
100
AcDbCircle
 10
1204.883436006975
 20
976.2502980731825
 30
0.0
 40
0.3149597888133269
100
AcDbArc
 50
186.842686290987
 51
270.0
  0
ARC
  5
2887
330
1F
100
AcDbEntity
  8
PIC01
  6
Continuous
 62
     7
100
AcDbCircle
 10
1204.38111871462
 20
976.8014777036059
 30
0.0
 40
0.1181099208049992
100
AcDbArc
 50
6.842686290986995
 51
90.0
  0
LINE
  5
2888
330
1F
100
AcDbEntity
  8
PIC01
  6
Continuous
 62
     7
100
AcDbLine
 10
1204.883436006975
 20
976.2502980731825
 30
0.0
 11
1207.753608363254
 21
976.2502980731825
 31
0.0
  0
LINE
  5
2889
330
1F
100
AcDbEntity
  8
PIC01
  6
Continuous
 62
     7
100
AcDbLine
 10
1204.883436006975
 20
976.2502980731825
 30
0.0
 11
1204.811103677208
 21
976.853075235884
 31
0.0
  0
ARC
  5
288A
330
1F
100
AcDbEntity
  8
PIC01
  6
Continuous
 62
     7
100
AcDbCircle
 10
1204.38111871462
 20
976.8014777036059
 30
0.0
 40
0.4330697096183258
100
AcDbArc
 50
6.842686290986995
 51
27.03569178941692
  0
LINE
  5
288B
330
1F
100
AcDbEntity
  8
PIC01
  6
Continuous
 62
     7
100
AcDbLine
 10
1204.766864100664
 20
976.9983275716143
 30
0.0
 11
1208.895338480037
 21
976.9983275716143
 31
0.0
  0
LINE
  5
288C
330
1F
100
AcDbEntity
  8
PIC01
  6
Continuous
 62
     7
100
AcDbLine
 10
1208.895338480037
 20
976.4902543091441
 30
0.0
 11
1208.895338480037
 21
976.9983275716143
 31
0.0
  0
LINE
  5
288D
330
1F
100
AcDbEntity
  8
PIC01
  6
Continuous
 62
     7
100
AcDbLine
 10
1208.52086008515
 20
976.3154977637512
 30
0.0
 11
1208.895338480037
 21
976.4902543091441
 31
0.0
  0
LINE
  5
288E
330
1F
100
AcDbEntity
  8
PIC01
  6
Continuous
 62
     7
100
AcDbLine
 10
1208.227577873968
 20
976.2568413215147
 30
0.0
 11
1208.52086008515
 21
976.3154977637512
 31
0.0
  0
ARC
  5
288F
330
1F
100
AcDbEntity
  8
PIC01
  6
Continuous
 62
     7
100
AcDbCircle
 10
1208.3047887446
 20
975.870786968352
 30
0.0
 40
0.3936997360166583
100
AcDbArc
 50
101.3099324740202
 51
131.0115183557272
  0
LINE
  5
2890
330
1F
100
AcDbEntity
  8
PIC01
  6
Continuous
 62
     7
100
AcDbLine
 10
1207.832348310458
 20
975.856598337166
 30
0.0
 11
1207.832348310458
 21
975.4542628507676
 31
0.0
  0
LINE
  5
2891
330
1F
100
AcDbEntity
  8
PIC01
  6
Continuous
 62
     7
100
AcDbLine
 10
1207.547726586211
 20
975.3510207779143
 30
0.0
 11
1207.762714329769
 21
975.3760512105891
 31
0.0
  0
ARC
  5
2892
330
1F
100
AcDbEntity
  8
PIC01
  6
Continuous
 62
     7
100
AcDbCircle
 10
1207.753608363254
 20
975.4542628507676
 30
0.0
 40
0.0787399472033322
100
AcDbArc
 50
276.6408915516822
 51
0.0
  0
ARC
  5
2893
330
1F
100
AcDbEntity
  8
PIC01
  6
Continuous
 62
     7
100
AcDbCircle
 10
1207.753608363254
 20
975.856598337166
 30
0.0
 40
0.0787399472033322
100
AcDbArc
 50
0.0
 51
90.0
  0
ARC
  5
2894
330
1F
100
AcDbEntity
  8
PIC01
  6
Continuous
 62
     7
100
AcDbCircle
 10
1207.593256418784
 20
974.9599625770215
 30
0.0
 40
0.3936997360166616
100
AcDbArc
 50
96.64089155168213
 51
187.0130880598756
  0
LINE
  5
2895
330
1F
100
AcDbEntity
  8
PIC01
  6
Continuous
 62
     7
100
AcDbLine
 10
1207.547726586211
 20
975.3510207779143
 30
0.0
 11
1207.156046634128
 21
975.3054185565581
 31
0.0
  0
LINE
  5
2896
330
1F
100
AcDbEntity
  8
PIC01
  6
Continuous
 62
     7
100
AcDbLine
 10
1207.832348310458
 20
975.4542628507676
 30
0.0
 11
1207.832348310458
 21
975.3841585037614
 31
0.0
  0
LINE
  5
2897
330
1F
100
AcDbEntity
  8
PIC01
  6
Continuous
 62
     7
100
AcDbLine
 10
1207.762714329769
 20
975.3760512105891
 30
0.0
 11
1207.832348310458
 21
975.3841585037614
 31
0.0
  0
LINE
  5
2898
330
1F
100
AcDbEntity
  8
PIC01
  6
Continuous
 62
     7
100
AcDbLine
 10
1207.584150452269
 20
975.0381742172002
 30
0.0
 11
1207.799138195827
 21
975.0632046498749
 31
0.0
  0
ARC
  5
2899
330
1F
100
AcDbEntity
  8
PIC01
  6
Continuous
 62
     7
100
AcDbCircle
 10
1207.593256418784
 20
974.9599625770215
 30
0.0
 40
0.078739947203333
100
AcDbArc
 50
96.64089155168213
 51
187.0130880598756
  0
ARC
  5
289A
330
1F
100
AcDbEntity
  8
PIC01
  6
Continuous
 62
     7
100
AcDbCircle
 10
1207.753608363254
 20
975.4542628507676
 30
0.0
 40
0.3936997360165743
100
AcDbArc
 50
276.6408915516822
 51
303.3023635714987
  0
ARC
  5
289B
330
1F
100
AcDbEntity
  8
PIC01
  6
Continuous
 62
     7
100
AcDbCircle
 10
1207.753608363254
 20
975.856598337166
 30
0.0
 40
0.3936997360166624
100
AcDbArc
 50
51.93767654392798
 51
90.0
  0
ARC
  5
289C
330
1F
100
AcDbEntity
  8
PIC01
  6
Continuous
 62
     7
100
AcDbCircle
 10
1208.020603751089
 20
976.1975717030814
 30
0.0
 40
0.0393699736016642
100
AcDbArc
 50
231.937676543928
 51
311.0115183557273
  0
LINE
  5
289D
330
1F
100
AcDbEntity
  8
PIC01
  6
Continuous
 62
     7
100
AcDbLine
 10
1227.216409816386
 20
976.9983275716143
 30
0.0
 11
1227.278342151962
 21
975.6400497512579
 31
0.0
  0
ARC
  5
289E
330
1F
100
AcDbEntity
  8
PIC01
  6
Continuous
 62
     7
100
AcDbCircle
 10
1228.521951137528
 20
963.2017294326155
 30
0.0
 40
13.85823070778644
100
AcDbArc
 50
95.40567533056835
 51
103.2999806190605
  0
LINE
  5
289F
330
1F
100
AcDbEntity
  8
PIC01
  6
Continuous
 62
     7
100
AcDbLine
 10
1225.27324749833
 20
976.3337096263009
 30
0.0
 11
1225.27324749833
 21
976.6116397907211
 31
0.0
  0
ARC
  5
28A0
330
1F
100
AcDbEntity
  8
PIC01
  6
Continuous
 62
     7
100
AcDbCircle
 10
1225.351987445533
 20
976.6116397907211
 30
0.0
 40
0.0787399472033322
100
AcDbArc
 50
103.2999806190605
 51
180.0
  0
ARC
  5
28A1
330
1F
100
AcDbEntity
  8
PIC01
  6
Continuous
 62
     7
100
AcDbCircle
 10
1227.446787484252
 20
975.156753470654
 30
0.0
 40
0.5118096568216588
100
AcDbArc
 50
109.2151984665428
 51
131.7697626490363
  0
ARC
  5
28A2
330
1F
100
AcDbEntity
  8
PIC01
  6
Continuous
 62
     7
100
AcDbCircle
 10
1208.615585650819
 20
1089.793654449663
 30
0.0
 40
118.5036205410149
100
AcDbArc
 50
271.7000909931406
 51
275.9740215058016
  0
LINE
  5
28A3
330
1F
100
AcDbEntity
  8
PIC01
  6
Continuous
 62
     7
100
AcDbLine
 10
1211.729975697023
 20
969.7148823802137
 30
0.0
 11
1211.94237493652
 21
971.1737943323038
 31
0.0
  0
ARC
  5
28A4
330
1F
100
AcDbEntity
  8
PIC01
  6
Continuous
 62
     7
100
AcDbCircle
 10
1211.460670086646
 20
970.0298422441195
 30
0.0
 40
0.3149597888133273
100
AcDbArc
 50
270.0
 51
351.0641936081417
  0
ARC
  5
28A5
330
1F
100
AcDbEntity
  8
PIC01
  6
Continuous
 62
     7
100
AcDbCircle
 10
1212.137171207726
 20
971.1454344440996
 30
0.0
 40
0.1968498680083319
100
AcDbArc
 50
91.7000909931407
 51
171.7166514215064
  0
LINE
  5
28A6
330
1F
100
AcDbEntity
  8
PIC01
  6
Continuous
 62
     7
100
AcDbLine
 10
1211.94237493652
 20
971.1737943323038
 30
0.0
 11
1211.966195538632
 21
971.3374114959531
 31
0.0
  0
ARC
  5
28A7
330
1F
100
AcDbEntity
  8
PIC01
  6
Continuous
 62
     7
100
AcDbCircle
 10
1208.615585652575
 20
1089.793654388927
 30
0.0
 40
118.5036204802531
100
AcDbArc
 50
271.6202154201073
 51
271.7000909931423
  0
ARC
  5
28A8
330
1F
100
AcDbEntity
  8
PIC01
  6
Continuous
 62
     7
100
AcDbCircle
 10
1218.315319181718
 20
972.2802191870473
 30
0.0
 40
0.590549604024989
100
AcDbArc
 50
274.7185821103856
 51
322.3635939079193
  0
LINE
  5
28A9
330
1F
100
AcDbEntity
  8
PIC01
  6
Continuous
 62
     7
100
AcDbLine
 10
1218.782976472259
 20
971.9196009769994
 30
0.0
 11
1220.794250539676
 21
971.9196009769994
 31
0.0
  0
LINE
  5
28AA
330
1F
100
AcDbEntity
  8
PIC01
  6
Continuous
 62
     7
100
AcDbLine
 10
1221.126220575881
 20
971.3868225431246
 30
0.0
 11
1221.078879820434
 21
971.8287176405066
 31
0.0
  0
ARC
  5
28AB
330
1F
100
AcDbEntity
  8
PIC01
  6
Continuous
 62
     7
100
AcDbCircle
 10
1220.961441900099
 20
971.8161363742748
 30
0.0
 40
0.118109920804998
100
AcDbArc
 50
6.114843675220877
 51
95.97402150580155
  0
ARC
  5
28AC
330
1F
100
AcDbEntity
  8
PIC01
  6
Continuous
 62
     7
100
AcDbCircle
 10
1221.321950443105
 20
971.4077913201776
 30
0.0
 40
0.1968498680083303
100
AcDbArc
 50
186.1148436752209
 51
270.0
  0
ARC
  5
28AD
330
1F
100
AcDbEntity
  8
PIC01
  6
Continuous
 62
     7
100
AcDbCircle
 10
1221.517670871794
 20
976.3566685196227
 30
0.0
 40
5.905496040249913
100
AcDbArc
 50
291.3022820770347
 51
346.9638453249983
  0
ARC
  5
28AE
330
1F
100
AcDbEntity
  8
PIC01
  6
Continuous
 62
     7
100
AcDbCircle
 10
1227.477966339165
 20
975.1643559374896
 30
0.0
 40
0.1968498680083303
100
AcDbArc
 50
105.826682089486
 51
180.0
  0
LINE
  5
28AF
330
1F
100
AcDbEntity
  8
PIC01
  6
Continuous
 62
     7
100
AcDbLine
 10
1227.281116471157
 20
975.1133954754227
 30
0.0
 11
1227.281116471157
 21
975.1643559374896
 31
0.0
  0
ARC
  5
28B0
330
1F
100
AcDbEntity
  8
PIC01
  6
Continuous
 62
     7
100
AcDbCircle
 10
1226.88741673514
 20
975.1133954754227
 30
0.0
 40
0.3936997360166606
100
AcDbArc
 50
346.9638453249983
 51
0.0
  0
LINE
  5
28B1
330
1F
100
AcDbEntity
  8
PIC01
  6
Continuous
 62
     7
100
AcDbLine
 10
1226.88741673514
 20
975.2660486663177
 30
0.0
 11
1226.88741673514
 21
975.1133954754227
 31
0.0
  0
ARC
  5
28B2
330
1F
100
AcDbEntity
  8
PIC01
  6
Continuous
 62
     7
100
AcDbCircle
 10
1221.517670871794
 20
976.3566685196227
 30
0.0
 40
5.511796304233254
100
AcDbArc
 50
336.5549033634695
 51
346.9638453249983
  0
ARC
  5
28B3
330
1F
100
AcDbEntity
  8
PIC01
  6
Continuous
 62
     7
100
AcDbCircle
 10
1223.581991602317
 20
976.4073601256788
 30
0.0
 40
3.740147492158279
100
AcDbArc
 50
277.519279828301
 51
323.1381031497538
  0
LINE
  5
28B4
330
1F
100
AcDbEntity
  8
PIC01
  6
Continuous
 62
     7
100
AcDbLine
 10
1221.428082951232
 20
971.5259012409827
 30
0.0
 11
1222.296168724057
 21
971.5259012409827
 31
0.0
  0
ARC
  5
28B5
330
1F
100
AcDbEntity
  8
PIC01
  6
Continuous
 62
     7
100
AcDbCircle
 10
1221.676554985808
 20
971.0928315313644
 30
0.0
 40
0.4330697096183271
100
AcDbArc
 50
4.208299065589111
 51
90.0
  0
ARC
  5
28B6
330
1F
100
AcDbEntity
  8
PIC01
  6
Continuous
 62
     7
100
AcDbCircle
 10
1220.961441900099
 20
971.8161363742748
 30
0.0
 40
0.4330697096183276
100
AcDbArc
 50
6.114843675220877
 51
33.10291194076891
  0
LINE
  5
28B7
330
1F
100
AcDbEntity
  8
PIC01
  6
Continuous
 62
     7
100
AcDbLine
 10
1221.428082951232
 20
971.5259012409827
 30
0.0
 11
1221.392047607994
 21
971.8622676837917
 31
0.0
  0
ARC
  5
28B8
330
1F
100
AcDbEntity
  8
PIC01
  6
Continuous
 62
     7
100
AcDbCircle
 10
1208.615585650819
 20
1089.793654449663
 30
0.0
 40
118.4248805938114
100
AcDbArc
 50
276.1604962237669
 51
277.519279828301
  0
ARC
  5
28B9
330
1F
100
AcDbEntity
  8
PIC01
  6
Continuous
 62
     7
100
AcDbCircle
 10
1223.581991602317
 20
976.4073601256788
 30
0.0
 40
4.055107280971607
100
AcDbArc
 50
277.519279828301
 51
310.4370578197499
  0
ARC
  5
28BA
330
1F
100
AcDbEntity
  8
PIC01
  6
Continuous
 62
     7
100
AcDbCircle
 10
1221.517670871794
 20
976.3566685196227
 30
0.0
 40
5.590536251436586
100
AcDbArc
 50
291.3022820770347
 51
327.1110953392348
  0
ARC
  5
28BB
330
1F
100
AcDbEntity
  8
PIC01
  6
Continuous
 62
     7
100
AcDbCircle
 10
1224.09214829028
 20
969.7542524289078
 30
0.0
 40
1.496058996863311
100
AcDbArc
 50
110.7133712746567
 51
185.4774256045302
  0
LINE
  5
28BC
330
1F
100
AcDbEntity
  8
PIC01
  6
Continuous
 62
     7
100
AcDbLine
 10
1222.977617932173
 20
964.5141370536801
 30
0.0
 11
1222.600122880163
 21
969.6444676500892
 31
0.0
  0
LINE
  5
28BD
330
1F
100
AcDbEntity
  8
PIC01
  6
Continuous
 62
     7
100
AcDbLine
 10
1222.724598883037
 20
962.7509621019608
 30
0.0
 11
1222.108457078211
 21
971.1246113357592
 31
0.0
  0
ARC
  5
28BE
330
1F
100
AcDbEntity
  8
PIC01
  6
Continuous
 62
     7
100
AcDbCircle
 10
1224.132966905429
 20
962.4314367570496
 30
0.0
 40
0.3543297624149951
100
AcDbArc
 50
50.82692029378826
 51
89.99993542735772
  0
LINE
  5
28BF
330
1F
100
AcDbEntity
  8
PIC01
  6
Continuous
 62
     7
100
AcDbLine
 10
1222.882156722145
 20
962.7857679291341
 30
0.0
 11
1223.265359714039
 21
962.7857674972625
 31
0.0
  0
ARC
  5
28C0
330
1F
100
AcDbEntity
  8
PIC01
  6
Continuous
 62
     7
100
AcDbCircle
 10
1222.882156300628
 20
962.4117531799186
 30
0.0
 40
0.3740147492158274
100
AcDbArc
 50
89.99993542735772
 51
114.9141561167603
  0
LINE
  5
28C1
330
1F
100
AcDbEntity
  8
PIC01
  6
Continuous
 62
     7
100
AcDbLine
 10
1224.34183553102
 20
963.0339889735422
 30
0.0
 11
1224.356784659798
 21
962.706127844204
 31
0.0
  0
ARC
  5
28C2
330
1F
100
AcDbEntity
  8
PIC01
  6
Continuous
 62
     7
100
AcDbCircle
 10
1224.452023831243
 20
963.5337965998445
 30
0.0
 40
0.5118096568216598
100
AcDbArc
 50
195.7491954783723
 51
257.5673668647346
  0
ARC
  5
28C3
330
1F
100
AcDbEntity
  8
PIC01
  6
Continuous
 62
     7
100
AcDbCircle
 10
1223.504724148625
 20
963.2666448177346
 30
0.0
 40
0.4724396832200109
100
AcDbArc
 50
15.74918420914734
 51
72.3644881206587
  0
ARC
  5
28C4
330
1F
100
AcDbEntity
  8
PIC01
  6
Continuous
 62
     7
100
AcDbCircle
 10
1223.488047677739
 20
964.5516950043285
 30
0.0
 40
0.5118096568216607
100
AcDbArc
 50
184.2082990655891
 51
250.8887280364459
  0
ARC
  5
28C5
330
1F
100
AcDbEntity
  8
PIC01
  6
Continuous
 62
     7
100
AcDbCircle
 10
1223.814790890697
 20
964.2007783086411
 30
0.0
 40
0.5118096568216661
100
AcDbArc
 50
195.0252946649942
 51
251.6374565490429
  0
LINE
  5
28C6
330
1F
100
AcDbEntity
  8
PIC01
  6
DASHED
 62
     7
100
AcDbLine
 10
1226.824118962063
 20
975.3574480847751
 30
0.0
 11
1226.493716999124
 21
975.4235284773631
 31
0.0
  0
ARC
  5
28C7
330
1F
100
AcDbEntity
  8
PIC01
  6
DASHED
 62
     7
100
AcDbCircle
 10
1226.808676787937
 20
975.2802372141427
 30
0.0
 40
0.0787399472033322
100
AcDbArc
 50
0.0
 51
78.69006752597979
  0
ARC
  5
28C8
330
1F
100
AcDbEntity
  8
PIC01
  6
Continuous
 62
     7
100
AcDbCircle
 10
1225.27324749833
 20
976.3337096263009
 30
0.0
 40
0.3149597888133286
100
AcDbArc
 50
180.0
 51
245.2248593423376
  0
LINE
  5
28C9
330
1F
100
AcDbEntity
  8
PIC01
  6
Continuous
 62
     7
100
AcDbLine
 10
1226.591944650705
 20
975.7250801688782
 30
0.0
 11
1225.27324749833
 21
976.3337096263009
 31
0.0
  0
LINE
  5
28CA
330
1F
100
AcDbEntity
  8
PIC01
  6
Continuous
 62
     7
100
AcDbLine
 10
1226.885887658569
 20
975.6662915673052
 30
0.0
 11
1226.591944650705
 21
975.7250801688782
 31
0.0
  0
ARC
  5
28CB
330
1F
100
AcDbEntity
  8
PIC01
  6
Continuous
 62
     7
100
AcDbCircle
 10
1226.808676787937
 20
975.2802372141427
 30
0.0
 40
0.3936997360166605
100
AcDbArc
 50
40.9899320617084
 51
78.69006752597979
  0
LINE
  5
28CC
330
1F
100
AcDbEntity
  8
PIC01
  6
Continuous
 62
     7
100
AcDbLine
 10
1226.023370591068
 20
975.4938953243637
 30
0.0
 11
1225.991054875072
 21
975.6231581887416
 31
0.0
  0
ARC
  5
28CD
330
1F
100
AcDbEntity
  8
PIC01
  6
Continuous
 62
     7
100
AcDbCircle
 10
1226.808676787937
 20
975.2660486663177
 30
0.0
 40
0.078739947203332
100
AcDbArc
 50
0.0
 51
90.00000496743176
  0
ARC
  5
28CE
330
1F
100
AcDbEntity
  8
PIC01
  6
Continuous
 62
     7
100
AcDbCircle
 10
1226.214343014205
 20
975.5416384300021
 30
0.0
 40
0.19684986800833
100
AcDbArc
 50
194.0362434267292
 51
270.0000049674318
  0
ARC
  5
28CF
330
1F
100
AcDbEntity
  8
PIC01
  6
Continuous
 62
     7
100
AcDbCircle
 10
1225.914665905818
 20
975.6040609464863
 30
0.0
 40
0.078739947203331
100
AcDbArc
 50
14.03624342672921
 51
65.22485934233756
  0
LINE
  5
28D0
330
1F
100
AcDbEntity
  8
PIC01
  6
Continuous
 62
     7
100
AcDbLine
 10
1226.870315002025
 20
975.6548933817295
 30
0.0
 11
1226.302275973896
 21
975.6730386042031
 31
0.0
  0
LINE
  5
28D1
330
1F
100
AcDbEntity
  8
PIC01
  6
Continuous
 62
     7
100
AcDbLine
 10
1226.303245634075
 20
975.6730076297476
 30
0.0
 11
1226.296610752092
 21
975.699547157763
 31
0.0
  0
ARC
  5
28D2
330
1F
100
AcDbEntity
  8
PIC01
  6
Continuous
 62
     7
100
AcDbCircle
 10
1225.914665905818
 20
975.6040609464863
 30
0.0
 40
0.3936997360166597
100
AcDbArc
 50
14.03624342672921
 51
65.22485934233756
  0
ARC
  5
28D3
330
1F
100
AcDbEntity
  8
PIC01
  6
Continuous
 62
     7
100
AcDbCircle
 10
1226.808676787937
 20
975.2660486663177
 30
0.0
 40
0.3936997360166605
100
AcDbArc
 50
42.51733046737356
 51
90.00000496743176
  0
LINE
  5
28D4
330
1F
100
AcDbEntity
  8
PIC01
  6
DASHED
 62
     7
100
AcDbLine
 10
1226.493716999124
 20
975.4235284773631
 30
0.0
 11
1225.947662524697
 21
975.6755536204334
 31
0.0
  0
LINE
  5
28D5
330
1F
100
AcDbEntity
  8
PIC01
  6
Continuous
 62
     7
100
AcDbLine
 10
1225.947662524697
 20
975.6755536204334
 30
0.0
 11
1225.141261022812
 21
976.0477389305121
 31
0.0
  0
ARC
  5
28D6
330
1F
100
AcDbEntity
  8
PIC01
  6
DASHED
 62
     7
100
AcDbCircle
 10
1222.79294471189
 20
995.5004764179113
 30
0.0
 40
4.094473224726669
100
AcDbArc
 50
311.8886573278037
 51
48.11134267219626
  0
ARC
  5
28D7
330
1F
100
AcDbEntity
  8
PIC01
  6
DASHED
 62
     7
100
AcDbCircle
 10
1216.878432947685
 20
988.9060058396321
 30
0.0
 40
12.9527088677016
100
AcDbArc
 50
48.11137871688043
 51
97.94331727902488
  0
ARC
  5
28D8
330
1F
100
AcDbEntity
  8
PIC01
  6
DASHED
 62
     7
100
AcDbCircle
 10
1216.878432947685
 20
1002.09494699619
 30
0.0
 40
12.9527088677016
100
AcDbArc
 50
262.0566827209751
 51
311.8886212831196
  0
ARC
  5
28D9
330
1F
100
AcDbEntity
  8
PIC01
  6
DASHED
 62
     7
100
AcDbCircle
 10
1204.120054511317
 20
910.6581833063209
 30
0.0
 40
79.36986678095883
100
AcDbArc
 50
82.05667555335585
 51
85.7118816321387
  0
ARC
  5
28DA
330
1F
100
AcDbEntity
  8
PIC01
  6
DASHED
 62
     7
100
AcDbCircle
 10
1210.231319205778
 20
992.1614527205626
 30
0.0
 40
2.362198416099967
100
AcDbArc
 50
170.7415325065053
 51
265.7118816321387
  0
ARC
  5
28DB
330
1F
100
AcDbEntity
  8
PIC01
  6
DASHED
 62
     7
100
AcDbCircle
 10
1195.824508281057
 20
995.5004783538315
 30
0.0
 40
12.08658189571156
100
AcDbArc
 50
351.9000286972016
 51
0.0
  0
ARC
  5
28DC
330
1F
100
AcDbEntity
  8
PIC01
  6
DASHED
 62
     7
100
AcDbCircle
 10
1259.385532010229
 20
984.1487236821514
 30
0.0
 40
52.55891475822425
100
AcDbArc
 50
169.8739552132325
 51
170.741532164024
  0
ARC
  5
28DD
330
1F
100
AcDbEntity
  8
PIC01
  6
DASHED
 62
     7
100
AcDbCircle
 10
1195.824508281057
 20
995.5004783538315
 30
0.0
 40
12.00784194850821
100
AcDbArc
 50
349.8739552132325
 51
351.3831594481955
  0
ARC
  5
28DE
330
1F
100
AcDbEntity
  8
PIC01
  6
DASHED
 62
     7
100
AcDbCircle
 10
1206.996149900103
 20
993.8075675531196
 30
0.0
 40
0.7086595248299897
100
AcDbArc
 50
351.3831594481955
 51
90.0
  0
LINE
  5
28DF
330
1F
100
AcDbEntity
  8
PIC01
  6
DASHED
 62
     7
100
AcDbLine
 10
1205.785097668408
 20
994.5162270779496
 30
0.0
 11
1206.996149900103
 21
994.5162270779496
 31
0.0
  0
ARC
  5
28E0
330
1F
100
AcDbEntity
  8
PIC01
  6
DASHED
 62
     7
100
AcDbCircle
 10
1210.231319205778
 20
992.1614527205626
 30
0.0
 40
2.755898152116627
100
AcDbArc
 50
170.7415325065053
 51
265.7118816321387
  0
ARC
  5
28E1
330
1F
100
AcDbEntity
  8
PIC01
  6
DASHED
 62
     7
100
AcDbCircle
 10
1210.231319205778
 20
992.1614527205626
 30
0.0
 40
3.070857940929953
100
AcDbArc
 50
170.7415325065053
 51
211.6161036567086
  0
ARC
  5
28E2
330
1F
100
AcDbEntity
  8
PIC01
  6
DASHED
 62
     7
100
AcDbCircle
 10
1207.482132472693
 20
990.4690764368446
 30
0.0
 40
0.1574798944066627
100
AcDbArc
 50
267.5878098232039
 51
31.61610365670856
  0
LINE
  5
28E3
330
1F
100
AcDbEntity
  8
PIC01
  6
Continuous
 62
     7
100
AcDbLine
 10
1205.785097668408
 20
989.8477497609654
 30
0.0
 11
1205.785097668408
 21
989.8496010609713
 31
0.0
  0
ARC
  5
28E4
330
1F
100
AcDbEntity
  8
PIC01
  6
DASHED
 62
     7
100
AcDbCircle
 10
1205.942577562815
 20
989.770840243427
 30
0.0
 40
0.1574798944066643
100
AcDbArc
 50
180.0
 51
268.6803070934816
  0
ARC
  5
28E5
330
1F
100
AcDbEntity
  8
PIC01
  6
DASHED
 62
     7
100
AcDbCircle
 10
1205.942577562815
 20
989.8496010609713
 30
0.0
 40
0.1574798944066643
100
AcDbArc
 50
88.68161914712699
 51
180.0
  0
LINE
  5
28E6
330
1F
100
AcDbEntity
  8
PIC01
  6
DASHED
 62
     7
100
AcDbLine
 10
1205.785097668408
 20
989.770840243427
 30
0.0
 11
1205.785097668408
 21
989.8496010609713
 31
0.0
  0
ARC
  5
28E7
330
1F
100
AcDbEntity
  8
PIC01
  6
DASHED
 62
     7
100
AcDbCircle
 10
1205.785112086124
 20
995.5004764179113
 30
0.0
 40
0.9842493400416499
100
AcDbArc
 50
89.99936417149067
 51
270.0006358285094
  0
LINE
  5
28E8
330
1F
100
AcDbEntity
  8
PIC01
  6
DASHED
 62
     7
100
AcDbLine
 10
1207.123690704735
 20
993.9517321607338
 30
0.0
 11
1207.123690704735
 21
997.0952380497065
 31
0.0
  0
LINE
  5
28E9
330
1F
100
AcDbEntity
  8
PIC01
  6
DASHED
 62
     7
100
AcDbLine
 10
1207.438650493549
 20
993.9517321607338
 30
0.0
 11
1207.438650493549
 21
997.0952380497065
 31
0.0
  0
ARC
  5
28EA
330
1F
100
AcDbEntity
  8
PIC01
  6
DASHED
 62
     7
100
AcDbCircle
 10
1195.824508281057
 20
995.5004744819909
 30
0.0
 40
12.08658189571156
100
AcDbArc
 50
0.0
 51
8.09997130279838
  0
LINE
  5
28EB
330
1F
100
AcDbEntity
  8
PIC01
  6
DASHED
 62
     7
100
AcDbLine
 10
1207.590001287058
 20
993.5434952540409
 30
0.0
 11
1207.46121637237
 21
993.5620605603048
 31
0.0
  0
ARC
  5
28EC
330
1F
100
AcDbEntity
  8
PIC01
  6
DASHED
 62
     7
100
AcDbCircle
 10
1207.578766473381
 20
993.465560933955
 30
0.0
 40
0.0787399472033321
100
AcDbArc
 50
350.1782072405637
 51
81.79689831061478
  0
ARC
  5
28ED
330
1F
100
AcDbEntity
  8
PIC01
  6
DASHED
 62
     7
100
AcDbCircle
 10
1207.517390440752
 20
993.9517321607338
 30
0.0
 40
0.3936997360166616
100
AcDbArc
 50
180.0
 51
261.7968983106148
  0
ARC
  5
28EE
330
1F
100
AcDbEntity
  8
PIC01
  6
DASHED
 62
     7
100
AcDbCircle
 10
1207.578766473381
 20
993.465560933955
 30
0.0
 40
0.3936997360166601
100
AcDbArc
 50
57.46376223221691
 51
81.79689831061478
  0
LINE
  5
28EF
330
1F
100
AcDbEntity
  8
PIC01
  6
DASHED
 62
     7
100
AcDbLine
 10
1207.634940541764
 20
993.8552325343842
 30
0.0
 11
1207.506155627076
 21
993.873797840648
 31
0.0
  0
ARC
  5
28F0
330
1F
100
AcDbEntity
  8
PIC01
  6
DASHED
 62
     7
100
AcDbCircle
 10
1207.517390440752
 20
993.9517321607338
 30
0.0
 40
0.0787399472033331
100
AcDbArc
 50
180.0
 51
261.7968983106148
  0
ARC
  5
28F1
330
1F
100
AcDbEntity
  8
PIC01
  6
DASHED
 62
     7
100
AcDbCircle
 10
1207.578766473381
 20
997.5353919018672
 30
0.0
 40
0.3936997360166601
100
AcDbArc
 50
278.2031016893852
 51
302.5362377677831
  0
LINE
  5
28F2
330
1F
100
AcDbEntity
  8
PIC01
  6
DASHED
 62
     7
100
AcDbLine
 10
1207.634940541764
 20
997.1457203014383
 30
0.0
 11
1207.506155627076
 21
997.1271549951744
 31
0.0
  0
ARC
  5
28F3
330
1F
100
AcDbEntity
  8
PIC01
  6
DASHED
 62
     7
100
AcDbCircle
 10
1207.517390440752
 20
997.0492206750886
 30
0.0
 40
0.0787399472033331
100
AcDbArc
 50
98.20310168938521
 51
180.0
  0
ARC
  5
28F4
330
1F
100
AcDbEntity
  8
PIC01
  6
DASHED
 62
     7
100
AcDbCircle
 10
1207.578766473381
 20
997.5353919018672
 30
0.0
 40
0.0787399472033321
100
AcDbArc
 50
278.2031016893852
 51
9.821792759436274
  0
LINE
  5
28F5
330
1F
100
AcDbEntity
  8
PIC01
  6
DASHED
 62
     7
100
AcDbLine
 10
1207.590001287058
 20
997.4574575817815
 30
0.0
 11
1207.46121637237
 21
997.4388922755176
 31
0.0
  0
ARC
  5
28F6
330
1F
100
AcDbEntity
  8
PIC01
  6
DASHED
 62
     7
100
AcDbCircle
 10
1207.517390440752
 20
997.0492206750886
 30
0.0
 40
0.3936997360166616
100
AcDbArc
 50
98.20310168938521
 51
180.0
  0
ARC
  5
28F7
330
1F
100
AcDbEntity
  8
PIC01
  6
DASHED
 62
     7
100
AcDbCircle
 10
1210.231319205778
 20
998.8395001152598
 30
0.0
 40
2.362198416099967
100
AcDbArc
 50
94.28811836786129
 51
189.2584674934947
  0
ARC
  5
28F8
330
1F
100
AcDbEntity
  8
PIC01
  6
DASHED
 62
     7
100
AcDbCircle
 10
1210.231319205778
 20
998.8395001152598
 30
0.0
 40
2.755898152116627
100
AcDbArc
 50
94.28811836786129
 51
189.2584674934947
  0
ARC
  5
28F9
330
1F
100
AcDbEntity
  8
PIC01
  6
DASHED
 62
     7
100
AcDbCircle
 10
1259.385532010229
 20
1006.852229153671
 30
0.0
 40
52.55891475822425
100
AcDbArc
 50
189.2584671714132
 51
190.1260447867675
  0
ARC
  5
28FA
330
1F
100
AcDbEntity
  8
PIC01
  6
DASHED
 62
     7
100
AcDbCircle
 10
1195.824508281057
 20
995.5004744819909
 30
0.0
 40
12.00784194850821
100
AcDbArc
 50
9.821792759436274
 51
10.12604478676748
  0
ARC
  5
28FB
330
1F
100
AcDbEntity
  8
PIC01
  6
DASHED
 62
     7
100
AcDbCircle
 10
1207.482132472693
 20
1000.531876398978
 30
0.0
 40
0.1574798944066627
100
AcDbArc
 50
328.3838963432915
 51
92.41219017679608
  0
ARC
  5
28FC
330
1F
100
AcDbEntity
  8
PIC01
  6
DASHED
 62
     7
100
AcDbCircle
 10
1210.231319205778
 20
998.8395001152598
 30
0.0
 40
3.070857940929953
100
AcDbArc
 50
148.3838963432914
 51
189.2584674934947
  0
ARC
  5
28FD
330
1F
100
AcDbEntity
  8
PIC01
  6
DASHED
 62
     7
100
AcDbCircle
 10
1205.942577562815
 20
1001.230112592395
 30
0.0
 40
0.1574798944066643
100
AcDbArc
 50
91.31969290651834
 51
180.0
  0
LINE
  5
28FE
330
1F
100
AcDbEntity
  8
PIC01
  6
DASHED
 62
     7
100
AcDbLine
 10
1205.785097668408
 20
1001.230112592395
 30
0.0
 11
1205.785097668408
 21
1001.151351774851
 31
0.0
  0
ARC
  5
28FF
330
1F
100
AcDbEntity
  8
PIC01
  6
DASHED
 62
     7
100
AcDbCircle
 10
1205.942577562815
 20
1001.151351774851
 30
0.0
 40
0.1574798944066643
100
AcDbArc
 50
180.0
 51
253.3981205088648
  0
ARC
  5
2900
330
1F
100
AcDbEntity
  8
PIC01
  6
DASHED
 62
     7
100
AcDbCircle
 10
1204.120054511317
 20
1080.342769529502
 30
0.0
 40
79.36986678095883
100
AcDbArc
 50
274.288118227056
 51
277.9433244466442
  0
ARC
  5
2901
330
1F
100
AcDbEntity
  8
PIC01
  6
DASHED
 62
     7
100
AcDbCircle
 10
1237.876457753908
 20
995.5004744819909
 30
0.0
 40
12.40154168452488
100
AcDbArc
 50
0.0
 51
10.12604478676748
  0
ARC
  5
2902
330
1F
100
AcDbEntity
  8
PIC01
  6
DASHED
 62
     7
100
AcDbCircle
 10
1301.43748148308
 20
1006.852229153671
 30
0.0
 40
52.16521502220758
100
AcDbArc
 50
189.2584671714132
 51
190.1260447867675
  0
ARC
  5
2903
330
1F
100
AcDbEntity
  8
PIC01
  6
DASHED
 62
     7
100
AcDbCircle
 10
1301.43748148308
 20
1006.852229153671
 30
0.0
 40
52.87387454703756
100
AcDbArc
 50
189.394873177429
 51
190.1260447867675
  0
ARC
  5
2904
330
1F
100
AcDbEntity
  8
PIC01
  6
DASHED
 62
     7
100
AcDbCircle
 10
1246.172003984167
 20
1080.342769529502
 30
0.0
 40
79.72419654337382
100
AcDbArc
 50
271.2051097786832
 51
272.4269080415488
  0
ARC
  5
2905
330
1F
100
AcDbEntity
  8
PIC01
  6
Continuous
 62
     7
100
AcDbCircle
 10
1249.630715946232
 20
997.5353919018674
 30
0.0
 40
0.0787399472033321
100
AcDbArc
 50
278.2031016893852
 51
9.821792759436274
  0
ARC
  5
2906
330
1F
100
AcDbEntity
  8
PIC01
  6
DASHED
 62
     7
100
AcDbCircle
 10
1252.283268678629
 20
998.8395001152598
 30
0.0
 40
2.362198416099967
100
AcDbArc
 50
94.28811836786129
 51
189.2584674934947
  0
ARC
  5
2907
330
1F
100
AcDbEntity
  8
PIC01
  6
Continuous
 62
     7
100
AcDbCircle
 10
1301.43748148308
 20
1006.852229153671
 30
0.0
 40
52.55891475822426
100
AcDbArc
 50
189.2584670451337
 51
190.1260447867675
  0
ARC
  5
2908
330
1F
100
AcDbEntity
  8
PIC01
  6
Continuous
 62
     7
100
AcDbCircle
 10
1237.876457753908
 20
995.5004744819909
 30
0.0
 40
12.00784194850821
100
AcDbArc
 50
9.821792759436274
 51
10.12604478676748
  0
ARC
  5
2909
330
1F
100
AcDbEntity
  8
PIC01
  6
DASHED
 62
     7
100
AcDbCircle
 10
1249.534081945543
 20
1000.531876398978
 30
0.0
 40
0.1574798944066627
100
AcDbArc
 50
328.3838963432915
 51
92.41219017679608
  0
LINE
  5
290A
330
1F
100
AcDbEntity
  8
PIC01
  6
DASHED
 62
     7
100
AcDbLine
 10
1247.837047141259
 20
1001.230112592395
 30
0.0
 11
1247.837047141259
 21
1001.151351774851
 31
0.0
  0
ARC
  5
290B
330
1F
100
AcDbEntity
  8
PIC01
  6
DASHED
 62
     7
100
AcDbCircle
 10
1247.994527035666
 20
1001.151351774851
 30
0.0
 40
0.1574798944066643
100
AcDbArc
 50
180.0
 51
253.3981205088648
  0
ARC
  5
290C
330
1F
100
AcDbEntity
  8
PIC01
  6
DASHED
 62
     7
100
AcDbCircle
 10
1237.876457753908
 20
995.5004783538315
 30
0.0
 40
12.40154168452488
100
AcDbArc
 50
349.8739552132325
 51
0.0
  0
ARC
  5
290D
330
1F
100
AcDbEntity
  8
PIC01
  6
DASHED
 62
     7
100
AcDbCircle
 10
1301.43748148308
 20
984.1487236821514
 30
0.0
 40
52.16521502220757
100
AcDbArc
 50
169.8739552132325
 51
170.7415325065053
  0
LINE
  5
290E
330
1F
100
AcDbEntity
  8
PIC01
  6
DASHED
 62
     7
100
AcDbLine
 10
1249.922897532843
 20
994.5162270778697
 30
0.0
 11
1250.23888007232
 21
994.5162270778697
 31
0.0
  0
LINE
  5
290F
330
1F
100
AcDbEntity
  8
PIC01
  6
DASHED
 62
     7
100
AcDbLine
 10
1249.922897532843
 20
996.4847257579529
 30
0.0
 11
1250.23888007232
 21
996.4847257579529
 31
0.0
  0
ARC
  5
2910
330
1F
100
AcDbEntity
  8
PIC01
  6
DASHED
 62
     7
100
AcDbCircle
 10
1237.876457753908
 20
995.5004783538315
 30
0.0
 40
12.08658189571156
100
AcDbArc
 50
351.9000286972016
 51
0.0
  0
LINE
  5
2911
330
1F
100
AcDbEntity
  8
PIC01
  6
Continuous
 62
     7
100
AcDbLine
 10
1249.175640177586
 20
993.951732160734
 30
0.0
 11
1249.175640177586
 21
997.0492206750886
 31
0.0
  0
LINE
  5
2912
330
1F
100
AcDbEntity
  8
PIC01
  6
DASHED
 62
     7
100
AcDbLine
 10
1249.490599966399
 20
993.951732160734
 30
0.0
 11
1249.490599966399
 21
997.0952380497067
 31
0.0
  0
ARC
  5
2913
330
1F
100
AcDbEntity
  8
PIC01
  6
DASHED
 62
     7
100
AcDbCircle
 10
1237.876457753908
 20
995.5004744819909
 30
0.0
 40
12.08658189571156
100
AcDbArc
 50
0.0
 51
8.09997130279838
  0
LINE
  5
2914
330
1F
100
AcDbEntity
  8
PIC01
  6
Continuous
 62
     7
100
AcDbLine
 10
1249.642155077685
 20
993.543465800109
 30
0.0
 11
1249.51316584522
 21
993.5620605603048
 31
0.0
  0
ARC
  5
2915
330
1F
100
AcDbEntity
  8
PIC01
  6
Continuous
 62
     7
100
AcDbCircle
 10
1249.569339913602
 20
993.951732160734
 30
0.0
 40
0.3936997360166616
100
AcDbArc
 50
180.0
 51
261.7968983106148
  0
ARC
  5
2916
330
1F
100
AcDbEntity
  8
PIC01
  6
DASHED
 62
     7
100
AcDbCircle
 10
1249.630715946232
 20
993.4655609339552
 30
0.0
 40
0.3936997360166601
100
AcDbArc
 50
57.46376223221691
 51
81.79689831061478
  0
LINE
  5
2917
330
1F
100
AcDbEntity
  8
PIC01
  6
DASHED
 62
     7
100
AcDbLine
 10
1249.686890014614
 20
993.8552325343842
 30
0.0
 11
1249.558105099926
 21
993.873797840648
 31
0.0
  0
ARC
  5
2918
330
1F
100
AcDbEntity
  8
PIC01
  6
DASHED
 62
     7
100
AcDbCircle
 10
1249.569339913602
 20
993.951732160734
 30
0.0
 40
0.0787399472033331
100
AcDbArc
 50
180.0
 51
261.7968983106148
  0
ARC
  5
2919
330
1F
100
AcDbEntity
  8
PIC01
  6
DASHED
 62
     7
100
AcDbCircle
 10
1249.630715946232
 20
997.5353919018674
 30
0.0
 40
0.3936997360166601
100
AcDbArc
 50
278.2031016893852
 51
302.5362377677831
  0
LINE
  5
291A
330
1F
100
AcDbEntity
  8
PIC01
  6
DASHED
 62
     7
100
AcDbLine
 10
1249.686890014614
 20
997.1457203014383
 30
0.0
 11
1249.558105099926
 21
997.1271549951744
 31
0.0
  0
ARC
  5
291B
330
1F
100
AcDbEntity
  8
PIC01
  6
DASHED
 62
     7
100
AcDbCircle
 10
1249.569339913602
 20
997.0492206750886
 30
0.0
 40
0.0787399472033331
100
AcDbArc
 50
98.20310168938521
 51
180.0
  0
LINE
  5
291C
330
1F
100
AcDbEntity
  8
PIC01
  6
Continuous
 62
     7
100
AcDbLine
 10
1249.641950759908
 20
997.4574575817815
 30
0.0
 11
1249.51316584522
 21
997.4388922755176
 31
0.0
  0
ARC
  5
291D
330
1F
100
AcDbEntity
  8
PIC01
  6
Continuous
 62
     7
100
AcDbCircle
 10
1249.569339913602
 20
997.0492206750886
 30
0.0
 40
0.3936997360166616
100
AcDbArc
 50
98.20310168938521
 51
180.0
  0
ARC
  5
291E
330
1F
100
AcDbEntity
  8
PIC01
  6
DASHED
 62
     7
100
AcDbCircle
 10
1246.172003984167
 20
910.6581833063209
 30
0.0
 40
79.72419654337382
100
AcDbArc
 50
87.58780982320393
 51
88.80328934878052
  0
ARC
  5
291F
330
1F
100
AcDbEntity
  8
PIC01
  6
DASHED
 62
     7
100
AcDbCircle
 10
1252.283268678629
 20
992.1614527205626
 30
0.0
 40
2.362198416099967
100
AcDbArc
 50
170.7415325065053
 51
265.7118816321387
  0
ARC
  5
2920
330
1F
100
AcDbEntity
  8
PIC01
  6
DASHED
 62
     7
100
AcDbCircle
 10
1249.534081945543
 20
990.4690764368446
 30
0.0
 40
0.1574798944066627
100
AcDbArc
 50
267.5878098232039
 51
31.61610365670856
  0
LINE
  5
2921
330
1F
100
AcDbEntity
  8
PIC01
  6
DASHED
 62
     7
100
AcDbLine
 10
1247.837047141259
 20
989.7708402434272
 30
0.0
 11
1247.837047141259
 21
989.8496010609713
 31
0.0
  0
LINE
  5
2922
330
1F
100
AcDbEntity
  8
PIC01
  6
DASHED
 62
     7
100
AcDbLine
 10
1247.837047141259
 20
994.6343369987546
 30
0.0
 11
1249.048099372953
 21
994.6343369987546
 31
0.0
  0
ARC
  5
2923
330
1F
100
AcDbEntity
  8
PIC01
  6
DASHED
 62
     7
100
AcDbCircle
 10
1247.837061558974
 20
995.5004764179113
 30
0.0
 40
0.8661394192366515
100
AcDbArc
 50
89.99936417149067
 51
270.0006358285094
  0
LINE
  5
2924
330
1F
100
AcDbEntity
  8
PIC01
  6
DASHED
 62
     7
100
AcDbLine
 10
1247.837047141259
 20
996.366615837068
 30
0.0
 11
1249.048099372953
 21
996.366615837068
 31
0.0
  0
ARC
  5
2925
330
1F
100
AcDbEntity
  8
PIC01
  6
Continuous
 62
     7
100
AcDbCircle
 10
1237.876457753908
 20
995.5004783538315
 30
0.0
 40
11.69288215969489
100
AcDbArc
 50
349.8739552132325
 51
350.5998545713002
  0
ARC
  5
2926
330
1F
100
AcDbEntity
  8
PIC01
  6
DASHED
 62
     7
100
AcDbCircle
 10
1237.876457753908
 20
995.5004783538315
 30
0.0
 40
11.69288215969489
100
AcDbArc
 50
350.5998545713002
 51
351.3831594481955
  0
ARC
  5
2927
330
1F
100
AcDbEntity
  8
PIC01
  6
Continuous
 62
     7
100
AcDbCircle
 10
1301.43748148308
 20
1006.852229153671
 30
0.0
 40
52.87387454703756
100
AcDbArc
 50
189.2584671714132
 51
190.1260447867675
  0
ARC
  5
2928
330
1F
100
AcDbEntity
  8
PIC01
  6
DASHED
 62
     7
100
AcDbCircle
 10
1252.283268678629
 20
998.8395001152598
 30
0.0
 40
3.070857940929953
100
AcDbArc
 50
148.3838963432914
 51
183.4791212430764
  0
ARC
  5
2929
330
1F
100
AcDbEntity
  8
PIC01
  6
Continuous
 62
     7
100
AcDbCircle
 10
1252.283268678629
 20
998.8395001152598
 30
0.0
 40
3.07085794092995
100
AcDbArc
 50
187.2262376952409
 51
189.2584674934947
  0
ARC
  5
292A
330
1F
100
AcDbEntity
  8
PIC01
  6
Continuous
 62
     7
100
AcDbCircle
 10
1237.876457753908
 20
995.5004744819909
 30
0.0
 40
11.69288215969489
100
AcDbArc
 50
9.400145428699794
 51
10.12604478676748
  0
ARC
  5
292B
330
1F
100
AcDbEntity
  8
PIC01
  6
DASHED
 62
     7
100
AcDbCircle
 10
1237.876457753908
 20
995.5004744819909
 30
0.0
 40
11.69288215969489
100
AcDbArc
 50
8.616840551804489
 51
9.400145428699794
  0
ARC
  5
292C
330
1F
100
AcDbEntity
  8
PIC01
  6
DASHED
 62
     7
100
AcDbCircle
 10
1252.283268678629
 20
998.8395001152598
 30
0.0
 40
2.755898152116623
100
AcDbArc
 50
94.28811836786129
 51
184.5915160832154
  0
ARC
  5
292D
330
1F
100
AcDbEntity
  8
PIC01
  6
Continuous
 62
     7
100
AcDbCircle
 10
1252.283268678629
 20
998.8395001152598
 30
0.0
 40
2.755898152116627
100
AcDbArc
 50
188.0572936745302
 51
189.2584674934947
  0
ARC
  5
292E
330
1F
100
AcDbEntity
  8
PIC01
  6
Continuous
 62
     7
100
AcDbCircle
 10
1249.048099372953
 20
993.8075675531196
 30
0.0
 40
0.3936997360166606
100
AcDbArc
 50
71.0977537391516
 51
90.0
  0
ARC
  5
292F
330
1F
100
AcDbEntity
  8
PIC01
  6
DASHED
 62
     7
100
AcDbCircle
 10
1249.048099372953
 20
993.8075675531196
 30
0.0
 40
0.3936997360166625
100
AcDbArc
 50
351.3831594481955
 51
71.0977537391516
  0
ARC
  5
2930
330
1F
100
AcDbEntity
  8
PIC01
  6
Continuous
 62
     7
100
AcDbCircle
 10
1249.048099372953
 20
997.193385282703
 30
0.0
 40
0.3936997360166606
100
AcDbArc
 50
270.0
 51
288.9022462608484
  0
ARC
  5
2931
330
1F
100
AcDbEntity
  8
PIC01
  6
DASHED
 62
     7
100
AcDbCircle
 10
1249.048099372953
 20
997.193385282703
 30
0.0
 40
0.3936997360166605
100
AcDbArc
 50
288.9022462608484
 51
8.616840551804489
  0
ARC
  5
2932
330
1F
100
AcDbEntity
  8
PIC01
  6
Continuous
 62
     7
100
AcDbCircle
 10
1249.048099372953
 20
993.8075675531196
 30
0.0
 40
0.511809656821659
100
AcDbArc
 50
75.57007252917951
 51
90.0
  0
ARC
  5
2933
330
1F
100
AcDbEntity
  8
PIC01
  6
Continuous
 62
     7
100
AcDbCircle
 10
1249.048099372953
 20
997.193385282703
 30
0.0
 40
0.511809656821659
100
AcDbArc
 50
270.0
 51
284.4299274708205
  0
LINE
  5
2934
330
1F
100
AcDbEntity
  8
PIC01
  6
Continuous
 62
     7
100
AcDbLine
 10
1249.722909639507
 20
993.5318244275457
 30
0.0
 11
1252.660456501295
 21
993.9407152907723
 31
0.0
  0
LINE
  5
2935
330
1F
100
AcDbEntity
  8
PIC01
  6
Continuous
 62
     7
100
AcDbLine
 10
1249.722909639507
 20
997.4691284082767
 30
0.0
 11
1252.660456501295
 21
997.0602375450503
 31
0.0
  0
ARC
  5
2936
330
1F
100
AcDbEntity
  8
PIC01
  6
Continuous
 62
     7
100
AcDbCircle
 10
1243.017780633966
 20
1038.996730507736
 30
0.0
 40
39.76367333768274
100
AcDbArc
 50
278.8981130237328
 51
282.6931064779103
  0
ARC
  5
2937
330
1F
100
AcDbEntity
  8
PIC01
  6
Continuous
 62
     7
100
AcDbCircle
 10
1255.474814988662
 20
983.68948363418
 30
0.0
 40
16.92908864871643
100
AcDbArc
 50
87.83326100889823
 51
102.6244886252852
  0
ARC
  5
2938
330
1F
100
AcDbEntity
  8
PIC01
  6
Continuous
 62
     7
100
AcDbCircle
 10
1254.641261262089
 20
961.6580614337257
 30
0.0
 40
38.97627386564944
100
AcDbArc
 50
79.52638187052475
 51
87.83326100889823
  0
ARC
  5
2939
330
1F
100
AcDbEntity
  8
PIC01
  6
Continuous
 62
     7
100
AcDbCircle
 10
1268.954826657197
 20
1039.086099838838
 30
0.0
 40
39.76367333768274
100
AcDbArc
 50
259.5263818705248
 51
264.9776645581237
  0
ARC
  5
293A
330
1F
100
AcDbEntity
  8
PIC01
  6
Continuous
 62
     7
100
AcDbCircle
 10
1278.470591670356
 20
1001.204063711951
 30
0.0
 40
12.9920912885498
100
AcDbArc
 50
188.2345006401882
 51
197.1968860158353
  0
ARC
  5
293B
330
1F
100
AcDbEntity
  8
PIC01
  6
Continuous
 62
     7
100
AcDbCircle
 10
1265.422455067684
 20
999.2820075137242
 30
0.0
 40
0.1968498680083322
100
AcDbArc
 50
8.379693802073234
 51
84.92863265903551
  0
ARC
  5
293C
330
1F
100
AcDbEntity
  8
PIC01
  6
Continuous
 62
     7
100
AcDbCircle
 10
1260.041732546786
 20
995.5004764179113
 30
0.0
 40
6.299195776266572
100
AcDbArc
 50
342.8031139841647
 51
17.19688601583531
  0
ARC
  5
293D
330
1F
100
AcDbEntity
  8
PIC01
  6
Continuous
 62
     7
100
AcDbCircle
 10
1278.470591670356
 20
989.796889123871
 30
0.0
 40
12.9920912885498
100
AcDbArc
 50
162.8031139841646
 51
171.8616672516745
  0
ARC
  5
293E
330
1F
100
AcDbEntity
  8
PIC01
  6
Continuous
 62
     7
100
AcDbCircle
 10
1265.422455067684
 20
991.7189453220984
 30
0.0
 40
0.1968498680083322
100
AcDbArc
 50
275.0713673409645
 51
351.6203061979268
  0
ARC
  5
293F
330
1F
100
AcDbEntity
  8
PIC01
  6
Continuous
 62
     7
100
AcDbCircle
 10
1268.954826657197
 20
951.9148529969847
 30
0.0
 40
39.76367333768277
100
AcDbArc
 50
94.98653126505198
 51
100.4736168930522
  0
ARC
  5
2940
330
1F
100
AcDbEntity
  8
PIC01
  6
Continuous
 62
     7
100
AcDbCircle
 10
1254.641261262089
 20
1029.342891402097
 30
0.0
 40
38.97627386564944
100
AcDbArc
 50
272.1667389911017
 51
280.4736181294753
  0
ARC
  5
2941
330
1F
100
AcDbEntity
  8
PIC01
  6
Continuous
 62
     7
100
AcDbCircle
 10
1255.474814988662
 20
1007.311469201642
 30
0.0
 40
16.92908864871643
100
AcDbArc
 50
257.3755113747148
 51
272.1667389911017
  0
ARC
  5
2942
330
1F
100
AcDbEntity
  8
PIC01
  6
Continuous
 62
     7
100
AcDbCircle
 10
1259.136236773795
 20
999.2883962426093
 30
0.0
 40
0.1968498680083289
100
AcDbArc
 50
262.5175671488825
 51
352.2778351543854
  0
ARC
  5
2943
330
1F
100
AcDbEntity
  8
PIC01
  6
Continuous
 62
     7
100
AcDbCircle
 10
1259.136236773795
 20
999.2883962426093
 30
0.0
 40
0.1968498680083303
100
AcDbArc
 50
0.0
 51
82.51756714888257
  0
ARC
  5
2944
330
1F
100
AcDbEntity
  8
PIC01
  6
Continuous
 62
     7
100
AcDbCircle
 10
1252.640195935424
 20
998.9074492718662
 30
0.0
 40
0.19684986800833
100
AcDbArc
 50
83.85388122553417
 51
263.8538812255342
  0
ARC
  5
2945
330
1F
100
AcDbEntity
  8
PIC01
  6
Continuous
 62
     7
100
AcDbCircle
 10
1253.009657291196
 20
1038.359061056755
 30
0.0
 40
47.24396832199933
100
AcDbArc
 50
276.5069990789525
 51
284.3130043858285
  0
LINE
  5
2946
330
1F
100
AcDbEntity
  8
PIC01
  6
Continuous
 62
     7
100
AcDbLine
 10
1257.21737671004
 20
992.3884018761837
 30
0.0
 11
1252.661271549173
 21
991.8977851717697
 31
0.0
  0
ARC
  5
2947
330
1F
100
AcDbEntity
  8
PIC01
  6
Continuous
 62
     7
100
AcDbCircle
 10
1252.640195935424
 20
992.0935035639562
 30
0.0
 40
0.19684986800833
100
AcDbArc
 50
96.14611877446584
 51
276.1461187744658
  0
ARC
  5
2948
330
1F
100
AcDbEntity
  8
PIC01
  6
Continuous
 62
     7
100
AcDbCircle
 10
1257.088984956802
 20
995.500475516804
 30
0.0
 40
8.011789627939025
100
AcDbArc
 50
342.5253911169647
 51
355.7095306138365
  0
ARC
  5
2949
330
1F
100
AcDbEntity
  8
PIC01
  6
Continuous
 62
     7
100
AcDbCircle
 10
1257.088984956802
 20
995.5004773190184
 30
0.0
 40
8.011789627939023
100
AcDbArc
 50
4.290469386163557
 51
17.47460888303529
  0
ARC
  5
294A
330
1F
100
AcDbEntity
  8
PIC01
  6
Continuous
 62
     7
100
AcDbCircle
 10
1264.543266164696
 20
993.1537810064364
 30
0.0
 40
0.1968498680083285
100
AcDbArc
 50
284.3130043858285
 51
342.5253911169647
  0
ARC
  5
294B
330
1F
100
AcDbEntity
  8
PIC01
  6
Continuous
 62
     7
100
AcDbCircle
 10
1264.543266164696
 20
997.847171829386
 30
0.0
 40
0.1968498680083259
100
AcDbArc
 50
17.47460888303529
 51
75.68699561417144
  0
LINE
  5
294C
330
1F
100
AcDbEntity
  8
PIC01
  6
Continuous
 62
     7
100
AcDbLine
 10
1264.953790760279
 20
995.9729161011313
 30
0.0
 11
1264.960543350684
 21
995.9729161011313
 31
0.0
  0
LINE
  5
294D
330
1F
100
AcDbEntity
  8
PIC01
  6
Continuous
 62
     7
100
AcDbLine
 10
1264.953790760279
 20
995.0280367346913
 30
0.0
 11
1264.960543350684
 21
995.0280367346913
 31
0.0
  0
ARC
  5
294E
330
1F
100
AcDbEntity
  8
PIC01
  6
Continuous
 62
     7
100
AcDbCircle
 10
1264.953790760279
 20
995.5004764179113
 30
0.0
 40
0.4724396832199931
100
AcDbArc
 50
90.0
 51
270.0
  0
ARC
  5
294F
330
1F
100
AcDbEntity
  8
PIC01
  6
Continuous
 62
     7
100
AcDbCircle
 10
1264.960543350684
 20
994.9099268138862
 30
0.0
 40
0.1181099208049983
100
AcDbArc
 50
355.7095306138365
 51
90.0
  0
ARC
  5
2950
330
1F
100
AcDbEntity
  8
PIC01
  6
Continuous
 62
     7
100
AcDbCircle
 10
1264.960543350684
 20
996.0910260219362
 30
0.0
 40
0.1181099208049983
100
AcDbArc
 50
270.0
 51
4.290469386163557
  0
ARC
  5
2951
330
1F
100
AcDbEntity
  8
PIC01
  6
Continuous
 62
     7
100
AcDbCircle
 10
1257.088983755326
 20
995.500475516804
 30
0.0
 40
6.750769373477661
100
AcDbArc
 50
346.1737630537848
 51
0.0
  0
ARC
  5
2952
330
1F
100
AcDbEntity
  8
PIC01
  6
Continuous
 62
     7
100
AcDbCircle
 10
1257.088983755326
 20
995.5004773190184
 30
0.0
 40
6.750769373477665
100
AcDbArc
 50
0.0
 51
13.82623694621514
  0
ARC
  5
2953
330
1F
100
AcDbEntity
  8
PIC01
  6
Continuous
 62
     7
100
AcDbCircle
 10
1257.088983755326
 20
995.500475516804
 30
0.0
 40
6.030298856567171
100
AcDbArc
 50
342.4695886828303
 51
0.0
  0
ARC
  5
2954
330
1F
100
AcDbEntity
  8
PIC01
  6
Continuous
 62
     7
100
AcDbCircle
 10
1257.088983755326
 20
995.5004773190184
 30
0.0
 40
6.030298856567171
100
AcDbArc
 50
0.0
 51
17.53041131716964
  0
ARC
  5
2955
330
1F
100
AcDbEntity
  8
PIC01
  6
Continuous
 62
     7
100
AcDbCircle
 10
1262.72659413307
 20
993.7196534479538
 30
0.0
 40
0.1181099208049977
100
AcDbArc
 50
283.1786604889407
 51
342.4695886828303
  0
ARC
  5
2956
330
1F
100
AcDbEntity
  8
PIC01
  6
Continuous
 62
     7
100
AcDbCircle
 10
1262.72659413307
 20
997.2812993878687
 30
0.0
 40
0.1181099208049977
100
AcDbArc
 50
17.53041131716964
 51
76.82133951105929
  0
ARC
  5
2957
330
1F
100
AcDbEntity
  8
PIC01
  6
Continuous
 62
     7
100
AcDbCircle
 10
1263.529461559382
 20
993.9154149278726
 30
0.0
 40
0.1181099208049959
100
AcDbArc
 50
284.2271996167063
 51
346.1737630537848
  0
ARC
  5
2958
330
1F
100
AcDbEntity
  8
PIC01
  6
Continuous
 62
     7
100
AcDbCircle
 10
1263.529461559382
 20
997.08553790795
 30
0.0
 40
0.1181099208049981
100
AcDbArc
 50
13.82623694621514
 51
75.77280038329373
  0
ARC
  5
2959
330
1F
100
AcDbEntity
  8
PIC01
  6
Continuous
 62
     7
100
AcDbCircle
 10
1264.428792498715
 20
995.5004764179113
 30
0.0
 40
0.5905496040249901
100
AcDbArc
 50
95.73351104025677
 51
264.2664889597432
  0
ARC
  5
295A
330
1F
100
AcDbEntity
  8
PIC01
  6
Continuous
 62
     7
100
AcDbCircle
 10
1257.088984956802
 20
995.5004773190184
 30
0.0
 40
7.421240023914029
100
AcDbArc
 50
5.540508529590965
 51
12.97839806204015
  0
ARC
  5
295B
330
1F
100
AcDbEntity
  8
PIC01
  6
Continuous
 62
     7
100
AcDbCircle
 10
1264.357996194124
 20
994.7953620971174
 30
0.0
 40
0.1181099208050007
100
AcDbArc
 50
354.459491470409
 51
84.26648895974322
  0
ARC
  5
295C
330
1F
100
AcDbEntity
  8
PIC01
  6
Continuous
 62
     7
100
AcDbCircle
 10
1264.357996194124
 20
996.2055907387052
 30
0.0
 40
0.1181099208049975
100
AcDbArc
 50
275.7335110402568
 51
5.540508529590965
  0
LINE
  5
295D
330
1F
100
AcDbEntity
  8
PIC01
  6
Continuous
 62
     7
100
AcDbLine
 10
1263.633848957338
 20
997.1826458124684
 30
0.0
 11
1264.299132786765
 21
997.1826458124684
 31
0.0
  0
LINE
  5
295E
330
1F
100
AcDbEntity
  8
PIC01
  6
Continuous
 62
     7
100
AcDbLine
 10
1264.31706303138
 20
997.1826458124684
 30
0.0
 11
1264.660869746047
 21
997.9315264155294
 31
0.0
  0
LINE
  5
295F
330
1F
100
AcDbEntity
  8
PIC01
  6
Continuous
 62
     7
100
AcDbLine
 10
1263.633848957338
 20
993.8183070233542
 30
0.0
 11
1264.299132786765
 21
993.8183070233542
 31
0.0
  0
ARC
  5
2960
330
1F
100
AcDbEntity
  8
PIC01
  6
Continuous
 62
     7
100
AcDbCircle
 10
1257.088984956802
 20
995.500475516804
 30
0.0
 40
7.421240023914029
100
AcDbArc
 50
347.0216019379599
 51
354.459491470409
  0
LINE
  5
2961
330
1F
100
AcDbEntity
  8
PIC01
  6
Continuous
 62
     7
100
AcDbLine
 10
1264.31706303138
 20
993.8183070233542
 30
0.0
 11
1264.660869746047
 21
993.069426420293
 31
0.0
  0
LINE
  5
2962
330
1F
100
AcDbEntity
  8
PIC01
  6
Continuous
 62
     7
100
AcDbLine
 10
1264.960543350684
 20
994.949296787488
 30
0.0
 11
1264.526210221883
 21
994.8667152810569
 31
0.0
  0
LINE
  5
2963
330
1F
100
AcDbEntity
  8
PIC01
  6
Continuous
 62
     7
100
AcDbLine
 10
1264.960543350684
 20
996.0516560483346
 30
0.0
 11
1264.526210221883
 21
996.1342375547657
 31
0.0
  0
LINE
  5
2964
330
1F
100
AcDbEntity
  8
PIC01
  6
Continuous
 62
     7
100
AcDbLine
 10
1265.194444174739
 20
994.9886667610895
 30
0.0
 11
1265.352389854042
 21
994.9886667610895
 31
0.0
  0
ARC
  5
2965
330
1F
100
AcDbEntity
  8
PIC01
  6
Continuous
 62
     7
100
AcDbCircle
 10
1257.088984956802
 20
995.500475516804
 30
0.0
 40
8.405489363955686
100
AcDbArc
 50
342.5253911169647
 51
355.6407782026039
  0
ARC
  5
2966
330
1F
100
AcDbEntity
  8
PIC01
  6
Continuous
 62
     7
100
AcDbCircle
 10
1264.543266164696
 20
993.1537810064364
 30
0.0
 40
0.5905496040249905
100
AcDbArc
 50
284.3130043858285
 51
342.5253911169647
  0
ARC
  5
2967
330
1F
100
AcDbEntity
  8
PIC01
  6
Continuous
 62
     7
100
AcDbCircle
 10
1265.352389854042
 20
994.8705568402846
 30
0.0
 40
0.1181099208049983
100
AcDbArc
 50
355.6407782026039
 51
90.0
  0
ARC
  5
2968
330
1F
100
AcDbEntity
  8
PIC01
  6
Continuous
 62
     7
100
AcDbCircle
 10
1265.194444174739
 20
994.8705568402846
 30
0.0
 40
0.1181099208049983
100
AcDbArc
 50
90.0
 51
175.556169970192
  0
ARC
  5
2969
330
1F
100
AcDbEntity
  8
PIC01
  6
Continuous
 62
     7
100
AcDbCircle
 10
1257.088984956802
 20
995.5004773190184
 30
0.0
 40
8.405489363955686
100
AcDbArc
 50
4.359221797396152
 51
17.47460888303529
  0
ARC
  5
296A
330
1F
100
AcDbEntity
  8
PIC01
  6
Continuous
 62
     7
100
AcDbCircle
 10
1265.352389854042
 20
996.130395995538
 30
0.0
 40
0.1181099208049983
100
AcDbArc
 50
270.0
 51
4.359221797396152
  0
ARC
  5
296B
330
1F
100
AcDbEntity
  8
PIC01
  6
Continuous
 62
     7
100
AcDbCircle
 10
1265.194444174739
 20
996.130395995538
 30
0.0
 40
0.1181099208049983
100
AcDbArc
 50
184.443830029808
 51
270.0
  0
LINE
  5
296C
330
1F
100
AcDbEntity
  8
PIC01
  6
Continuous
 62
     7
100
AcDbLine
 10
1265.194444174739
 20
996.0122860747329
 30
0.0
 11
1265.352389854042
 21
996.0122860747329
 31
0.0
  0
ARC
  5
296D
330
1F
100
AcDbEntity
  8
PIC01
  6
Continuous
 62
     7
100
AcDbCircle
 10
1264.543266164696
 20
997.847171829386
 30
0.0
 40
0.5905496040249898
100
AcDbArc
 50
17.47460888303529
 51
75.68699561417144
  0
ARC
  5
296E
330
1F
100
AcDbEntity
  8
PIC01
  6
Continuous
 62
     7
100
AcDbCircle
 10
1253.009657291196
 20
952.6418917790673
 30
0.0
 40
47.24396832199933
100
AcDbArc
 50
75.68699561417144
 51
83.49300092104753
  0
ARC
  5
296F
330
1F
100
AcDbEntity
  8
PIC01
  6
Continuous
 62
     7
100
AcDbCircle
 10
1222.539140185452
 20
962.588918447707
 30
0.0
 40
0.1181099208049983
100
AcDbArc
 50
184.2082990655891
 51
269.9999354273578
  0
ARC
  5
2970
330
1F
100
AcDbEntity
  8
PIC01
  6
DASHED
 62
     7
100
AcDbCircle
 10
1226.736232172874
 20
994.9886667610895
 30
0.0
 40
0.1181099208049983
100
AcDbArc
 50
352.6047720562158
 51
90.0
  0
ARC
  5
2971
330
1F
100
AcDbEntity
  8
PIC01
  6
DASHED
 62
     7
100
AcDbCircle
 10
1226.736232172874
 20
996.0122860747329
 30
0.0
 40
0.1181099208049983
100
AcDbArc
 50
270.0
 51
7.395227943784155
  0
LINE
  5
2972
330
1F
100
AcDbEntity
  8
PIC01
  6
DASHED
 62
     7
100
AcDbLine
 10
1214.369096118204
 20
962.6085519150231
 30
0.0
 11
1214.289739599914
 21
962.8606056847587
 31
0.0
  0
ARC
  5
2973
330
1F
100
AcDbEntity
  8
PIC01
  6
DASHED
 62
     7
100
AcDbCircle
 10
1214.556859882113
 20
962.6676673909807
 30
0.0
 40
0.19684986800833
100
AcDbArc
 50
197.4760684015661
 51
269.9999354273578
  0
ARC
  5
2974
330
1F
100
AcDbEntity
  8
PIC01
  6
DASHED
 62
     7
100
AcDbCircle
 10
1214.177081341569
 20
962.8251363991841
 30
0.0
 40
0.1181099208050004
100
AcDbArc
 50
17.47606840156612
 51
90.0
  0
LINE
  5
2975
330
1F
100
AcDbEntity
  8
PIC01
  6
Continuous
 62
     7
100
AcDbLine
 10
1208.006185102466
 20
996.6348835745254
 30
0.0
 11
1208.182196566478
 21
995.9869130177915
 31
0.0
  0
LINE
  5
2976
330
1F
100
AcDbEntity
  8
PIC01
  6
Continuous
 62
     7
100
AcDbLine
 10
1208.182196566478
 20
995.9869130177915
 30
0.0
 11
1207.996282535253
 21
995.4991196696346
 31
0.0
  0
ARC
  5
2977
330
1F
100
AcDbEntity
  8
PIC01
  6
Continuous
 62
     7
100
AcDbCircle
 10
1244.726833644442
 20
989.988680113678
 30
0.0
 40
0.6299195776266574
100
AcDbArc
 50
180.0
 51
270.0
  0
ARC
  5
2978
330
1F
100
AcDbEntity
  8
PIC01
  6
Continuous
 62
     7
100
AcDbCircle
 10
1244.687463670841
 20
1000.461093091721
 30
0.0
 40
0.1574798944066643
100
AcDbArc
 50
90.0
 51
180.0
  0
ARC
  5
2979
330
1F
100
AcDbEntity
  8
PIC01
  6
Continuous
 62
     7
100
AcDbCircle
 10
1244.648093697239
 20
1000.697312933331
 30
0.0
 40
0.1574798944066643
100
AcDbArc
 50
90.0
 51
180.0
  0
ARC
  5
297A
330
1F
100
AcDbEntity
  8
PIC01
  6
Continuous
 62
     7
100
AcDbCircle
 10
1244.648093697239
 20
990.3036399024912
 30
0.0
 40
0.1574798944066643
100
AcDbArc
 50
180.0
 51
270.0
  0
ARC
  5
297B
330
1F
100
AcDbEntity
  8
PIC01
  6
Continuous
 62
     7
100
AcDbCircle
 10
1244.687463670841
 20
990.5398597441013
 30
0.0
 40
0.1574798944066643
100
AcDbArc
 50
180.0
 51
270.0
  0
LINE
  5
297C
330
1F
100
AcDbEntity
  8
PIC01
  6
Continuous
 62
     7
100
AcDbLine
 10
1214.079377689657
 20
975.3447885301598
 30
0.0
 11
1226.88741673514
 21
975.3447885301598
 31
0.0
  0
LINE
  5
297D
330
1F
100
AcDbEntity
  8
PIC01
  6
Continuous
 62
     7
100
AcDbLine
 10
1208.226048797397
 20
975.9353381341847
 30
0.0
 11
1210.391396594566
 21
975.9353381341847
 31
0.0
  0
ARC
  5
297E
330
1F
100
AcDbEntity
  8
PIC01
  6
Continuous
 62
     7
100
AcDbCircle
 10
1210.391396594566
 20
971.9983407740182
 30
0.0
 40
3.936997360166608
100
AcDbArc
 50
71.80512766124509
 51
90.0
  0
ARC
  5
297F
330
1F
100
AcDbEntity
  8
PIC01
  6
Continuous
 62
     7
100
AcDbCircle
 10
1214.079377689657
 20
983.218783250493
 30
0.0
 40
7.873994720333219
100
AcDbArc
 50
251.8051276612451
 51
270.0
  0
ARC
  5
2980
330
1F
100
AcDbEntity
  8
PIC01
  6
Continuous
 62
     7
100
AcDbCircle
 10
1210.269732917306
 20
962.8645063727859
 30
0.0
 40
0.0787399472033317
100
AcDbArc
 50
4.763636414985522
 51
90.0
  0
LINE
  5
2981
330
1F
100
AcDbEntity
  8
PIC01
  6
Continuous
 62
     7
100
AcDbLine
 10
1207.648159208105
 20
962.9432463199892
 30
0.0
 11
1210.269732917306
 21
962.9432463199892
 31
0.0
  0
LINE
  5
2982
330
1F
100
AcDbEntity
  8
PIC01
  6
DASHED
 62
     7
100
AcDbLine
 10
1210.269732917306
 20
962.9432463199892
 30
0.0
 11
1214.177081341569
 21
962.9432463199892
 31
0.0
  0
LINE
  5
2983
330
1F
100
AcDbEntity
  8
PIC01
  6
DASHED
 62
     7
100
AcDbLine
 10
1223.049653272315
 20
962.4621388917429
 30
0.0
 11
1222.413960203803
 21
971.1014987507448
 31
0.0
  0
ARC
  5
2984
330
1F
100
AcDbEntity
  8
PIC01
  6
DASHED
 62
     7
100
AcDbCircle
 10
1222.296168724057
 20
971.0928315313644
 30
0.0
 40
0.1181099208049985
100
AcDbArc
 50
4.208299065589111
 51
90.0
  0
ARC
  5
2985
330
1F
100
AcDbEntity
  8
PIC01
  6
Continuous
 62
     7
100
AcDbCircle
 10
1223.167444752061
 20
962.4708061111233
 30
0.0
 40
0.1181099208049987
100
AcDbArc
 50
184.2082990655891
 51
270.0
  0
ARC
  5
2986
330
1F
100
AcDbEntity
  8
PIC01
  6
Continuous
 62
     7
100
AcDbCircle
 10
1223.392350820779
 20
962.4117526049268
 30
0.0
 40
0.0590549604024992
100
AcDbArc
 50
269.9999354273578
 51
0.0
  0
ARC
  5
2987
330
1F
100
AcDbEntity
  8
PIC01
  6
Continuous
 62
     7
100
AcDbCircle
 10
1223.510460741584
 20
962.4117524718164
 30
0.0
 40
0.0590549604024992
100
AcDbArc
 50
89.99993542735772
 51
180.0
  0
LINE
  5
2988
330
1F
100
AcDbEntity
  8
PIC01
  6
Continuous
 62
     7
100
AcDbLine
 10
1223.341651610489
 20
962.7857674112812
 30
0.0
 11
1223.244849102102
 21
964.1013578221819
 31
0.0
  0
LINE
  5
2989
330
1F
100
AcDbEntity
  8
PIC01
  6
Continuous
 62
     7
100
AcDbLine
 10
1221.321950443105
 20
971.2109414521695
 30
0.0
 11
1221.676554985808
 21
971.2109414521695
 31
0.0
  0
LINE
  5
298A
330
1F
100
AcDbEntity
  8
PIC01
  6
DASHED
 62
     7
100
AcDbLine
 10
1221.676554985808
 20
971.2109414521695
 30
0.0
 11
1222.296168724057
 21
971.2109414521695
 31
0.0
  0
LINE
  5
298B
330
1F
100
AcDbEntity
  8
PIC01
  6
Continuous
 62
     7
100
AcDbLine
 10
1222.776497459476
 20
970.4664710845886
 30
0.0
 11
1222.72807081646
 21
971.1246113357592
 31
0.0
  0
ARC
  5
298C
330
1F
100
AcDbEntity
  8
PIC01
  6
Continuous
 62
     7
100
AcDbCircle
 10
1222.296168724057
 20
971.0928315313644
 30
0.0
 40
0.4330697096183271
100
AcDbArc
 50
4.208299065589111
 51
90.0
  0
LINE
  5
298D
330
1F
100
AcDbEntity
  8
PIC01
  6
Continuous
 62
     7
100
AcDbLine
 10
1225.141261022812
 20
976.0477389305121
 30
0.0
 11
1224.958287709516
 21
976.1321881523777
 31
0.0
  0
ARC
  5
298E
330
1F
100
AcDbEntity
  8
PIC01
  6
Continuous
 62
     7
100
AcDbCircle
 10
1202.241892184875
 20
976.3609722189674
 30
0.0
 40
0.1968498680083304
100
AcDbArc
 50
177.6271861621308
 51
267.2134664305087
  0
ARC
  5
298F
330
1F
100
AcDbEntity
  8
PIC01
  6
Continuous
 62
     7
100
AcDbCircle
 10
1202.317281036622
 20
976.2784696898425
 30
0.0
 40
0.1181099208049977
100
AcDbArc
 50
267.2134664305087
 51
357.6271861621308
  0
CIRCLE
  5
2990
330
1F
100
AcDbEntity
  8
PIC01
  6
Continuous
 62
     7
100
AcDbCircle
 10
1254.72678549023
 20
999.9886534085012
 30
0.0
 40
0.3740147492158279
  0
ARC
  5
2991
330
1F
100
AcDbEntity
  8
PIC01
  6
DASHED
 62
     7
100
AcDbCircle
 10
1206.996149900103
 20
997.193385282703
 30
0.0
 40
0.7086595248299897
100
AcDbArc
 50
270.0
 51
8.616840551804489
  0
LINE
  5
2992
330
1F
100
AcDbEntity
  8
PIC01
  6
DASHED
 62
     7
100
AcDbLine
 10
1205.785097668408
 20
996.4847257578728
 30
0.0
 11
1206.996149900103
 21
996.4847257578728
 31
0.0
  0
ARC
  5
2993
330
1F
100
AcDbEntity
  8
PIC01
  6
DASHED
 62
     7
100
AcDbCircle
 10
1214.011935227213
 20
963.5337959240141
 30
0.0
 40
0.1968498680083303
100
AcDbArc
 50
270.0
 51
346.3872053486624
  0
LINE
  5
2994
330
1F
100
AcDbEntity
  8
PIC01
  6
Continuous
 62
     7
100
AcDbLine
 10
1219.64334279391
 20
994.3193772098613
 30
0.0
 11
1220.037042529927
 21
994.3193772098613
 31
0.0
  0
ARC
  5
2995
330
1F
100
AcDbEntity
  8
PIC01
  6
Continuous
 62
     7
100
AcDbCircle
 10
1220.037042529927
 20
993.9256774738446
 30
0.0
 40
0.3936997360166606
100
AcDbArc
 50
0.0
 51
90.0
  0
LINE
  5
2996
330
1F
100
AcDbEntity
  8
PIC01
  6
Continuous
 62
     7
100
AcDbLine
 10
1219.64334279391
 20
996.6815756259613
 30
0.0
 11
1220.037042529927
 21
996.6815756259613
 31
0.0
  0
ARC
  5
2997
330
1F
100
AcDbEntity
  8
PIC01
  6
Continuous
 62
     7
100
AcDbCircle
 10
1220.037042529927
 20
997.0752753619779
 30
0.0
 40
0.3936997360166606
100
AcDbArc
 50
270.0
 51
0.0
  0
CIRCLE
  5
2998
330
1F
100
AcDbEntity
  8
PIC01
  6
Continuous
 62
     7
100
AcDbCircle
 10
1203.501653617227
 20
995.5004764179113
 30
0.0
 40
0.5511796304233254
  0
LINE
  5
2999
330
1F
100
AcDbEntity
  8
PIC01
  6
Continuous
 62
     7
100
AcDbLine
 10
1219.151218123889
 20
971.9196009769994
 30
0.0
 11
1219.151218123889
 21
972.3133007130162
 31
0.0
  0
LINE
  5
299A
330
1F
100
AcDbEntity
  8
PIC01
  6
Continuous
 62
     7
100
AcDbLine
 10
1220.135467463931
 20
971.9196009769994
 30
0.0
 11
1220.135467463931
 21
972.3133007130162
 31
0.0
  0
CIRCLE
  5
299B
330
1F
100
AcDbEntity
  8
PIC01
  6
Continuous
 62
     7
100
AcDbCircle
 10
1245.553603090077
 20
995.5004764179113
 30
0.0
 40
0.5511796304233254
  0
CIRCLE
  5
299C
330
1F
100
AcDbEntity
  8
PIC01
  6
Continuous
 62
     7
100
AcDbCircle
 10
1261.69529226676
 20
995.5004764179113
 30
0.0
 40
0.4921246700208262
  0
CIRCLE
  5
299D
330
1F
100
AcDbEntity
  8
PIC01
  6
DASHED
 62
     7
100
AcDbCircle
 10
1208.354183998109
 20
995.0083517478903
 30
0.0
 40
0.0590549604024992
  0
CIRCLE
  5
299E
330
1F
100
AcDbEntity
  8
PIC01
  6
DASHED
 62
     7
100
AcDbCircle
 10
1208.276986747951
 20
994.0271344692305
 30
0.0
 40
0.0590549604024992
  0
CIRCLE
  5
299F
330
1F
100
AcDbEntity
  8
PIC01
  6
DASHED
 62
     7
100
AcDbCircle
 10
1208.126006202359
 20
993.054534017747
 30
0.0
 40
0.0590549604024992
  0
CIRCLE
  5
29A0
330
1F
100
AcDbEntity
  8
PIC01
  6
DASHED
 62
     7
100
AcDbCircle
 10
1208.008507200107
 20
992.077323319974
 30
0.0
 40
0.0590549604024992
  0
CIRCLE
  5
29A1
330
1F
100
AcDbEntity
  8
PIC01
  6
DASHED
 62
     7
100
AcDbCircle
 10
1208.262408620806
 20
991.1263865019154
 30
0.0
 40
0.0590549604024992
  0
CIRCLE
  5
29A2
330
1F
100
AcDbEntity
  8
PIC01
  6
DASHED
 62
     7
100
AcDbCircle
 10
1226.71889894167
 20
995.0083517478903
 30
0.0
 40
0.0590549604024992
  0
CIRCLE
  5
29A3
330
1F
100
AcDbEntity
  8
PIC01
  6
DASHED
 62
     7
100
AcDbCircle
 10
1226.475961747858
 20
994.0545549753887
 30
0.0
 40
0.0590549604024992
  0
CIRCLE
  5
29A4
330
1F
100
AcDbEntity
  8
PIC01
  6
DASHED
 62
     7
100
AcDbCircle
 10
1226.005120260944
 20
993.1902315072509
 30
0.0
 40
0.0590549604024992
  0
CIRCLE
  5
29A5
330
1F
100
AcDbEntity
  8
PIC01
  6
DASHED
 62
     7
100
AcDbCircle
 10
1225.336615398712
 20
992.4678410224409
 30
0.0
 40
0.0590549604024992
  0
CIRCLE
  5
29A6
330
1F
100
AcDbEntity
  8
PIC01
  6
DASHED
 62
     7
100
AcDbCircle
 10
1224.572803606949
 20
991.8470847819273
 30
0.0
 40
0.0590549604024992
  0
CIRCLE
  5
29A7
330
1F
100
AcDbEntity
  8
PIC01
  6
DASHED
 62
     7
100
AcDbCircle
 10
1223.763602672602
 20
991.2867807472956
 30
0.0
 40
0.0590549604024992
  0
CIRCLE
  5
29A8
330
1F
100
AcDbEntity
  8
PIC01
  6
DASHED
 62
     7
100
AcDbCircle
 10
1222.913786077248
 20
990.7902341556917
 30
0.0
 40
0.0590549604024992
  0
CIRCLE
  5
29A9
330
1F
100
AcDbEntity
  8
PIC01
  6
DASHED
 62
     7
100
AcDbCircle
 10
1222.028366894513
 20
990.3603741386906
 30
0.0
 40
0.0590549604024992
  0
CIRCLE
  5
29AA
330
1F
100
AcDbEntity
  8
PIC01
  6
DASHED
 62
     7
100
AcDbCircle
 10
1221.112568217916
 20
989.9997364433289
 30
0.0
 40
0.0590549604024992
  0
CIRCLE
  5
29AB
330
1F
100
AcDbEntity
  8
PIC01
  6
DASHED
 62
     7
100
AcDbCircle
 10
1220.171792349809
 20
989.7104484737189
 30
0.0
 40
0.0590549604024992
  0
CIRCLE
  5
29AC
330
1F
100
AcDbEntity
  8
PIC01
  6
DASHED
 62
     7
100
AcDbCircle
 10
1219.211588933161
 20
989.494216741475
 30
0.0
 40
0.0590549604024992
  0
CIRCLE
  5
29AD
330
1F
100
AcDbEntity
  8
PIC01
  6
DASHED
 62
     7
100
AcDbCircle
 10
1218.237622214173
 20
989.3523167989931
 30
0.0
 40
0.0590549604024992
  0
CIRCLE
  5
29AE
330
1F
100
AcDbEntity
  8
PIC01
  6
DASHED
 62
     7
100
AcDbCircle
 10
1217.255637628858
 20
989.2855857149569
 30
0.0
 40
0.0590549604024992
  0
CIRCLE
  5
29AF
330
1F
100
AcDbEntity
  8
PIC01
  6
DASHED
 62
     7
100
AcDbCircle
 10
1216.271427910675
 20
989.2944171364657
 30
0.0
 40
0.0590549604024992
  0
CIRCLE
  5
29B0
330
1F
100
AcDbEntity
  8
PIC01
  6
DASHED
 62
     7
100
AcDbCircle
 10
1215.290667204497
 20
989.3772132752058
 30
0.0
 40
0.0590549604024992
  0
CIRCLE
  5
29B1
330
1F
100
AcDbEntity
  8
PIC01
  6
DASHED
 62
     7
100
AcDbCircle
 10
1214.315343309791
 20
989.5094632800725
 30
0.0
 40
0.0590549604024992
  0
CIRCLE
  5
29B2
330
1F
100
AcDbEntity
  8
PIC01
  6
DASHED
 62
     7
100
AcDbCircle
 10
1213.338457016507
 20
989.629629553908
 30
0.0
 40
0.0590549604024992
  0
CIRCLE
  5
29B3
330
1F
100
AcDbEntity
  8
PIC01
  6
DASHED
 62
     7
100
AcDbCircle
 10
1212.360158029651
 20
989.7376936815778
 30
0.0
 40
0.0590549604024992
  0
CIRCLE
  5
29B4
330
1F
100
AcDbEntity
  8
PIC01
  6
DASHED
 62
     7
100
AcDbCircle
 10
1211.380596270718
 20
989.8336391025663
 30
0.0
 40
0.0590549604024992
  0
CIRCLE
  5
29B5
330
1F
100
AcDbEntity
  8
PIC01
  6
DASHED
 62
     7
100
AcDbCircle
 10
1210.39992185472
 20
989.9174511135148
 30
0.0
 40
0.0590549604024992
  0
CIRCLE
  5
29B6
330
1F
100
AcDbEntity
  8
PIC01
  6
DASHED
 62
     7
100
AcDbCircle
 10
1209.430262884036
 20
990.0862949583677
 30
0.0
 40
0.0590549604024992
  0
CIRCLE
  5
29B7
330
1F
100
AcDbEntity
  8
PIC01
  6
DASHED
 62
     7
100
AcDbCircle
 10
1208.613223175628
 20
990.6351053794205
 30
0.0
 40
0.0590549604024992
  0
CIRCLE
  5
29B8
330
1F
100
AcDbEntity
  8
PIC01
  6
DASHED
 62
     7
100
AcDbCircle
 10
1208.354183998109
 20
995.9926010879321
 30
0.0
 40
0.0590549604024992
  0
CIRCLE
  5
29B9
330
1F
100
AcDbEntity
  8
PIC01
  6
DASHED
 62
     7
100
AcDbCircle
 10
1208.276986747951
 20
996.9738183665919
 30
0.0
 40
0.0590549604024992
  0
CIRCLE
  5
29BA
330
1F
100
AcDbEntity
  8
PIC01
  6
DASHED
 62
     7
100
AcDbCircle
 10
1208.126006202359
 20
997.9464188180754
 30
0.0
 40
0.0590549604024992
  0
CIRCLE
  5
29BB
330
1F
100
AcDbEntity
  8
PIC01
  6
DASHED
 62
     7
100
AcDbCircle
 10
1208.008507200107
 20
998.9236295158484
 30
0.0
 40
0.0590549604024992
  0
CIRCLE
  5
29BC
330
1F
100
AcDbEntity
  8
PIC01
  6
DASHED
 62
     7
100
AcDbCircle
 10
1208.262408620806
 20
999.874566333907
 30
0.0
 40
0.0590549604024992
  0
CIRCLE
  5
29BD
330
1F
100
AcDbEntity
  8
PIC01
  6
DASHED
 62
     7
100
AcDbCircle
 10
1208.613223175628
 20
1000.365847456402
 30
0.0
 40
0.0590549604024992
  0
CIRCLE
  5
29BE
330
1F
100
AcDbEntity
  8
PIC01
  6
DASHED
 62
     7
100
AcDbCircle
 10
1209.430262884036
 20
1000.914657877455
 30
0.0
 40
0.0590549604024992
  0
CIRCLE
  5
29BF
330
1F
100
AcDbEntity
  8
PIC01
  6
DASHED
 62
     7
100
AcDbCircle
 10
1210.39992185472
 20
1001.083501722307
 30
0.0
 40
0.0590549604024992
  0
CIRCLE
  5
29C0
330
1F
100
AcDbEntity
  8
PIC01
  6
DASHED
 62
     7
100
AcDbCircle
 10
1211.380596270718
 20
1001.167313733256
 30
0.0
 40
0.0590549604024992
  0
CIRCLE
  5
29C1
330
1F
100
AcDbEntity
  8
PIC01
  6
DASHED
 62
     7
100
AcDbCircle
 10
1212.360158029651
 20
1001.263259154244
 30
0.0
 40
0.0590549604024992
  0
CIRCLE
  5
29C2
330
1F
100
AcDbEntity
  8
PIC01
  6
DASHED
 62
     7
100
AcDbCircle
 10
1213.338457016507
 20
1001.371323281914
 30
0.0
 40
0.0590549604024992
  0
CIRCLE
  5
29C3
330
1F
100
AcDbEntity
  8
PIC01
  6
DASHED
 62
     7
100
AcDbCircle
 10
1214.315343309791
 20
1001.49148955575
 30
0.0
 40
0.0590549604024992
  0
CIRCLE
  5
29C4
330
1F
100
AcDbEntity
  8
PIC01
  6
DASHED
 62
     7
100
AcDbCircle
 10
1215.290667204497
 20
1001.623739560616
 30
0.0
 40
0.0590549604024992
  0
CIRCLE
  5
29C5
330
1F
100
AcDbEntity
  8
PIC01
  6
DASHED
 62
     7
100
AcDbCircle
 10
1216.271427910675
 20
1001.706535699357
 30
0.0
 40
0.0590549604024992
  0
CIRCLE
  5
29C6
330
1F
100
AcDbEntity
  8
PIC01
  6
DASHED
 62
     7
100
AcDbCircle
 10
1217.255637628858
 20
1001.715367120865
 30
0.0
 40
0.0590549604024992
  0
CIRCLE
  5
29C7
330
1F
100
AcDbEntity
  8
PIC01
  6
DASHED
 62
     7
100
AcDbCircle
 10
1218.237622214173
 20
1001.648636036829
 30
0.0
 40
0.0590549604024992
  0
CIRCLE
  5
29C8
330
1F
100
AcDbEntity
  8
PIC01
  6
DASHED
 62
     7
100
AcDbCircle
 10
1219.211588933161
 20
1001.506736094347
 30
0.0
 40
0.0590549604024992
  0
CIRCLE
  5
29C9
330
1F
100
AcDbEntity
  8
PIC01
  6
DASHED
 62
     7
100
AcDbCircle
 10
1220.171792349809
 20
1001.290504362104
 30
0.0
 40
0.0590549604024992
  0
CIRCLE
  5
29CA
330
1F
100
AcDbEntity
  8
PIC01
  6
DASHED
 62
     7
100
AcDbCircle
 10
1221.112568217916
 20
1001.001216392493
 30
0.0
 40
0.0590549604024992
  0
CIRCLE
  5
29CB
330
1F
100
AcDbEntity
  8
PIC01
  6
DASHED
 62
     7
100
AcDbCircle
 10
1222.028366894513
 20
1000.640578697132
 30
0.0
 40
0.0590549604024992
  0
CIRCLE
  5
29CC
330
1F
100
AcDbEntity
  8
PIC01
  6
DASHED
 62
     7
100
AcDbCircle
 10
1222.913786077248
 20
1000.210718680131
 30
0.0
 40
0.0590549604024992
  0
CIRCLE
  5
29CD
330
1F
100
AcDbEntity
  8
PIC01
  6
DASHED
 62
     7
100
AcDbCircle
 10
1223.763602672602
 20
999.7141720885268
 30
0.0
 40
0.0590549604024992
  0
CIRCLE
  5
29CE
330
1F
100
AcDbEntity
  8
PIC01
  6
DASHED
 62
     7
100
AcDbCircle
 10
1224.572803606949
 20
999.1538680538951
 30
0.0
 40
0.0590549604024992
  0
CIRCLE
  5
29CF
330
1F
100
AcDbEntity
  8
PIC01
  6
DASHED
 62
     7
100
AcDbCircle
 10
1225.336615398712
 20
998.5331118133816
 30
0.0
 40
0.0590549604024992
  0
CIRCLE
  5
29D0
330
1F
100
AcDbEntity
  8
PIC01
  6
DASHED
 62
     7
100
AcDbCircle
 10
1226.005120260944
 20
997.8107213285715
 30
0.0
 40
0.0590549604024992
  0
CIRCLE
  5
29D1
330
1F
100
AcDbEntity
  8
PIC01
  6
DASHED
 62
     7
100
AcDbCircle
 10
1226.475961747858
 20
996.9463978604338
 30
0.0
 40
0.0590549604024992
  0
CIRCLE
  5
29D2
330
1F
100
AcDbEntity
  8
PIC01
  6
DASHED
 62
     7
100
AcDbCircle
 10
1226.71889894167
 20
995.9926010879321
 30
0.0
 40
0.0590549604024992
  0
ARC
  5
29D3
330
1F
100
AcDbEntity
  8
PIC01
  6
Continuous
 62
     7
100
AcDbCircle
 10
1243.017780633966
 20
952.0042223280867
 30
0.0
 40
39.76367333768274
100
AcDbArc
 50
77.30689352208975
 51
81.10188697626723
  0
LINE
  5
29D4
330
1F
100
AcDbEntity
  8
PIC01
  6
Continuous
 62
     7
100
AcDbLine
 10
1248.821294960682
 20
998.6500743060444
 30
0.0
 11
1249.469571743109
 21
998.6500743060444
 31
0.0
  0
ARC
  5
29D5
330
1F
100
AcDbEntity
  8
PIC01
  6
Continuous
 62
     7
100
AcDbCircle
 10
1248.821294960682
 20
998.846924174053
 30
0.0
 40
0.1968498680083303
100
AcDbArc
 50
176.2016234764388
 51
270.0
  0
LINE
  5
29D6
330
1F
100
AcDbEntity
  8
PIC01
  6
Continuous
 62
     7
100
AcDbLine
 10
1248.682188910802
 20
999.7231991535931
 30
0.0
 11
1248.62487750377
 21
998.8599646171138
 31
0.0
  0
LINE
  5
29D7
330
1F
100
AcDbEntity
  8
PIC01
  6
Continuous
 62
     7
100
AcDbLine
 10
1249.068758600411
 20
999.602750353628
 30
0.0
 11
1249.012831066664
 21
998.760359961013
 31
0.0
  0
ARC
  5
29D8
330
1F
100
AcDbEntity
  8
PIC01
  6
Continuous
 62
     7
100
AcDbCircle
 10
1248.894980592517
 20
998.7681842268496
 30
0.0
 40
0.1181099208049988
100
AcDbArc
 50
270.0
 51
356.2016234764388
  0
ARC
  5
29D9
330
1F
100
AcDbEntity
  8
PIC01
  6
Continuous
 62
     7
100
AcDbCircle
 10
1249.186609074558
 20
999.5949260877914
 30
0.0
 40
0.1181099208049988
100
AcDbArc
 50
98.89811302373278
 51
176.2016234764388
  0
ARC
  5
29DA
330
1F
100
AcDbEntity
  8
PIC01
  6
Continuous
 62
     7
100
AcDbCircle
 10
1249.075023824626
 20
999.6971182674711
 30
0.0
 40
0.3936997360166611
100
AcDbArc
 50
98.76204013652873
 51
176.2016234764388
  0
LINE
  5
29DB
330
1F
100
AcDbEntity
  8
PIC01
  6
Continuous
 62
     7
100
AcDbLine
 10
1249.586016367876
 20
998.7484205542303
 30
0.0
 11
1249.752197437623
 21
999.7275347443313
 31
0.0
  0
ARC
  5
29DC
330
1F
100
AcDbEntity
  8
PIC01
  6
Continuous
 62
     7
100
AcDbCircle
 10
1249.469571743109
 20
998.7681842268496
 30
0.0
 40
0.1181099208049995
100
AcDbArc
 50
270.0
 51
350.3672171724899
  0
ARC
  5
29DD
330
1F
100
AcDbEntity
  8
PIC01
  6
Continuous
 62
     7
100
AcDbCircle
 10
1249.86864206239
 20
999.7077710717119
 30
0.0
 40
0.1181099208049995
100
AcDbArc
 50
99.8912825216737
 51
170.3672171724899
  0
ARC
  5
29DE
330
1F
100
AcDbEntity
  8
PIC01
  6
Continuous
 62
     7
100
AcDbCircle
 10
1249.732189453577
 20
998.903812559657
 30
0.0
 40
0.1181099208049976
100
AcDbArc
 50
83.85388122553417
 51
170.3672171724899
  0
ARC
  5
29DF
330
1F
100
AcDbEntity
  8
PIC01
  6
Continuous
 62
     7
100
AcDbCircle
 10
1249.86864206239
 20
991.2931817641107
 30
0.0
 40
0.1181099208049995
100
AcDbArc
 50
189.6327828275101
 51
260.1087174783263
  0
ARC
  5
29E0
330
1F
100
AcDbEntity
  8
PIC01
  6
Continuous
 62
     7
100
AcDbCircle
 10
1249.186609074558
 20
991.406026748031
 30
0.0
 40
0.1181099208049988
100
AcDbArc
 50
183.7983765235612
 51
261.1018869762672
  0
ARC
  5
29E1
330
1F
100
AcDbEntity
  8
PIC01
  6
Continuous
 62
     7
100
AcDbCircle
 10
1249.075023824626
 20
991.3038345683514
 30
0.0
 40
0.3936997360166611
100
AcDbArc
 50
183.7983765235612
 51
261.2379598634713
  0
LINE
  5
29E2
330
1F
100
AcDbEntity
  8
PIC01
  6
Continuous
 62
     7
100
AcDbLine
 10
1248.821294960682
 20
998.4532244380362
 30
0.0
 11
1249.619742589646
 21
998.4532244380362
 31
0.0
  0
ARC
  5
29E3
330
1F
100
AcDbEntity
  8
PIC01
  6
Continuous
 62
     7
100
AcDbCircle
 10
1248.821294960682
 20
998.6500743060444
 30
0.0
 40
0.1968498680083303
100
AcDbArc
 50
180.0
 51
270.0
  0
LINE
  5
29E4
330
1F
100
AcDbEntity
  8
PIC01
  6
Continuous
 62
     7
100
AcDbLine
 10
1248.624445092674
 20
998.7170692441893
 30
0.0
 11
1248.0128198749
 21
998.7829311016499
 31
0.0
  0
LINE
  5
29E5
330
1F
100
AcDbEntity
  8
PIC01
  6
DASHED
 62
     7
100
AcDbLine
 10
1248.033895488649
 20
1000.88725041648
 30
0.0
 11
1248.033895488649
 21
998.8867358668963
 31
0.0
  0
ARC
  5
29E6
330
1F
100
AcDbEntity
  8
PIC01
  6
DASHED
 62
     7
100
AcDbCircle
 10
1247.915785567844
 20
1000.88725041648
 30
0.0
 40
0.1181099208049983
100
AcDbArc
 50
0.0
 51
73.39812050886483
  0
LINE
  5
29E7
330
1F
100
AcDbEntity
  8
PIC01
  6
DASHED
 62
     7
100
AcDbLine
 10
1248.033895488649
 20
990.1137024193429
 30
0.0
 11
1248.033895488649
 21
992.1142169689261
 31
0.0
  0
ARC
  5
29E8
330
1F
100
AcDbEntity
  8
PIC01
  6
DASHED
 62
     7
100
AcDbCircle
 10
1247.915785567844
 20
990.1137024193429
 30
0.0
 40
0.1181099208049983
100
AcDbArc
 50
286.6018794911351
 51
0.0
  0
ARC
  5
29E9
330
1F
100
AcDbEntity
  8
PIC01
  6
DASHED
 62
     7
100
AcDbCircle
 10
1247.994527035666
 20
989.8496010609713
 30
0.0
 40
0.1574798944066643
100
AcDbArc
 50
106.6018794911351
 51
180.0
  0
ARC
  5
29EA
330
1F
100
AcDbEntity
  8
PIC01
  6
DASHED
 62
     7
100
AcDbCircle
 10
1301.43748148308
 20
984.1487236821514
 30
0.0
 40
52.87387454703756
100
AcDbArc
 50
169.8739552132325
 51
170.6051268225709
  0
ARC
  5
29EB
330
1F
100
AcDbEntity
  8
PIC01
  6
Continuous
 62
     7
100
AcDbCircle
 10
1301.43748148308
 20
984.1487236821514
 30
0.0
 40
52.87387454703756
100
AcDbArc
 50
169.8739552132325
 51
170.7415328285867
  0
ARC
  5
29EC
330
1F
100
AcDbEntity
  8
PIC01
  6
DASHED
 62
     7
100
AcDbCircle
 10
1252.283268678629
 20
992.1614527205626
 30
0.0
 40
3.070857940929953
100
AcDbArc
 50
176.5208787569236
 51
211.6161036567086
  0
ARC
  5
29ED
330
1F
100
AcDbEntity
  8
PIC01
  6
DASHED
 62
     7
100
AcDbCircle
 10
1252.283268678629
 20
992.1614527205626
 30
0.0
 40
2.755898152116623
100
AcDbArc
 50
175.4084839167845
 51
265.7118816321387
  0
ARC
  5
29EE
330
1F
100
AcDbEntity
  8
PIC01
  6
Continuous
 62
     7
100
AcDbCircle
 10
1248.821294960682
 20
992.1540286617696
 30
0.0
 40
0.1968498680083303
100
AcDbArc
 50
90.0
 51
183.7983765235612
  0
ARC
  5
29EF
330
1F
100
AcDbEntity
  8
PIC01
  6
Continuous
 62
     7
100
AcDbCircle
 10
1248.894980592517
 20
992.232768608973
 30
0.0
 40
0.1181099208049988
100
AcDbArc
 50
3.798376523561213
 51
90.0
  0
LINE
  5
29F0
330
1F
100
AcDbEntity
  8
PIC01
  6
Continuous
 62
     7
100
AcDbLine
 10
1249.068758600411
 20
991.3982024821946
 30
0.0
 11
1249.012831066664
 21
992.2405928748096
 31
0.0
  0
LINE
  5
29F1
330
1F
100
AcDbEntity
  8
PIC01
  6
Continuous
 62
     7
100
AcDbLine
 10
1248.682188910802
 20
991.2777536822295
 30
0.0
 11
1248.62487750377
 21
992.1409882187086
 31
0.0
  0
ARC
  5
29F2
330
1F
100
AcDbEntity
  8
PIC01
  6
Continuous
 62
     7
100
AcDbCircle
 10
1249.469571743109
 20
992.232768608973
 30
0.0
 40
0.1181099208049995
100
AcDbArc
 50
9.632782827510125
 51
90.0
  0
LINE
  5
29F3
330
1F
100
AcDbEntity
  8
PIC01
  6
Continuous
 62
     7
100
AcDbLine
 10
1249.586016367876
 20
992.2525322815923
 30
0.0
 11
1249.752197437623
 21
991.2734180914913
 31
0.0
  0
LINE
  5
29F4
330
1F
100
AcDbEntity
  8
PIC01
  6
Continuous
 62
     7
100
AcDbLine
 10
1249.723226511293
 20
991.9773823854088
 30
0.0
 11
1258.05773873132
 21
992.8748706509145
 31
0.0
  0
ARC
  5
29F5
330
1F
100
AcDbEntity
  8
PIC01
  6
Continuous
 62
     7
100
AcDbCircle
 10
1249.732189453577
 20
992.0971402761654
 30
0.0
 40
0.1181099208049976
100
AcDbArc
 50
189.6327828275101
 51
276.1461187744658
  0
LINE
  5
29F6
330
1F
100
AcDbEntity
  8
PIC01
  6
Continuous
 62
     7
100
AcDbLine
 10
1248.821294960682
 20
992.350878529778
 30
0.0
 11
1249.469571743109
 21
992.350878529778
 31
0.0
  0
ARC
  5
29F7
330
1F
100
AcDbEntity
  8
PIC01
  6
Continuous
 62
     7
100
AcDbCircle
 10
1252.283268678629
 20
992.1614527205626
 30
0.0
 40
3.07085794092995
100
AcDbArc
 50
170.7415325065053
 51
172.7737623047591
  0
ARC
  5
29F8
330
1F
100
AcDbEntity
  8
PIC01
  6
Continuous
 62
     7
100
AcDbCircle
 10
1301.43748148308
 20
984.1487236821514
 30
0.0
 40
52.55891475822426
100
AcDbArc
 50
169.8049963246093
 51
170.7415329548663
  0
ARC
  5
29F9
330
1F
100
AcDbEntity
  8
PIC01
  6
Continuous
 62
     7
100
AcDbCircle
 10
1252.283268678629
 20
992.1614527205626
 30
0.0
 40
2.755898152116627
100
AcDbArc
 50
170.7415325065053
 51
171.9427063254697
  0
ARC
  5
29FA
330
1F
100
AcDbEntity
  8
PIC01
  6
Continuous
 62
     7
100
AcDbCircle
 10
1248.821294960682
 20
992.350878529778
 30
0.0
 40
0.1968498680083303
100
AcDbArc
 50
90.0
 51
180.0
  0
LINE
  5
29FB
330
1F
100
AcDbEntity
  8
PIC01
  6
Continuous
 62
     7
100
AcDbLine
 10
1248.624445092674
 20
992.2838835916332
 30
0.0
 11
1248.0128198749
 21
992.2180217341725
 31
0.0
  0
LINE
  5
29FC
330
1F
100
AcDbEntity
  8
PIC01
  6
Continuous
 62
     7
100
AcDbLine
 10
1248.624445092674
 20
992.1540286617696
 30
0.0
 11
1248.624445092674
 21
992.350878529778
 31
0.0
  0
ARC
  5
29FD
330
1F
100
AcDbEntity
  8
PIC01
  6
Continuous
 62
     7
100
AcDbCircle
 10
1257.230022078289
 20
992.2709708408719
 30
0.0
 40
0.5118096568216606
100
AcDbArc
 50
10.00016917351115
 51
96.14611877446584
  0
ARC
  5
29FE
330
1F
100
AcDbEntity
  8
PIC01
  6
Continuous
 62
     7
100
AcDbCircle
 10
1258.260943902832
 20
992.3191135670807
 30
0.0
 40
0.5118096568216606
100
AcDbArc
 50
190.0001691735111
 51
276.5069990789525
  0
ARC
  5
29FF
330
1F
100
AcDbEntity
  8
PIC01
  6
Continuous
 62
     7
100
AcDbCircle
 10
1257.230022078289
 20
992.2709708408719
 30
0.0
 40
0.1181099208049997
100
AcDbArc
 50
10.00016917351115
 51
96.14611877446584
  0
ARC
  5
2A00
330
1F
100
AcDbEntity
  8
PIC01
  6
Continuous
 62
     7
100
AcDbCircle
 10
1258.260943902832
 20
992.3191135670807
 30
0.0
 40
0.9055093928383213
100
AcDbArc
 50
190.0001691735111
 51
276.5069990789525
  0
LINE
  5
2A01
330
1F
100
AcDbEntity
  8
PIC01
  6
Continuous
 62
     7
100
AcDbLine
 10
1257.346337583447
 20
992.2914807568215
 30
0.0
 11
1257.369191696615
 21
992.1618708781346
 31
0.0
  0
LINE
  5
2A02
330
1F
100
AcDbEntity
  8
PIC01
  6
Continuous
 62
     7
100
AcDbLine
 10
1256.498434302305
 20
990.4108887211558
 30
0.0
 11
1256.301584434297
 21
992.289786288442
 31
0.0
  0
LINE
  5
2A03
330
1F
100
AcDbEntity
  8
PIC01
  6
Continuous
 62
     7
100
AcDbLine
 10
1258.487608309346
 20
992.5518002530401
 30
0.0
 11
1258.547252347335
 21
992.2135479449618
 31
0.0
  0
ARC
  5
2A04
330
1F
100
AcDbEntity
  8
PIC01
  6
Continuous
 62
     7
100
AcDbCircle
 10
1258.0883907521
 20
992.7090293876927
 30
0.0
 40
0.5905496040249901
100
AcDbArc
 50
26.49458049652299
 51
96.14611877446584
  0
ARC
  5
2A05
330
1F
100
AcDbEntity
  8
PIC01
  6
Continuous
 62
     7
100
AcDbCircle
 10
1258.793094825003
 20
993.0602986550539
 30
0.0
 40
0.1968498680083338
100
AcDbArc
 50
206.494580496523
 51
278.1131145651162
  0
ARC
  5
2A06
330
1F
100
AcDbEntity
  8
PIC01
  6
Continuous
 62
     7
100
AcDbCircle
 10
1258.099889958817
 20
992.4834338665416
 30
0.0
 40
0.393699736016662
100
AcDbArc
 50
10.00016917351115
 51
96.14611877446584
  0
ARC
  5
2A07
330
1F
100
AcDbEntity
  8
PIC01
  6
Continuous
 62
     7
100
AcDbCircle
 10
1258.934970697864
 20
992.2819143314599
 30
0.0
 40
0.393699736016662
100
AcDbArc
 50
190.0001691735111
 51
277.3277630338134
  0
ARC
  5
2A08
330
1F
100
AcDbEntity
  8
PIC01
  6
Continuous
 62
     7
100
AcDbCircle
 10
1257.230022078289
 20
998.7299819949505
 30
0.0
 40
0.5118096568216606
100
AcDbArc
 50
263.8538812255342
 51
349.9998308264888
  0
LINE
  5
2A09
330
1F
100
AcDbEntity
  8
PIC01
  6
Continuous
 62
     7
100
AcDbLine
 10
1257.734055933976
 20
998.6411056925026
 30
0.0
 11
1257.756910047144
 21
998.7707155711897
 31
0.0
  0
ARC
  5
2A0A
330
1F
100
AcDbEntity
  8
PIC01
  6
Continuous
 62
     7
100
AcDbCircle
 10
1253.009657291196
 20
952.6418917790673
 30
0.0
 40
46.85026858598265
100
AcDbArc
 50
75.68699561417144
 51
83.49300092104753
  0
ARC
  5
2A0B
330
1F
100
AcDbEntity
  8
PIC01
  6
Continuous
 62
     7
100
AcDbCircle
 10
1258.260943902832
 20
998.6818392687418
 30
0.0
 40
0.5118096568216606
100
AcDbArc
 50
83.49300092104753
 51
169.9998308264888
  0
ARC
  5
2A0C
330
1F
100
AcDbEntity
  8
PIC01
  6
Continuous
 62
     7
100
AcDbCircle
 10
1257.230022078289
 20
998.7299819949505
 30
0.0
 40
0.1181099208049997
100
AcDbArc
 50
263.8538812255342
 51
349.9998308264888
  0
ARC
  5
2A0D
330
1F
100
AcDbEntity
  8
PIC01
  6
Continuous
 62
     7
100
AcDbCircle
 10
1258.260943902832
 20
998.6818392687418
 30
0.0
 40
0.9055093928383213
100
AcDbArc
 50
83.49300092104753
 51
169.9998308264888
  0
LINE
  5
2A0E
330
1F
100
AcDbEntity
  8
PIC01
  6
Continuous
 62
     7
100
AcDbLine
 10
1257.346337583447
 20
998.7094720790011
 30
0.0
 11
1257.369191696615
 21
998.8390819576878
 31
0.0
  0
LINE
  5
2A0F
330
1F
100
AcDbEntity
  8
PIC01
  6
Continuous
 62
     7
100
AcDbLine
 10
1257.21737671004
 20
998.6125509596387
 30
0.0
 11
1252.661271549173
 21
999.1031676640528
 31
0.0
  0
LINE
  5
2A10
330
1F
100
AcDbEntity
  8
PIC01
  6
Continuous
 62
     7
100
AcDbLine
 10
1258.025163910855
 20
997.7047682715706
 30
0.0
 11
1250.06499770143
 21
998.5619457014946
 31
0.0
  0
ARC
  5
2A11
330
1F
100
AcDbEntity
  8
PIC01
  6
Continuous
 62
     7
100
AcDbCircle
 10
1258.0883907521
 20
998.2919234481297
 30
0.0
 40
0.5905496040249901
100
AcDbArc
 50
263.8538812255342
 51
333.505419503477
  0
ARC
  5
2A12
330
1F
100
AcDbEntity
  8
PIC01
  6
Continuous
 62
     7
100
AcDbCircle
 10
1252.431246717867
 20
953.3132091566328
 30
0.0
 40
45.275469641916
100
AcDbArc
 50
75.77280038329373
 51
81.88688543488382
  0
ARC
  5
2A13
330
1F
100
AcDbEntity
  8
PIC01
  6
Continuous
 62
     7
100
AcDbCircle
 10
1258.793094825003
 20
997.9406541807687
 30
0.0
 40
0.1968498680083338
100
AcDbArc
 50
81.88688543488382
 51
153.505419503477
  0
LINE
  5
2A14
330
1F
100
AcDbEntity
  8
PIC01
  6
Continuous
 62
     7
100
AcDbLine
 10
1249.723226511293
 20
999.0235704504138
 30
0.0
 11
1258.05773873132
 21
998.1260821849081
 31
0.0
  0
ARC
  5
2A15
330
1F
100
AcDbEntity
  8
PIC01
  6
Continuous
 62
     7
100
AcDbCircle
 10
1258.099889958817
 20
998.5175189692808
 30
0.0
 40
0.393699736016662
100
AcDbArc
 50
263.8538812255342
 51
349.9998308264888
  0
LINE
  5
2A16
330
1F
100
AcDbEntity
  8
PIC01
  6
Continuous
 62
     7
100
AcDbLine
 10
1258.487608309346
 20
998.4491525827825
 30
0.0
 11
1258.547252347335
 21
998.7874048908608
 31
0.0
  0
ARC
  5
2A17
330
1F
100
AcDbEntity
  8
PIC01
  6
Continuous
 62
     7
100
AcDbCircle
 10
1258.934970697864
 20
998.7190385043625
 30
0.0
 40
0.393699736016662
100
AcDbArc
 50
82.67223696618664
 51
169.9998308264888
  0
LINE
  5
2A18
330
1F
100
AcDbEntity
  8
PIC01
  6
Continuous
 62
     7
100
AcDbLine
 10
1256.498434302305
 20
1000.590064114667
 30
0.0
 11
1256.301584434297
 21
998.7111665473806
 31
0.0
  0
LINE
  5
2A19
330
1F
100
AcDbEntity
  8
PIC01
  6
Continuous
 62
     7
100
AcDbLine
 10
1248.624445092674
 20
998.6500743060444
 30
0.0
 11
1248.624445092674
 21
998.846924174053
 31
0.0
  0
LINE
  5
2A1A
330
1F
100
AcDbEntity
  8
PIC01
  6
Continuous
 62
     7
100
AcDbLine
 10
1222.539140052341
 20
962.4708085269022
 30
0.0
 11
1223.04933483127
 21
962.4708079519102
 31
0.0
  0
LINE
  5
2A1B
330
1F
100
AcDbEntity
  8
PIC01
  6
Continuous
 62
     7
100
AcDbLine
 10
1223.04933483127
 20
962.4708079519102
 30
0.0
 11
1223.510460808139
 21
962.4708074322189
 31
0.0
  0
LINE
  5
2A1C
330
1F
100
AcDbEntity
  8
PIC01
  6
Continuous
 62
     7
100
AcDbLine
 10
1223.510460808139
 20
962.4708074322189
 30
0.0
 11
1224.132966949799
 21
962.4708067306512
 31
0.0
  0
ARC
  5
2A1D
330
1F
100
AcDbEntity
  8
PIC01
  6
DASHED
 62
     7
100
AcDbCircle
 10
1205.863836094993
 20
999.3894177635295
 30
0.0
 40
0.1181099208049983
100
AcDbArc
 50
292.0274405282362
 51
0.0
  0
LINE
  5
2A1E
330
1F
100
AcDbEntity
  8
PIC01
  6
DASHED
 62
     7
100
AcDbLine
 10
1205.981946015798
 20
1000.88725041648
 30
0.0
 11
1205.981946015798
 21
999.3894177635295
 31
0.0
  0
ARC
  5
2A1F
330
1F
100
AcDbEntity
  8
PIC01
  6
DASHED
 62
     7
100
AcDbCircle
 10
1205.863836094993
 20
1000.88725041648
 30
0.0
 40
0.1181099208049983
100
AcDbArc
 50
0.0
 51
73.39812050886483
  0
ARC
  5
2A20
330
1F
100
AcDbEntity
  8
PIC01
  6
DASHED
 62
     7
100
AcDbCircle
 10
1205.942577562815
 20
1001.151351774851
 30
0.0
 40
0.1574798944066643
100
AcDbArc
 50
180.0
 51
253.3981205088648
  0
LINE
  5
2A21
330
1F
100
AcDbEntity
  8
PIC01
  6
DASHED
 62
     7
100
AcDbLine
 10
1205.981946015798
 20
990.1137024193429
 30
0.0
 11
1205.981946015798
 21
991.6115350722929
 31
0.0
  0
ARC
  5
2A22
330
1F
100
AcDbEntity
  8
PIC01
  6
DASHED
 62
     7
100
AcDbCircle
 10
1205.863836094993
 20
990.1137024193429
 30
0.0
 40
0.1181099208049983
100
AcDbArc
 50
286.6018794911351
 51
0.0
  0
ARC
  5
2A23
330
1F
100
AcDbEntity
  8
PIC01
  6
DASHED
 62
     7
100
AcDbCircle
 10
1205.942577562815
 20
989.8496010609713
 30
0.0
 40
0.1574798944066643
100
AcDbArc
 50
106.6018794911351
 51
180.0
  0
ARC
  5
2A24
330
1F
100
AcDbEntity
  8
PIC01
  6
DASHED
 62
     7
100
AcDbCircle
 10
1205.863836094993
 20
991.6115350722929
 30
0.0
 40
0.1181099208049983
100
AcDbArc
 50
0.0
 51
67.97568716297579
  0
LINE
  5
2A25
330
1F
100
AcDbEntity
  8
PIC01
  6
DASHED
 62
     7
100
AcDbLine
 10
1206.769345487832
 20
998.4532244380362
 30
0.0
 11
1207.502044845728
 21
998.4532244380362
 31
0.0
  0
ARC
  5
2A26
330
1F
100
AcDbEntity
  8
PIC01
  6
DASHED
 62
     7
100
AcDbCircle
 10
1206.769345487832
 20
998.6500743060444
 30
0.0
 40
0.1968498680083303
100
AcDbArc
 50
180.0
 51
270.0
  0
LINE
  5
2A27
330
1F
100
AcDbEntity
  8
PIC01
  6
DASHED
 62
     7
100
AcDbLine
 10
1206.572495619824
 20
998.7170692441893
 30
0.0
 11
1205.96087040205
 21
998.7829311016499
 31
0.0
  0
ARC
  5
2A28
330
1F
100
AcDbEntity
  8
PIC01
  6
DASHED
 62
     7
100
AcDbCircle
 10
1205.981946015798
 20
998.9786494938362
 30
0.0
 40
0.19684986800833
100
AcDbArc
 50
180.0
 51
263.8538812255342
  0
ARC
  5
2A29
330
1F
100
AcDbEntity
  8
PIC01
  6
DASHED
 62
     7
100
AcDbCircle
 10
1205.981961954132
 20
999.0974486727475
 30
0.0
 40
0.1968498680083303
100
AcDbArc
 50
112.0274405282362
 51
180.0
  0
LINE
  5
2A2A
330
1F
100
AcDbEntity
  8
PIC01
  6
DASHED
 62
     7
100
AcDbLine
 10
1206.769345487832
 20
992.5477283977864
 30
0.0
 11
1207.502044845728
 21
992.5477283977864
 31
0.0
  0
ARC
  5
2A2B
330
1F
100
AcDbEntity
  8
PIC01
  6
DASHED
 62
     7
100
AcDbCircle
 10
1206.769345487832
 20
992.350878529778
 30
0.0
 40
0.1968498680083303
100
AcDbArc
 50
90.0
 51
180.0
  0
LINE
  5
2A2C
330
1F
100
AcDbEntity
  8
PIC01
  6
DASHED
 62
     7
100
AcDbLine
 10
1206.572495619824
 20
992.2838835916332
 30
0.0
 11
1205.96087040205
 21
992.2180217341725
 31
0.0
  0
ARC
  5
2A2D
330
1F
100
AcDbEntity
  8
PIC01
  6
DASHED
 62
     7
100
AcDbCircle
 10
1205.981946015798
 20
992.0223033419862
 30
0.0
 40
0.19684986800833
100
AcDbArc
 50
96.14611877446584
 51
180.0
  0
ARC
  5
2A2E
330
1F
100
AcDbEntity
  8
PIC01
  6
DASHED
 62
     7
100
AcDbCircle
 10
1205.981961954132
 20
991.9035041630751
 30
0.0
 40
0.1968498680083303
100
AcDbArc
 50
180.0
 51
247.9725594717637
  0
LINE
  5
2A2F
330
1F
100
AcDbEntity
  8
PIC01
  6
DASHED
 62
     7
100
AcDbLine
 10
1205.785112086124
 20
991.9035041630751
 30
0.0
 11
1205.78509614779
 21
992.0223033419862
 31
0.0
  0
LINE
  5
2A30
330
1F
100
AcDbEntity
  8
PIC01
  6
DASHED
 62
     7
100
AcDbLine
 10
1215.567972684731
 20
968.7821855329563
 30
0.0
 11
1215.196997617062
 21
964.5419211064751
 31
0.0
  0
ARC
  5
2A31
330
1F
100
AcDbEntity
  8
PIC01
  6
DASHED
 62
     7
100
AcDbCircle
 10
1215.000896822232
 20
964.5590777029312
 30
0.0
 40
0.1968498680083303
100
AcDbArc
 50
282.9217290971491
 51
355.0000000000263
  0
ARC
  5
2A32
330
1F
100
AcDbEntity
  8
PIC01
  6
DASHED
 62
     7
100
AcDbCircle
 10
1215.254211413003
 20
968.809636087286
 30
0.0
 40
0.3149597888133291
100
AcDbArc
 50
355.0000000000263
 51
82.87481661340835
  0
LINE
  5
2A33
330
1F
100
AcDbEntity
  8
PIC01
  6
DASHED
 62
     7
100
AcDbLine
 10
1215.705444328002
 20
968.7650011705061
 30
0.0
 11
1215.335826372645
 21
964.5402486087375
 31
0.0
  0
ARC
  5
2A34
330
1F
100
AcDbEntity
  8
PIC01
  6
DASHED
 62
     7
100
AcDbCircle
 10
1215.139725577816
 20
964.5574052051935
 30
0.0
 40
0.1968498680083303
100
AcDbArc
 50
270.0
 51
355.0000000000263
  0
ARC
  5
2A35
330
1F
100
AcDbEntity
  8
PIC01
  6
DASHED
 62
     7
100
AcDbCircle
 10
1215.391683056274
 20
968.7924517248358
 30
0.0
 40
0.3149597888133273
100
AcDbArc
 50
355.0000000000263
 51
82.87481661340835
  0
LINE
  5
2A36
330
1F
100
AcDbEntity
  8
PIC01
  6
DASHED
 62
     7
100
AcDbLine
 10
1215.699803326583
 20
963.6228197966271
 30
0.0
 11
1215.6084487697
 21
962.5786324333617
 31
0.0
  0
LINE
  5
2A37
330
1F
100
AcDbEntity
  8
PIC01
  6
DASHED
 62
     7
100
AcDbLine
 10
1215.817463803481
 20
963.7306357595585
 30
0.0
 11
1216.263515359793
 21
963.7306357595585
 31
0.0
  0
ARC
  5
2A38
330
1F
100
AcDbEntity
  8
PIC01
  6
DASHED
 62
     7
100
AcDbCircle
 10
1215.817463803481
 20
963.6125258387535
 30
0.0
 40
0.1181099208049972
100
AcDbArc
 50
90.0
 51
175.0000000000262
  0
LINE
  5
2A39
330
1F
100
AcDbEntity
  8
PIC01
  6
DASHED
 62
     7
100
AcDbLine
 10
1216.472530404245
 20
964.8826392077285
 30
0.0
 11
1216.381175836691
 21
963.8384517224899
 31
0.0
  0
ARC
  5
2A3A
330
1F
100
AcDbEntity
  8
PIC01
  6
DASHED
 62
     7
100
AcDbCircle
 10
1216.263515359793
 20
963.8487456803636
 30
0.0
 40
0.1181099208049974
100
AcDbArc
 50
270.0
 51
355.0000000000263
  0
ARC
  5
2A3B
330
1F
100
AcDbEntity
  8
PIC01
  6
DASHED
 62
     7
100
AcDbCircle
 10
1215.490788292802
 20
962.5889263912354
 30
0.0
 40
0.1181099208049974
100
AcDbArc
 50
269.9999354273578
 51
355.0000000000263
  0
LINE
  5
2A3C
330
1F
100
AcDbEntity
  8
PIC01
  6
Continuous
 62
     7
100
AcDbLine
 10
1207.519424059553
 20
962.4293315438556
 30
0.0
 11
1207.714224854272
 21
969.714882455306
 31
0.0
  0
ARC
  5
2A3D
330
1F
100
AcDbEntity
  8
PIC01
  6
Continuous
 62
     7
100
AcDbCircle
 10
1207.648159208105
 20
962.8251363991841
 30
0.0
 40
0.1181099208049983
100
AcDbArc
 50
90.0
 51
178.4683924578328
  0
ARC
  5
2A3E
330
1F
100
AcDbEntity
  8
PIC01
  6
Continuous
 62
     7
100
AcDbCircle
 10
1207.440712243597
 20
962.4314361375216
 30
0.0
 40
0.0787399472033311
100
AcDbArc
 50
270.0
 51
358.4683924578328
  0
LINE
  5
2A3F
330
1F
100
AcDbEntity
  8
PIC01
  6
DASHED
 62
     7
100
AcDbLine
 10
1207.025249433909
 20
962.4708061111233
 30
0.0
 11
1207.064620289844
 21
962.4708061111233
 31
0.0
  0
ARC
  5
2A40
330
1F
100
AcDbEntity
  8
PIC01
  6
DASHED
 62
     7
100
AcDbCircle
 10
1207.064620289844
 20
962.4117511507208
 30
0.0
 40
0.0590549604024992
100
AcDbArc
 50
0.0
 51
90.0
  0
ARC
  5
2A41
330
1F
100
AcDbEntity
  8
PIC01
  6
DASHED
 62
     7
100
AcDbCircle
 10
1207.025249433909
 20
962.4117511507208
 30
0.0
 40
0.0590549604024992
100
AcDbArc
 50
90.0
 51
180.0
  0
ARC
  5
2A42
330
1F
100
AcDbEntity
  8
PIC01
  6
DASHED
 62
     7
100
AcDbCircle
 10
1206.907139513103
 20
962.4117511507208
 30
0.0
 40
0.0590549604024992
100
AcDbArc
 50
270.0
 51
0.0
  0
ARC
  5
2A43
330
1F
100
AcDbEntity
  8
PIC01
  6
DASHED
 62
     7
100
AcDbCircle
 10
1207.182730210649
 20
962.4117511507208
 30
0.0
 40
0.0590549604024992
100
AcDbArc
 50
180.0
 51
270.0
  0
LINE
  5
2A44
330
1F
100
AcDbEntity
  8
PIC01
  6
Continuous
 62
     7
100
AcDbLine
 10
1249.818838742979
 20
998.5072769984904
 30
0.0
 11
1249.8237503206
 21
998.5101560926844
 31
0.0
  0
ARC
  5
2A45
330
1F
100
AcDbEntity
  8
PIC01
  6
Continuous
 62
     7
100
AcDbCircle
 10
1249.619742589646
 20
998.846924174053
 30
0.0
 40
0.3936997360166605
100
AcDbArc
 50
270.0
 51
300.3782015403853
  0
ARC
  5
2A46
330
1F
100
AcDbEntity
  8
PIC01
  6
Continuous
 62
     7
100
AcDbCircle
 10
1250.022846473934
 20
998.1705089171219
 30
0.0
 40
0.3936997360166605
100
AcDbArc
 50
83.85388122553417
 51
120.3782015403853
  0
LINE
  5
2A47
330
1F
100
AcDbEntity
  8
PIC01
  6
Continuous
 62
     7
100
AcDbLine
 10
1258.025163910855
 20
993.296184564252
 30
0.0
 11
1250.06499770143
 21
992.4390071343278
 31
0.0
  0
ARC
  5
2A48
330
1F
100
AcDbEntity
  8
PIC01
  6
Continuous
 62
     7
100
AcDbCircle
 10
1250.022846473934
 20
992.8304439187007
 30
0.0
 40
0.3936997360166605
100
AcDbArc
 50
239.6217984596147
 51
276.1461187744658
  0
ARC
  5
2A49
330
1F
100
AcDbEntity
  8
PIC01
  6
Continuous
 62
     7
100
AcDbCircle
 10
1249.619742589646
 20
992.1540286617696
 30
0.0
 40
0.3936997360166605
100
AcDbArc
 50
59.62179845961467
 51
90.0
  0
LINE
  5
2A4A
330
1F
100
AcDbEntity
  8
PIC01
  6
Continuous
 62
     7
100
AcDbLine
 10
1248.821294960682
 20
992.5477283977864
 30
0.0
 11
1249.619742589646
 21
992.5477283977864
 31
0.0
  0
ARC
  5
2A4B
330
1F
100
AcDbEntity
  8
PIC01
  6
Continuous
 62
     7
100
AcDbCircle
 10
1249.630920264009
 20
993.4655314800233
 30
0.0
 40
0.0787399472033343
100
AcDbArc
 50
349.8049963246637
 51
81.79689831061478
  0
LINE
  5
2A4C
330
1F
100
AcDbEntity
  8
PIC01
  6
Continuous
 62
     7
100
AcDbLine
 10
1204.05283324765
 20
976.919587624411
 30
0.0
 11
1204.05283324765
 21
977.3132873604277
 31
0.0
  0
LINE
  5
2A4D
330
1F
100
AcDbEntity
  8
PIC01
  6
Continuous
 62
     7
100
AcDbLine
 10
1202.950473986803
 20
976.919587624411
 30
0.0
 11
1202.950473986803
 21
977.3132873604277
 31
0.0
  0
ARC
  5
2A4E
330
1F
100
AcDbEntity
  8
PIC01
  6
Continuous
 62
     7
100
AcDbCircle
 10
1204.120054511317
 20
910.6581833063209
 30
0.0
 40
81.29899548744047
100
AcDbArc
 50
85.84106673943178
 51
86.71179516849537
  0
CIRCLE
  5
2A4F
330
1F
100
AcDbEntity
  8
PIC01
  6
Continuous
 62
     7
100
AcDbCircle
 10
1265.750378719027
 20
995.5004764179113
 30
0.0
 40
0.2755898152116627
  0
LINE
  5
2A50
330
1F
100
AcDbEntity
  8
PIC01
  6
CENTER
 62
     7
100
AcDbLine
 10
1265.750378719027
 20
995.005151329113
 30
0.0
 11
1265.750378719027
 21
995.9668394025614
 31
0.0
  0
LINE
  5
2A51
330
1F
100
AcDbEntity
  8
PIC01
  6
Continuous
 62
     7
100
AcDbLine
 10
1223.974019061389
 20
962.4708069097863
 30
0.0
 11
1223.974019061389
 21
962.6282866267125
 31
0.0
  0
LINE
  5
2A52
330
1F
100
AcDbEntity
  8
PIC01
  6
Continuous
 62
     7
100
AcDbLine
 10
1223.422839430965
 20
962.4708075309685
 30
0.0
 11
1223.422839430965
 21
962.6282876028559
 31
0.0
  0
ARC
  5
2A53
330
1F
100
AcDbEntity
  8
PIC01
  6
Continuous
 62
     7
100
AcDbCircle
 10
1224.131498955795
 20
962.6282866267125
 30
0.0
 40
0.1574798944066643
100
AcDbArc
 50
89.99993542735772
 51
180.0
  0
ARC
  5
2A54
330
1F
100
AcDbEntity
  8
PIC01
  6
Continuous
 62
     7
100
AcDbCircle
 10
1223.265359536559
 20
962.6282876028559
 30
0.0
 40
0.1574798944066643
100
AcDbArc
 50
0.0
 51
89.99993542735772
  0
LINE
  5
2A55
330
1F
100
AcDbEntity
  8
PIC01
  6
Continuous
 62
     7
100
AcDbLine
 10
1224.131499133276
 20
962.7857665211191
 30
0.0
 11
1223.265359714039
 21
962.7857674972625
 31
0.0
  0
LINE
  5
2A56
330
1F
100
AcDbEntity
  8
PIC01
  6
CENTER
 62
     7
100
AcDbLine
 10
1223.698429246177
 20
962.3089744486879
 30
0.0
 11
1223.698429246177
 21
962.8029576001749
 31
0.0
  0
LINE
  5
2A57
330
1F
100
AcDbEntity
  8
PIC01
  6
Continuous
 62
     7
100
AcDbLine
 10
1205.981946015798
 20
970.2266909106516
 30
0.0
 11
1205.981946015798
 21
975.8039307760073
 31
0.0
  0
ARC
  5
2A58
330
1F
100
AcDbEntity
  8
PIC01
  6
Continuous
 62
     7
100
AcDbCircle
 10
1206.178795883807
 20
970.2266909106516
 30
0.0
 40
0.1968498680083303
100
AcDbArc
 50
180.0
 51
270.0
  0
ARC
  5
2A59
330
1F
100
AcDbEntity
  8
PIC01
  6
DASHED
 62
     7
100
AcDbCircle
 10
1248.152005409454
 20
998.8867358668963
 30
0.0
 40
0.1181099208049983
100
AcDbArc
 50
180.0
 51
263.8538812255342
  0
ARC
  5
2A5A
330
1F
100
AcDbEntity
  8
PIC01
  6
DASHED
 62
     7
100
AcDbCircle
 10
1248.152005409454
 20
992.1142169689261
 30
0.0
 40
0.1181099208049983
100
AcDbArc
 50
96.14611877446584
 51
180.0
  0
VIEWPORT
  5
220
102
{ACAD_XDICTIONARY
360
2B3C
102
}
330
58
100
AcDbEntity
 67
     1
  8
0
100
AcDbViewport
 10
133.1884465048756
 20
109.1175889154594
 30
0.0
 40
445.141553439829
 41
249.3387543209733
 68
     1
 69
     1
 12
133.1884465048756
 22
109.1175889154594
 13
0.0
 23
0.0
 14
0.5
 24
0.5
 15
0.5
 25
0.5
 16
0.0
 26
0.0
 36
1.0
 17
0.0
 27
0.0
 37
0.0
 42
50.0
 43
0.0
 44
0.0
 45
249.3387543209733
 50
0.0
 51
0.0
 72
  1000
 90
    32800
  1

281
     0
 71
     1
 74
     0
110
0.0
120
0.0
130
0.0
111
1.0
121
0.0
131
0.0
112
0.0
122
1.0
132
0.0
 79
     0
146
0.0
  0
ENDSEC
  0
SECTION
  2
OBJECTS
  0
DICTIONARY
  5
C
330
0
100
AcDbDictionary
281
     1
  3
ACAD_2007HEADERVARS_RT
350
2B36
  3
ACAD_CIP_PREVIOUS_PRODUCT_INFO
350
2B25
  3
ACAD_COLOR
350
73
  3
ACAD_GROUP
350
D
  3
ACAD_LAYOUT
350
1A
  3
ACAD_MATERIAL
350
72
  3
ACAD_MLEADERSTYLE
350
2B21
  3
ACAD_MLINESTYLE
350
17
  3
ACAD_PLOTSETTINGS
350
19
  3
ACAD_PLOTSTYLENAME
350
E
  3
ACAD_SCALELIST
350
2B0F
  3
ACAD_TABLESTYLE
350
86
  3
ACAD_VISUALSTYLE
350
2AF6
  3
ACDB_RECOMPOSE_DATA
350
2B34
  3
AcDbVariableDictionary
350
66
  3
ASE_INDEX_DICTIONARY
350
432
  3
DWGPROPS
350
2B35
  0
DICTIONARY
  5
1D0
330
2
100
AcDbDictionary
280
     1
281
     1
  3
ACAD_LAYERSTATES
360
1D1
  0
DICTIONARY
  5
2B26
330
10
100
AcDbDictionary
280
     1
281
     1
  3
ADSK_XREC_LAYER_RECONCILED
360
2B27
  0
DICTIONARY
  5
2B28
330
240B
100
AcDbDictionary
280
     1
281
     1
  3
ADSK_XREC_LAYER_RECONCILED
360
2B29
  0
DICTIONARY
  5
2B3C
330
220
100
AcDbDictionary
280
     1
281
     1
  3
ACAD_XREC_ROUNDTRIP
360
2B3D
  0
DICTIONARY
  5
2B36
102
{ACAD_REACTORS
330
C
102
}
330
C
100
AcDbDictionary
281
     1
  3
DIMFXL
350
2B37
  0
XRECORD
  5
2B25
102
{ACAD_REACTORS
330
C
102
}
330
C
100
AcDbXrecord
280
     1
300
ACD
300
2012
300
85730ACD_2012_0F
  0
DICTIONARY
  5
73
102
{ACAD_REACTORS
330
C
102
}
330
C
100
AcDbDictionary
281
     1
  0
DICTIONARY
  5
D
102
{ACAD_REACTORS
330
C
102
}
330
C
100
AcDbDictionary
281
     1
  0
DICTIONARY
  5
1A
102
{ACAD_REACTORS
330
C
102
}
330
C
100
AcDbDictionary
281
     1
  3
Layout1
350
59
  3
Model
350
22
  0
DICTIONARY
  5
72
102
{ACAD_REACTORS
330
C
102
}
330
C
100
AcDbDictionary
281
     1
  3
ByBlock
350
2AE6
  3
ByLayer
350
2ADE
  3
Global
350
2AEE
  0
DICTIONARY
  5
2B21
102
{ACAD_REACTORS
330
C
102
}
330
C
100
AcDbDictionary
281
     1
  3
Standard
350
2B22
  0
DICTIONARY
  5
17
102
{ACAD_REACTORS
330
C
102
}
330
C
100
AcDbDictionary
281
     1
  3
Standard
350
18
  0
DICTIONARY
  5
19
102
{ACAD_REACTORS
330
C
102
}
330
C
100
AcDbDictionary
281
     1
  0
ACDBDICTIONARYWDFLT
  5
E
102
{ACAD_REACTORS
330
C
102
}
330
C
100
AcDbDictionary
281
     1
  3
Normal
350
F
100
AcDbDictionaryWithDefault
340
F
  0
DICTIONARY
  5
2B0F
102
{ACAD_REACTORS
330
C
102
}
330
C
100
AcDbDictionary
281
     1
  3
A0
350
2B10
  3
A1
350
2B11
  3
A2
350
2B12
  3
A3
350
2B13
  3
A4
350
2B14
  3
A5
350
2B15
  3
A6
350
2B16
  3
A7
350
2B17
  3
A8
350
2B18
  3
A9
350
2B19
  3
B0
350
2B1A
  3
B1
350
2B1B
  3
B2
350
2B1C
  3
B3
350
2B1D
  3
B4
350
2B1E
  3
B5
350
2B1F
  3
B6
350
2B20
  0
DICTIONARY
  5
86
102
{ACAD_REACTORS
330
C
102
}
330
C
100
AcDbDictionary
281
     1
  3
Standard
350
87
  0
DICTIONARY
  5
2AF6
102
{ACAD_REACTORS
330
C
102
}
330
C
100
AcDbDictionary
281
     1
  3
2dWireframe
350
2AFC
  3
Basic
350
2AFB
  3
Brighten
350
2B02
  3
ColorChange
350
2B06
  3
Conceptual
350
2AFF
  3
Dim
350
2B01
  3
EdgeColorOff
350
2B0E
  3
Facepattern
350
2B05
  3
Flat
350
2AF7
  3
FlatWithEdges
350
2AF8
  3
Gouraud
350
2AF9
  3
GouraudWithEdges
350
2AFA
  3
Hidden
350
2AFE
  3
JitterOff
350
2B0C
  3
Linepattern
350
2B04
  3
OverhangOff
350
2B0D
  3
Realistic
350
2B00
  3
Shaded
350
2B0B
  3
Shaded with edges
350
2B0A
  3
Shades of Gray
350
2B07
  3
Sketchy
350
2B08
  3
Thicken
350
2B03
  3
Wireframe
350
2AFD
  3
X-Ray
350
2B09
  0
XRECORD
  5
2B34
102
{ACAD_REACTORS
330
C
102
}
330
C
100
AcDbXrecord
280
     1
 90
        1
330
87
  0
DICTIONARY
  5
66
102
{ACAD_REACTORS
330
C
102
}
330
C
100
AcDbDictionary
281
     1
  3
CANNOSCALE
350
2B2B
  3
CMLEADERSTYLE
350
2B2A
  3
CTABLESTYLE
350
1FB
  3
DIMASSOC
350
67
  3
HIDETEXT
350
6B
  3
INDEXCTL
350
2B2D
  3
PROJECTNAME
350
2ADC
  3
SORTENTS
350
2B2C
  3
XCLIPFRAME
350
2B2E
  0
DICTIONARY
  5
432
102
{ACAD_REACTORS
330
C
102
}
330
C
100
AcDbDictionary
281
     1
  3
ASEBlockHierarchyIndexRecord
350
433
1001
DCO15
1040
1629023144.394
  0
XRECORD
  5
2B35
102
{ACAD_REACTORS
330
C
102
}
330
C
100
AcDbXrecord
280
     1
  1
DWGPROPS COOKIE
  2

  3

  4

  6

  7

  8
jgayle
  9

300
=
301
=
302
=
303
=
304
=
305
=
306
=
307
=
308
=
309
=
 40
0.0325630787037037
 41
2454741.57157603
 42
2456134.63201831
  1

 90
        0
  0
DICTIONARY
  5
1D1
102
{ACAD_REACTORS
330
1D0
102
}
330
1D0
100
AcDbDictionary
281
     1
  0
XRECORD
  5
2B27
102
{ACAD_REACTORS
330
2B26
102
}
330
2B26
100
AcDbXrecord
280
     1
290
     1
  0
XRECORD
  5
2B29
102
{ACAD_REACTORS
330
2B28
102
}
330
2B28
100
AcDbXrecord
280
     1
290
     1
  0
XRECORD
  5
2B3D
102
{ACAD_REACTORS
330
2B3C
102
}
330
2B3C
100
AcDbXrecord
280
     1
102
SHADEPLOT
 70
     0
  0
XRECORD
  5
2B37
102
{ACAD_REACTORS
330
2B36
102
}
330
2B36
100
AcDbXrecord
280
     1
 40
0.18
  0
LAYOUT
  5
59
102
{ACAD_XDICTIONARY
360
227
102
}
102
{ACAD_REACTORS
330
1A
102
}
330
1A
100
AcDbPlotSettings
  1

  2
none_device
  4
ISO_A4_(210.00_x_297.00_MM)
  6

 40
7.5
 41
20.0
 42
7.5
 43
20.0
 44
210.0
 45
297.0
 46
0.0
 47
0.0
 48
0.0
 49
0.0
140
0.0
141
0.0
142
1.0
143
1.0
 70
   688
 72
     1
 73
     1
 74
     5
  7

 75
    16
147
1.0
148
0.0
149
0.0
100
AcDbLayout
  1
Layout1
 70
     1
 71
     1
 10
-20.0
 20
-7.5
 11
277.0
 21
202.5
 12
0.0
 22
0.0
 32
0.0
 14
1.000000000000000E+20
 24
1.000000000000000E+20
 34
1.000000000000000E+20
 15
-1.000000000000000E+20
 25
-1.000000000000000E+20
 35
-1.000000000000000E+20
146
0.0
 13
0.0
 23
0.0
 33
0.0
 16
1.0
 26
0.0
 36
0.0
 17
0.0
 27
1.0
 37
0.0
 76
     0
330
58
331
220
1001
ACAD_PSEXT
1000
None
1000
None
1000
Not applicable
1000
The layout will not be plotted unless a new plotter configuration name is selected.
1070
     0
  0
LAYOUT
  5
22
102
{ACAD_XDICTIONARY
360
2B38
102
}
102
{ACAD_REACTORS
330
1A
102
}
330
1A
100
AcDbPlotSettings
  1

  2
none_device
  4
ANSI_A_(8.50_x_11.00_Inches)
  6

 40
6.349999904632568
 41
19.04999923706055
 42
6.350006103515625
 43
19.04998779296875
 44
215.8999938964844
 45
279.3999938964844
 46
0.0
 47
0.0
 48
0.0
 49
0.0
140
0.0
141
0.0
142
1.0
143
2.584895464708373
 70
 11952
 72
     0
 73
     1
 74
     0
  7

 75
     0
147
0.3868628397755418
148
0.0
149
0.0
100
AcDbLayout
  1
Model
 70
     1
 71
     0
 10
0.0
 20
0.0
 11
12.0
 21
9.0
 12
0.0
 22
0.0
 32
0.0
 14
0.0
 24
0.0
 34
0.0
 15
0.0
 25
0.0
 35
0.0
146
0.0
 13
0.0
 23
0.0
 33
0.0
 16
1.0
 26
0.0
 36
0.0
 17
0.0
 27
1.0
 37
0.0
 76
     0
330
1F
331
2AD4
  0
MATERIAL
  5
2AE6
102
{ACAD_XDICTIONARY
360
2AE7
102
}
102
{ACAD_REACTORS
330
72
102
}
330
72
100
AcDbMaterial
  1
ByBlock
 72
     0
 43
0.0208333333333333
 43
0.0
 43
0.0
 43
0.0
 43
0.0
 43
0.0208333333333333
 43
0.0
 43
0.0
 43
0.0
 43
0.0
 43
1.0
 43
0.0
 43
0.0
 43
0.0
 43
0.0
 43
1.0
 77
     0
 47
0.0208333333333333
 47
0.0
 47
0.0
 47
0.0
 47
0.0
 47
0.0208333333333333
 47
0.0
 47
0.0
 47
0.0
 47
0.0
 47
1.0
 47
0.0
 47
0.0
 47
0.0
 47
0.0
 47
1.0
171
     0
 49
0.0208333333333333
 49
0.0
 49
0.0
 49
0.0
 49
0.0
 49
0.0208333333333333
 49
0.0
 49
0.0
 49
0.0
 49
0.0
 49
1.0
 49
0.0
 49
0.0
 49
0.0
 49
0.0
 49
1.0
175
     0
142
0.0208333333333333
142
0.0
142
0.0
142
0.0
142
0.0
142
0.0208333333333333
142
0.0
142
0.0
142
0.0
142
0.0
142
1.0
142
0.0
142
0.0
142
0.0
142
0.0
142
1.0
179
     0
144
0.0208333333333333
144
0.0
144
0.0
144
0.0
144
0.0
144
0.0208333333333333
144
0.0
144
0.0
144
0.0
144
0.0
144
1.0
144
0.0
144
0.0
144
0.0
144
0.0
144
1.0
147
0.0208333333333333
147
0.0
147
0.0
147
0.0
147
0.0
147
0.0208333333333333
147
0.0
147
0.0
147
0.0
147
0.0
147
1.0
147
0.0
147
0.0
147
0.0
147
0.0
147
1.0
  0
MATERIAL
  5
2ADE
102
{ACAD_XDICTIONARY
360
2ADF
102
}
102
{ACAD_REACTORS
330
72
102
}
330
72
100
AcDbMaterial
  1
ByLayer
 72
     0
 43
0.0208333333333333
 43
0.0
 43
0.0
 43
0.0
 43
0.0
 43
0.0208333333333333
 43
0.0
 43
0.0
 43
0.0
 43
0.0
 43
1.0
 43
0.0
 43
0.0
 43
0.0
 43
0.0
 43
1.0
 77
     0
 47
0.0208333333333333
 47
0.0
 47
0.0
 47
0.0
 47
0.0
 47
0.0208333333333333
 47
0.0
 47
0.0
 47
0.0
 47
0.0
 47
1.0
 47
0.0
 47
0.0
 47
0.0
 47
0.0
 47
1.0
171
     0
 49
0.0208333333333333
 49
0.0
 49
0.0
 49
0.0
 49
0.0
 49
0.0208333333333333
 49
0.0
 49
0.0
 49
0.0
 49
0.0
 49
1.0
 49
0.0
 49
0.0
 49
0.0
 49
0.0
 49
1.0
175
     0
142
0.0208333333333333
142
0.0
142
0.0
142
0.0
142
0.0
142
0.0208333333333333
142
0.0
142
0.0
142
0.0
142
0.0
142
1.0
142
0.0
142
0.0
142
0.0
142
0.0
142
1.0
179
     0
144
0.0208333333333333
144
0.0
144
0.0
144
0.0
144
0.0
144
0.0208333333333333
144
0.0
144
0.0
144
0.0
144
0.0
144
1.0
144
0.0
144
0.0
144
0.0
144
0.0
144
1.0
147
0.0208333333333333
147
0.0
147
0.0
147
0.0
147
0.0
147
0.0208333333333333
147
0.0
147
0.0
147
0.0
147
0.0
147
1.0
147
0.0
147
0.0
147
0.0
147
0.0
147
1.0
  0
MATERIAL
  5
2AEE
102
{ACAD_XDICTIONARY
360
2AEF
102
}
102
{ACAD_REACTORS
330
72
102
}
330
72
100
AcDbMaterial
  1
Global
 72
     0
 43
0.0208333333333333
 43
0.0
 43
0.0
 43
0.0
 43
0.0
 43
0.0208333333333333
 43
0.0
 43
0.0
 43
0.0
 43
0.0
 43
1.0
 43
0.0
 43
0.0
 43
0.0
 43
0.0
 43
1.0
 77
     0
 47
0.0208333333333333
 47
0.0
 47
0.0
 47
0.0
 47
0.0
 47
0.0208333333333333
 47
0.0
 47
0.0
 47
0.0
 47
0.0
 47
1.0
 47
0.0
 47
0.0
 47
0.0
 47
0.0
 47
1.0
171
     0
 49
0.0208333333333333
 49
0.0
 49
0.0
 49
0.0
 49
0.0
 49
0.0208333333333333
 49
0.0
 49
0.0
 49
0.0
 49
0.0
 49
1.0
 49
0.0
 49
0.0
 49
0.0
 49
0.0
 49
1.0
175
     0
142
0.0208333333333333
142
0.0
142
0.0
142
0.0
142
0.0
142
0.0208333333333333
142
0.0
142
0.0
142
0.0
142
0.0
142
1.0
142
0.0
142
0.0
142
0.0
142
0.0
142
1.0
179
     0
144
0.0208333333333333
144
0.0
144
0.0
144
0.0
144
0.0
144
0.0208333333333333
144
0.0
144
0.0
144
0.0
144
0.0
144
1.0
144
0.0
144
0.0
144
0.0
144
0.0
144
1.0
147
0.0208333333333333
147
0.0
147
0.0
147
0.0
147
0.0
147
0.0208333333333333
147
0.0
147
0.0
147
0.0
147
0.0
147
1.0
147
0.0
147
0.0
147
0.0
147
0.0
147
1.0
  0
MLEADERSTYLE
  5
2B22
102
{ACAD_XDICTIONARY
360
2B32
102
}
102
{ACAD_REACTORS
330
2B21
102
}
330
2B21
100
AcDbMLeaderStyle
170
     2
171
     1
172
     0
 90
        2
 40
0.0
 41
0.0
173
     1
 91
-1056964608
340
14
 92
       -2
290
     1
 42
0.09
291
     1
 43
0.36
  3
Standard
 44
0.18
300

342
11
174
     1
178
     6
175
     1
176
     0
 93
-1056964608
 45
0.18
292
     0
297
     0
 46
0.18
 94
-1056964608
 47
1.0
 49
1.0
140
1.0
293
     1
141
0.0
294
     1
177
     0
142
1.0
295
     0
296
     0
143
0.125
1001
ACAD_MLEADERVER
1070
     2
  0
MLINESTYLE
  5
18
102
{ACAD_REACTORS
330
17
102
}
330
17
100
AcDbMlineStyle
  2
STANDARD
 70
     0
  3

 62
   256
 51
90.0
 52
90.0
 71
     2
 49
0.5
 62
   256
  6
BYLAYER
 49
-0.5
 62
   256
  6
BYLAYER
  0
ACDBPLACEHOLDER
  5
F
102
{ACAD_REACTORS
330
E
102
}
330
E
  0
SCALE
  5
2B10
102
{ACAD_REACTORS
330
2B0F
102
}
330
2B0F
100
AcDbScale
 70
     0
300
1:1
140
1.0
141
1.0
290
     1
  0
SCALE
  5
2B11
102
{ACAD_REACTORS
330
2B0F
102
}
330
2B0F
100
AcDbScale
 70
     0
300
1/128" = 1'-0"
140
0.0078125
141
12.0
290
     0
  0
SCALE
  5
2B12
102
{ACAD_REACTORS
330
2B0F
102
}
330
2B0F
100
AcDbScale
 70
     0
300
1/64" = 1'-0"
140
0.015625
141
12.0
290
     0
  0
SCALE
  5
2B13
102
{ACAD_REACTORS
330
2B0F
102
}
330
2B0F
100
AcDbScale
 70
     0
300
1/32" = 1'-0"
140
0.03125
141
12.0
290
     0
  0
SCALE
  5
2B14
102
{ACAD_REACTORS
330
2B0F
102
}
330
2B0F
100
AcDbScale
 70
     0
300
1/16" = 1'-0"
140
0.0625
141
12.0
290
     0
  0
SCALE
  5
2B15
102
{ACAD_REACTORS
330
2B0F
102
}
330
2B0F
100
AcDbScale
 70
     0
300
3/32" = 1'-0"
140
0.09375
141
12.0
290
     0
  0
SCALE
  5
2B16
102
{ACAD_REACTORS
330
2B0F
102
}
330
2B0F
100
AcDbScale
 70
     0
300
1/8" = 1'-0"
140
0.125
141
12.0
290
     0
  0
SCALE
  5
2B17
102
{ACAD_REACTORS
330
2B0F
102
}
330
2B0F
100
AcDbScale
 70
     0
300
3/16" = 1'-0"
140
0.1875
141
12.0
290
     0
  0
SCALE
  5
2B18
102
{ACAD_REACTORS
330
2B0F
102
}
330
2B0F
100
AcDbScale
 70
     0
300
1/4" = 1'-0"
140
0.25
141
12.0
290
     0
  0
SCALE
  5
2B19
102
{ACAD_REACTORS
330
2B0F
102
}
330
2B0F
100
AcDbScale
 70
     0
300
3/8" = 1'-0"
140
0.375
141
12.0
290
     0
  0
SCALE
  5
2B1A
102
{ACAD_REACTORS
330
2B0F
102
}
330
2B0F
100
AcDbScale
 70
     0
300
1/2" = 1'-0"
140
0.5
141
12.0
290
     0
  0
SCALE
  5
2B1B
102
{ACAD_REACTORS
330
2B0F
102
}
330
2B0F
100
AcDbScale
 70
     0
300
3/4" = 1'-0"
140
0.75
141
12.0
290
     0
  0
SCALE
  5
2B1C
102
{ACAD_REACTORS
330
2B0F
102
}
330
2B0F
100
AcDbScale
 70
     0
300
1" = 1'-0"
140
1.0
141
12.0
290
     0
  0
SCALE
  5
2B1D
102
{ACAD_REACTORS
330
2B0F
102
}
330
2B0F
100
AcDbScale
 70
     0
300
1-1/2" = 1'-0"
140
1.5
141
12.0
290
     0
  0
SCALE
  5
2B1E
102
{ACAD_REACTORS
330
2B0F
102
}
330
2B0F
100
AcDbScale
 70
     0
300
3" = 1'-0"
140
3.0
141
12.0
290
     0
  0
SCALE
  5
2B1F
102
{ACAD_REACTORS
330
2B0F
102
}
330
2B0F
100
AcDbScale
 70
     0
300
6" = 1'-0"
140
6.0
141
12.0
290
     0
  0
SCALE
  5
2B20
102
{ACAD_REACTORS
330
2B0F
102
}
330
2B0F
100
AcDbScale
 70
     0
300
1'-0" = 1'-0"
140
12.0
141
12.0
290
     0
  0
TABLESTYLE
  5
87
102
{ACAD_XDICTIONARY
360
2B30
102
}
102
{ACAD_REACTORS
330
86
102
}
330
86
100
AcDbTableStyle
  3
Standard
 70
     0
 71
     0
 40
0.06
 41
0.06
280
     0
281
     0
  7
Standard
140
0.18
170
     2
 62
     0
 63
     7
283
     0
274
    -2
284
     1
 64
     0
275
    -2
285
     1
 65
     0
276
    -2
286
     1
 66
     0
277
    -2
287
     1
 67
     0
278
    -2
288
     1
 68
     0
279
    -2
289
     1
 69
     0
  7
Standard
140
0.25
170
     5
 62
     0
 63
     7
283
     0
274
    -2
284
     1
 64
     0
275
    -2
285
     1
 65
     0
276
    -2
286
     1
 66
     0
277
    -2
287
     1
 67
     0
278
    -2
288
     1
 68
     0
279
    -2
289
     1
 69
     0
  7
Standard
140
0.18
170
     5
 62
     0
 63
     7
283
     0
274
    -2
284
     1
 64
     0
275
    -2
285
     1
 65
     0
276
    -2
286
     1
 66
     0
277
    -2
287
     1
 67
     0
278
    -2
288
     1
 68
     0
279
    -2
289
     1
 69
     0
  0
VISUALSTYLE
  5
2AFC
102
{ACAD_XDICTIONARY
360
2B4B
102
}
102
{ACAD_REACTORS
330
2AF6
102
}
330
2AF6
100
AcDbVisualStyle
  2
2dWireframe
 70
     4
 71
     0
 72
     2
 73
     0
 90
        0
 40
-0.6
 41
-30.0
 62
     5
 63
     7
 74
     1
 91
        4
 64
     7
 65
   257
 75
     1
175
     1
 42
1.0
 92
        0
 66
   257
 43
1.0
 76
     1
 77
     6
 78
     2
 67
     7
 79
     5
170
     0
171
     0
290
     0
174
     0
 93
        1
 44
0.0
173
     0
291
     0
 45
0.0
1001
ACAD
1000
AcDbSavedByObjectVersion
1070
     0
  0
VISUALSTYLE
  5
2AFB
102
{ACAD_XDICTIONARY
360
2B49
102
}
102
{ACAD_REACTORS
330
2AF6
102
}
330
2AF6
100
AcDbVisualStyle
  2
Basic
 70
     7
 71
     1
 72
     0
 73
     1
 90
        0
 40
-0.6
 41
-30.0
 62
     5
 63
     7
 74
     0
 91
        4
 64
     7
 65
   257
 75
     1
175
     1
 42
1.0
 92
        8
 66
     7
 43
1.0
 76
     1
 77
     6
 78
     2
 67
     7
 79
     5
170
     0
171
     0
290
     0
174
     0
 93
        1
 44
0.0
173
     0
291
     1
 45
0.0
1001
ACAD
1000
AcDbSavedByObjectVersion
1070
     0
  0
VISUALSTYLE
  5
2B02
102
{ACAD_XDICTIONARY
360
2B57
102
}
102
{ACAD_REACTORS
330
2AF6
102
}
330
2AF6
100
AcDbVisualStyle
  2
Brighten
 70
    12
 71
     2
 72
     2
 73
     0
 90
        0
 40
-0.6
 41
-30.0
 62
     5
 63
     7
 74
     1
 91
        4
 64
     7
 65
   257
 75
     1
175
     1
 42
1.0
 92
        8
 66
     7
 43
1.0
 76
     1
 77
     6
 78
     2
 67
     7
 79
     5
170
     0
171
     0
290
     0
174
     0
 93
        1
 44
50.0
173
     0
291
     1
 45
0.0
1001
ACAD
1000
AcDbSavedByObjectVersion
1070
     0
  0
VISUALSTYLE
  5
2B06
102
{ACAD_XDICTIONARY
360
2B5F
102
}
102
{ACAD_REACTORS
330
2AF6
102
}
330
2AF6
100
AcDbVisualStyle
  2
ColorChange
 70
    16
 71
     2
 72
     2
 73
     3
 90
        0
 40
-0.6
 41
-30.0
 62
     5
 63
     8
 74
     1
 91
        4
 64
     7
 65
   257
 75
     1
175
     1
 42
1.0
 92
        8
 66
     8
 43
1.0
 76
     1
 77
     6
 78
     2
 67
     7
 79
     5
170
     0
171
     0
290
     0
174
     0
 93
        1
 44
0.0
173
     0
291
     1
 45
0.0
1001
ACAD
1000
AcDbSavedByObjectVersion
1070
     0
  0
VISUALSTYLE
  5
2AFF
102
{ACAD_XDICTIONARY
360
2B51
102
}
102
{ACAD_REACTORS
330
2AF6
102
}
330
2AF6
100
AcDbVisualStyle
  2
Conceptual
 70
     9
 71
     3
 72
     2
 73
     0
 90
        0
 40
-0.6
 41
-30.0
 62
     5
 63
     7
 74
     2
 91
        2
 64
     7
 65
   257
 75
     1
175
     1
 42
179.0
 92
        8
 66
     7
 43
1.0
 76
     1
 77
     6
 78
     2
 67
     7
 79
     3
170
     0
171
     0
290
     0
174
     0
 93
        1
 44
0.0
173
     0
291
     0
 45
0.0
1001
ACAD
1000
AcDbSavedByObjectVersion
1070
     0
  0
VISUALSTYLE
  5
2B01
102
{ACAD_XDICTIONARY
360
2B55
102
}
102
{ACAD_REACTORS
330
2AF6
102
}
330
2AF6
100
AcDbVisualStyle
  2
Dim
 70
    11
 71
     2
 72
     2
 73
     0
 90
        0
 40
-0.6
 41
-30.0
 62
     5
 63
     7
 74
     1
 91
        4
 64
     7
 65
   257
 75
     1
175
     1
 42
1.0
 92
        8
 66
     7
 43
1.0
 76
     1
 77
     6
 78
     2
 67
     7
 79
     5
170
     0
171
     0
290
     0
174
     0
 93
        1
 44
-50.0
173
     0
291
     1
 45
0.0
1001
ACAD
1000
AcDbSavedByObjectVersion
1070
     0
  0
VISUALSTYLE
  5
2B0E
102
{ACAD_XDICTIONARY
360
2B6F
102
}
102
{ACAD_REACTORS
330
2AF6
102
}
330
2AF6
100
AcDbVisualStyle
  2
EdgeColorOff
 70
    22
 71
     2
 72
     2
 73
     0
 90
        0
 40
-0.6
 41
-30.0
 62
     5
 63
     7
 74
     1
 91
        4
 64
     7
 65
   257
 75
     1
175
     1
 42
1.0
 92
        8
 66
     7
 43
1.0
 76
     1
 77
     6
 78
     2
 67
     7
 79
     5
170
     0
171
     0
290
     0
174
     0
 93
        1
 44
0.0
173
     0
291
     1
 45
0.0
1001
ACAD
1000
AcDbSavedByObjectVersion
1070
     0
  0
VISUALSTYLE
  5
2B05
102
{ACAD_XDICTIONARY
360
2B5D
102
}
102
{ACAD_REACTORS
330
2AF6
102
}
330
2AF6
100
AcDbVisualStyle
  2
Facepattern
 70
    15
 71
     2
 72
     2
 73
     0
 90
        0
 40
-0.6
 41
-30.0
 62
     5
 63
     7
 74
     1
 91
        4
 64
     7
 65
   257
 75
     1
175
     1
 42
1.0
 92
        8
 66
     7
 43
1.0
 76
     1
 77
     6
 78
     2
 67
     7
 79
     5
170
     0
171
     0
290
     0
174
     0
 93
        1
 44
0.0
173
     0
291
     1
 45
0.0
1001
ACAD
1000
AcDbSavedByObjectVersion
1070
     0
  0
VISUALSTYLE
  5
2AF7
102
{ACAD_XDICTIONARY
360
2B41
102
}
102
{ACAD_REACTORS
330
2AF6
102
}
330
2AF6
100
AcDbVisualStyle
  2
Flat
 70
     0
 71
     2
 72
     1
 73
     1
 90
        2
 40
-0.6
 41
30.0
 62
     5
 63
     7
 74
     0
 91
        0
 64
     7
 65
   257
 75
     1
175
     1
 42
1.0
 92
        8
 66
     7
 43
1.0
 76
     1
 77
     6
 78
     2
 67
     7
 79
     5
170
     0
171
     0
290
     0
174
     0
 93
       13
 44
0.0
173
     0
291
     1
 45
0.0
1001
ACAD
1000
AcDbSavedByObjectVersion
1070
     0
  0
VISUALSTYLE
  5
2AF8
102
{ACAD_XDICTIONARY
360
2B43
102
}
102
{ACAD_REACTORS
330
2AF6
102
}
330
2AF6
100
AcDbVisualStyle
  2
FlatWithEdges
 70
     1
 71
     2
 72
     1
 73
     1
 90
        2
 40
-0.6
 41
30.0
 62
     5
 63
     7
 74
     1
 91
        0
 64
     7
 65
   257
 75
     1
175
     1
 42
1.0
 92
        0
 66
   257
 43
1.0
 76
     1
 77
     6
 78
     2
 67
     7
 79
     5
170
     0
171
     0
290
     0
174
     0
 93
       13
 44
0.0
173
     0
291
     1
 45
0.0
1001
ACAD
1000
AcDbSavedByObjectVersion
1070
     0
  0
VISUALSTYLE
  5
2AF9
102
{ACAD_XDICTIONARY
360
2B45
102
}
102
{ACAD_REACTORS
330
2AF6
102
}
330
2AF6
100
AcDbVisualStyle
  2
Gouraud
 70
     2
 71
     2
 72
     2
 73
     1
 90
        2
 40
-0.6
 41
30.0
 62
     5
 63
     7
 74
     0
 91
        0
 64
     7
 65
   257
 75
     1
175
     1
 42
1.0
 92
        0
 66
     7
 43
1.0
 76
     1
 77
     6
 78
     2
 67
     7
 79
     5
170
     0
171
     0
290
     0
174
     0
 93
       13
 44
0.0
173
     0
291
     1
 45
0.0
1001
ACAD
1000
AcDbSavedByObjectVersion
1070
     0
  0
VISUALSTYLE
  5
2AFA
102
{ACAD_XDICTIONARY
360
2B47
102
}
102
{ACAD_REACTORS
330
2AF6
102
}
330
2AF6
100
AcDbVisualStyle
  2
GouraudWithEdges
 70
     3
 71
     2
 72
     2
 73
     1
 90
        2
 40
-0.6
 41
30.0
 62
     5
 63
     7
 74
     1
 91
        0
 64
     7
 65
   257
 75
     1
175
     1
 42
1.0
 92
        0
 66
   257
 43
1.0
 76
     1
 77
     6
 78
     2
 67
     7
 79
     5
170
     0
171
     0
290
     0
174
     0
 93
       13
 44
0.0
173
     0
291
     1
 45
0.0
1001
ACAD
1000
AcDbSavedByObjectVersion
1070
     0
  0
VISUALSTYLE
  5
2AFE
102
{ACAD_XDICTIONARY
360
2B4F
102
}
102
{ACAD_REACTORS
330
2AF6
102
}
330
2AF6
100
AcDbVisualStyle
  2
Hidden
 70
     6
 71
     1
 72
     2
 73
     2
 90
        0
 40
-0.6
 41
-30.0
 62
     5
 63
     7
 74
     2
 91
        2
 64
     7
 65
   257
 75
     2
175
     1
 42
40.0
 92
        0
 66
   257
 43
1.0
 76
     1
 77
     6
 78
     2
 67
     7
 79
     3
170
     0
171
     0
290
     0
174
     0
 93
        1
 44
0.0
173
     0
291
     0
 45
0.0
1001
ACAD
1000
AcDbSavedByObjectVersion
1070
     0
  0
VISUALSTYLE
  5
2B0C
102
{ACAD_XDICTIONARY
360
2B6B
102
}
102
{ACAD_REACTORS
330
2AF6
102
}
330
2AF6
100
AcDbVisualStyle
  2
JitterOff
 70
    20
 71
     2
 72
     2
 73
     0
 90
        0
 40
-0.6
 41
-30.0
 62
     5
 63
     7
 74
     1
 91
        4
 64
     7
 65
   257
 75
     1
175
     1
 42
1.0
 92
       10
 66
     7
 43
1.0
 76
     1
 77
     6
 78
     2
 67
     7
 79
     5
170
     0
171
     0
290
     0
174
     0
 93
        1
 44
0.0
173
     0
291
     1
 45
0.0
1001
ACAD
1000
AcDbSavedByObjectVersion
1070
     0
  0
VISUALSTYLE
  5
2B04
102
{ACAD_XDICTIONARY
360
2B5B
102
}
102
{ACAD_REACTORS
330
2AF6
102
}
330
2AF6
100
AcDbVisualStyle
  2
Linepattern
 70
    14
 71
     2
 72
     2
 73
     0
 90
        0
 40
-0.6
 41
-30.0
 62
     5
 63
     7
 74
     1
 91
        4
 64
     7
 65
   257
 75
     7
175
     7
 42
1.0
 92
        8
 66
     7
 43
1.0
 76
     1
 77
     6
 78
     2
 67
     7
 79
     5
170
     0
171
     0
290
     0
174
     0
 93
        1
 44
0.0
173
     0
291
     1
 45
0.0
1001
ACAD
1000
AcDbSavedByObjectVersion
1070
     0
  0
VISUALSTYLE
  5
2B0D
102
{ACAD_XDICTIONARY
360
2B6D
102
}
102
{ACAD_REACTORS
330
2AF6
102
}
330
2AF6
100
AcDbVisualStyle
  2
OverhangOff
 70
    21
 71
     2
 72
     2
 73
     0
 90
        0
 40
-0.6
 41
-30.0
 62
     5
 63
     7
 74
     1
 91
        4
 64
     7
 65
   257
 75
     1
175
     1
 42
1.0
 92
        9
 66
     7
 43
1.0
 76
     1
 77
     6
 78
     2
 67
     7
 79
     5
170
     0
171
     0
290
     0
174
     0
 93
        1
 44
0.0
173
     0
291
     1
 45
0.0
1001
ACAD
1000
AcDbSavedByObjectVersion
1070
     0
  0
VISUALSTYLE
  5
2B00
102
{ACAD_XDICTIONARY
360
2B53
102
}
102
{ACAD_REACTORS
330
2AF6
102
}
330
2AF6
100
AcDbVisualStyle
  2
Realistic
 70
     8
 71
     2
 72
     3
 73
     0
 90
        2
 40
-0.6
 41
30.0
 62
     5
 63
     7
 74
     0
 91
        0
 64
     7
 65
   257
 75
     1
175
     1
 42
1.0
 92
        8
 66
   257
 43
1.0
 76
     1
 77
     6
 78
     2
 67
     7
 79
     3
170
     0
171
     0
290
     0
174
     0
 93
       13
 44
0.0
173
     0
291
     0
 45
0.0
1001
ACAD
1000
AcDbSavedByObjectVersion
1070
     0
  0
VISUALSTYLE
  5
2B0B
102
{ACAD_XDICTIONARY
360
2B69
102
}
102
{ACAD_REACTORS
330
2AF6
102
}
330
2AF6
100
AcDbVisualStyle
  2
Shaded
 70
    27
 71
     2
 72
     2
 73
     1
 90
        2
 40
-0.6
 41
30.0
 62
     5
 63
     7
 74
     0
 91
        4
 64
     7
 65
   257
 75
     1
175
     1
 42
1.0
 92
        8
 66
   257
 43
1.0
 76
     1
 77
     6
 78
     2
 67
     8
 79
     3
170
     0
171
     0
290
     0
174
     0
 93
        5
 44
0.0
173
     0
291
     0
 45
0.0
1001
ACAD
1000
AcDbSavedByObjectVersion
1070
     0
  0
VISUALSTYLE
  5
2B0A
102
{ACAD_XDICTIONARY
360
2B67
102
}
102
{ACAD_REACTORS
330
2AF6
102
}
330
2AF6
100
AcDbVisualStyle
  2
Shaded with edges
 70
    26
 71
     2
 72
     2
 73
     1
 90
        2
 40
-0.6
 41
30.0
 62
     5
 63
     7
 74
     1
 91
       10
 64
     7
 65
   257
 75
     2
175
     1
 42
1.0
 92
        8
 66
   257
 43
1.0
 76
     1
 77
     6
 78
     2
 67
     7
 79
     3
170
     0
171
     0
290
     0
174
     0
 93
        5
 44
0.0
173
     0
291
     0
 45
0.0
1001
ACAD
1000
AcDbSavedByObjectVersion
1070
     0
  0
VISUALSTYLE
  5
2B07
102
{ACAD_XDICTIONARY
360
2B61
102
}
102
{ACAD_REACTORS
330
2AF6
102
}
330
2AF6
100
AcDbVisualStyle
  2
Shades of Gray
 70
    23
 71
     2
 72
     2
 73
     3
 90
        0
 40
-0.6
 41
-30.0
 62
     5
 63
     7
 74
     2
 91
        2
 64
     7
 65
     7
 75
     1
175
     1
 42
40.0
 92
        8
 66
     7
 43
1.0
 76
     1
 77
     6
 78
     2
 67
     7
 79
     3
170
     0
171
     0
290
     0
174
     0
 93
        1
 44
0.0
173
     0
291
     0
 45
0.0
1001
ACAD
1000
AcDbSavedByObjectVersion
1070
     0
  0
VISUALSTYLE
  5
2B08
102
{ACAD_XDICTIONARY
360
2B63
102
}
102
{ACAD_REACTORS
330
2AF6
102
}
330
2AF6
100
AcDbVisualStyle
  2
Sketchy
 70
    24
 71
     1
 72
     2
 73
     2
 90
        0
 40
-0.6
 41
-30.0
 62
     5
 63
     7
 74
     2
 91
        2
 64
     7
 65
     7
 75
     1
175
     1
 42
40.0
 92
       11
 66
     7
 43
1.0
 76
     1
 77
     6
 78
     2
 67
     7
 79
     6
170
     0
171
     0
290
     0
174
     0
 93
        1
 44
0.0
173
     0
291
     0
 45
0.0
1001
ACAD
1000
AcDbSavedByObjectVersion
1070
     0
  0
VISUALSTYLE
  5
2B03
102
{ACAD_XDICTIONARY
360
2B59
102
}
102
{ACAD_REACTORS
330
2AF6
102
}
330
2AF6
100
AcDbVisualStyle
  2
Thicken
 70
    13
 71
     2
 72
     2
 73
     0
 90
        0
 40
-0.6
 41
-30.0
 62
     5
 63
     7
 74
     1
 91
        4
 64
     7
 65
   257
 75
     1
175
     1
 42
1.0
 92
       12
 66
     7
 43
1.0
 76
     1
 77
     6
 78
     2
 67
     7
 79
     5
170
     0
171
     0
290
     0
174
     0
 93
        1
 44
0.0
173
     0
291
     1
 45
0.0
1001
ACAD
1000
AcDbSavedByObjectVersion
1070
     0
  0
VISUALSTYLE
  5
2AFD
102
{ACAD_XDICTIONARY
360
2B4D
102
}
102
{ACAD_REACTORS
330
2AF6
102
}
330
2AF6
100
AcDbVisualStyle
  2
Wireframe
 70
     5
 71
     0
 72
     2
 73
     0
 90
        0
 40
-0.6
 41
-30.0
 62
     5
 63
     7
 74
     1
 91
        4
 64
     7
 65
   257
 75
     1
175
     1
 42
1.0
 92
        0
 66
   257
 43
1.0
 76
     1
 77
     6
 78
     2
 67
     7
 79
     3
170
     0
171
     0
290
     0
174
     0
 93
        1
 44
0.0
173
     0
291
     0
 45
0.0
1001
ACAD
1000
AcDbSavedByObjectVersion
1070
     0
  0
VISUALSTYLE
  5
2B09
102
{ACAD_XDICTIONARY
360
2B65
102
}
102
{ACAD_REACTORS
330
2AF6
102
}
330
2AF6
100
AcDbVisualStyle
  2
X-Ray
 70
    25
 71
     2
 72
     2
 73
     1
 90
        1
 40
0.5
 41
-30.0
 62
     5
 63
     7
 74
     1
 91
        0
 64
     7
 65
   257
 75
     1
175
     1
 42
1.0
 92
        8
 66
     7
 43
1.0
 76
     1
 77
     6
 78
     2
 67
     7
 79
     3
170
     0
171
     0
290
     0
174
     0
 93
       13
 44
0.0
173
     0
291
     0
 45
0.0
1001
ACAD
1000
AcDbSavedByObjectVersion
1070
     0
  0
DICTIONARYVAR
  5
2B2B
102
{ACAD_REACTORS
330
66
102
}
330
66
100
DictionaryVariables
280
     0
  1
1:1
  0
DICTIONARYVAR
  5
2B2A
102
{ACAD_REACTORS
330
66
102
}
330
66
100
DictionaryVariables
280
     0
  1
STANDARD
  0
DICTIONARYVAR
  5
1FB
102
{ACAD_REACTORS
330
66
102
}
330
66
100
DictionaryVariables
280
     0
  1
STANDARD
  0
DICTIONARYVAR
  5
67
102
{ACAD_REACTORS
330
66
102
}
330
66
100
DictionaryVariables
280
     0
  1
2
  0
DICTIONARYVAR
  5
6B
102
{ACAD_REACTORS
330
66
102
}
330
66
100
DictionaryVariables
280
     0
  1
1
  0
DICTIONARYVAR
  5
2B2D
102
{ACAD_REACTORS
330
66
102
}
330
66
100
DictionaryVariables
280
     0
  1
0
  0
DICTIONARYVAR
  5
2ADC
102
{ACAD_REACTORS
330
66
102
}
330
66
100
DictionaryVariables
280
     0
  1

  0
DICTIONARYVAR
  5
2B2C
102
{ACAD_REACTORS
330
66
102
}
330
66
100
DictionaryVariables
280
     0
  1
127
  0
DICTIONARYVAR
  5
2B2E
102
{ACAD_REACTORS
330
66
102
}
330
66
100
DictionaryVariables
280
     0
  1
2
  0
XRECORD
  5
433
102
{ACAD_REACTORS
330
432
102
}
330
432
100
AcDbXrecord
280
     1
  0
DICTIONARY
  5
227
330
59
100
AcDbDictionary
280
     1
281
     1
  3
ACAD_XREC_ROUNDTRIP
360
2B3A
  3
ADSK_XREC_LAYOUTTHUMBNAIL
360
228
  0
DICTIONARY
  5
2B38
330
22
100
AcDbDictionary
280
     1
281
     1
  3
ACAD_XREC_ROUNDTRIP
360
2B39
  0
DICTIONARY
  5
2AE7
330
2AE6
100
AcDbDictionary
280
     1
281
     1
  3
ACAD_XREC_ROUNDTRIP
360
2B3F
  3
BUMPTILE
360
2AE9
  3
DIFFUSETILE
360
2AE8
  3
OPACITYTILE
360
2AEC
  3
REFLECTIONTILE
360
2AEB
  3
REFRACTIONTILE
360
2AED
  3
SPECULARTILE
360
2AEA
  0
DICTIONARY
  5
2ADF
330
2ADE
100
AcDbDictionary
280
     1
281
     1
  3
ACAD_XREC_ROUNDTRIP
360
2B3E
  3
BUMPTILE
360
2AE1
  3
DIFFUSETILE
360
2AE0
  3
OPACITYTILE
360
2AE4
  3
REFLECTIONTILE
360
2AE3
  3
REFRACTIONTILE
360
2AE5
  3
SPECULARTILE
360
2AE2
  0
DICTIONARY
  5
2AEF
330
2AEE
100
AcDbDictionary
280
     1
281
     1
  3
ACAD_XREC_ROUNDTRIP
360
2B40
  3
BUMPTILE
360
2AF1
  3
DIFFUSETILE
360
2AF0
  3
OPACITYTILE
360
2AF4
  3
REFLECTIONTILE
360
2AF3
  3
REFRACTIONTILE
360
2AF5
  3
SPECULARTILE
360
2AF2
  0
DICTIONARY
  5
2B32
330
2B22
100
AcDbDictionary
280
     1
281
     1
  3
ACAD_XREC_ROUNDTRIP
360
2B33
  0
DICTIONARY
  5
2B30
330
87
100
AcDbDictionary
280
     1
281
     1
  3
ACAD_ROUNDTRIP_2008_TABLESTYLE_CELLSTYLEMAP
360
2B31
  3
ACAD_XREC_ROUNDTRIP
360
2B3B
  0
DICTIONARY
  5
2B4B
330
2AFC
100
AcDbDictionary
280
     1
281
     1
  3
ACAD_XREC_ROUNDTRIP
360
2B4C
  0
DICTIONARY
  5
2B49
330
2AFB
100
AcDbDictionary
280
     1
281
     1
  3
ACAD_XREC_ROUNDTRIP
360
2B4A
  0
DICTIONARY
  5
2B57
330
2B02
100
AcDbDictionary
280
     1
281
     1
  3
ACAD_XREC_ROUNDTRIP
360
2B58
  0
DICTIONARY
  5
2B5F
330
2B06
100
AcDbDictionary
280
     1
281
     1
  3
ACAD_XREC_ROUNDTRIP
360
2B60
  0
DICTIONARY
  5
2B51
330
2AFF
100
AcDbDictionary
280
     1
281
     1
  3
ACAD_XREC_ROUNDTRIP
360
2B52
  0
DICTIONARY
  5
2B55
330
2B01
100
AcDbDictionary
280
     1
281
     1
  3
ACAD_XREC_ROUNDTRIP
360
2B56
  0
DICTIONARY
  5
2B6F
330
2B0E
100
AcDbDictionary
280
     1
281
     1
  3
ACAD_XREC_ROUNDTRIP
360
2B70
  0
DICTIONARY
  5
2B5D
330
2B05
100
AcDbDictionary
280
     1
281
     1
  3
ACAD_XREC_ROUNDTRIP
360
2B5E
  0
DICTIONARY
  5
2B41
330
2AF7
100
AcDbDictionary
280
     1
281
     1
  3
ACAD_XREC_ROUNDTRIP
360
2B42
  0
DICTIONARY
  5
2B43
330
2AF8
100
AcDbDictionary
280
     1
281
     1
  3
ACAD_XREC_ROUNDTRIP
360
2B44
  0
DICTIONARY
  5
2B45
330
2AF9
100
AcDbDictionary
280
     1
281
     1
  3
ACAD_XREC_ROUNDTRIP
360
2B46
  0
DICTIONARY
  5
2B47
330
2AFA
100
AcDbDictionary
280
     1
281
     1
  3
ACAD_XREC_ROUNDTRIP
360
2B48
  0
DICTIONARY
  5
2B4F
330
2AFE
100
AcDbDictionary
280
     1
281
     1
  3
ACAD_XREC_ROUNDTRIP
360
2B50
  0
DICTIONARY
  5
2B6B
330
2B0C
100
AcDbDictionary
280
     1
281
     1
  3
ACAD_XREC_ROUNDTRIP
360
2B6C
  0
DICTIONARY
  5
2B5B
330
2B04
100
AcDbDictionary
280
     1
281
     1
  3
ACAD_XREC_ROUNDTRIP
360
2B5C
  0
DICTIONARY
  5
2B6D
330
2B0D
100
AcDbDictionary
280
     1
281
     1
  3
ACAD_XREC_ROUNDTRIP
360
2B6E
  0
DICTIONARY
  5
2B53
330
2B00
100
AcDbDictionary
280
     1
281
     1
  3
ACAD_XREC_ROUNDTRIP
360
2B54
  0
DICTIONARY
  5
2B69
330
2B0B
100
AcDbDictionary
280
     1
281
     1
  3
ACAD_XREC_ROUNDTRIP
360
2B6A
  0
DICTIONARY
  5
2B67
330
2B0A
100
AcDbDictionary
280
     1
281
     1
  3
ACAD_XREC_ROUNDTRIP
360
2B68
  0
DICTIONARY
  5
2B61
330
2B07
100
AcDbDictionary
280
     1
281
     1
  3
ACAD_XREC_ROUNDTRIP
360
2B62
  0
DICTIONARY
  5
2B63
330
2B08
100
AcDbDictionary
280
     1
281
     1
  3
ACAD_XREC_ROUNDTRIP
360
2B64
  0
DICTIONARY
  5
2B59
330
2B03
100
AcDbDictionary
280
     1
281
     1
  3
ACAD_XREC_ROUNDTRIP
360
2B5A
  0
DICTIONARY
  5
2B4D
330
2AFD
100
AcDbDictionary
280
     1
281
     1
  3
ACAD_XREC_ROUNDTRIP
360
2B4E
  0
DICTIONARY
  5
2B65
330
2B09
100
AcDbDictionary
280
     1
281
     1
  3
ACAD_XREC_ROUNDTRIP
360
2B66
  0
XRECORD
  5
2B3A
102
{ACAD_REACTORS
330
227
102
}
330
227
100
AcDbXrecord
280
     1
102
SHADEPLOT
 70
     0
102
SHADEPLOTRESLEVEL
 70
     2
102
SHADEPLOTCUSTOMDPI
 70
   300
  0
XRECORD
  5
228
102
{ACAD_REACTORS
330
227
102
}
330
227
100
AcDbXrecord
280
     1
310
28000000B40000007F00000001000800000000004C59000000000000000000000001000000000000FFFFFF0000000000FFFFFF000000000000000000000000000000000000000000000000000000000000000000330000006600000099000000CC000000FF00000000330000333300006633000099330000CC330000FF3300
310
0000660000336600006666000099660000CC660000FF66000000990000339900006699000099990000CC990000FF99000000CC000033CC000066CC000099CC0000CCCC0000FFCC000000FF000033FF000066FF000099FF0000CCFF0000FFFF000000003300330033006600330099003300CC003300FF003300003333003333
310
33006633330099333300CC333300FF33330000663300336633006666330099663300CC663300FF66330000993300339933006699330099993300CC993300FF99330000CC330033CC330066CC330099CC3300CCCC3300FFCC330000FF330033FF330066FF330099FF3300CCFF3300FFFF330000006600330066006600660099
310
006600CC006600FF00660000336600333366006633660099336600CC336600FF33660000666600336666006666660099666600CC666600FF66660000996600339966006699660099996600CC996600FF99660000CC660033CC660066CC660099CC6600CCCC6600FFCC660000FF660033FF660066FF660099FF6600CCFF6600
310
FFFF660000009900330099006600990099009900CC009900FF00990000339900333399006633990099339900CC339900FF33990000669900336699006666990099669900CC669900FF66990000999900339999006699990099999900CC999900FF99990000CC990033CC990066CC990099CC9900CCCC9900FFCC990000FF99
310
0033FF990066FF990099FF9900CCFF9900FFFF99000000CC003300CC006600CC009900CC00CC00CC00FF00CC000033CC003333CC006633CC009933CC00CC33CC00FF33CC000066CC003366CC006666CC009966CC00CC66CC00FF66CC000099CC003399CC006699CC009999CC00CC99CC00FF99CC0000CCCC0033CCCC0066CC
310
CC0099CCCC00CCCCCC00FFCCCC0000FFCC0033FFCC0066FFCC0099FFCC00CCFFCC00FFFFCC000000FF003300FF006600FF009900FF00CC00FF00FF00FF000033FF003333FF006633FF009933FF00CC33FF00FF33FF000066FF003366FF006666FF009966FF00CC66FF00FF66FF000099FF003399FF006699FF009999FF00CC
310
99FF00FF99FF0000CCFF0033CCFF0066CCFF0099CCFF00CCCCFF00FFCCFF0000FFFF0033FFFF0066FFFF0099FFFF00CCFFFF00FFFFFF00000000000D0D0D001A1A1A00282828003535350043434300505050005D5D5D006B6B6B00787878008686860093939300A1A1A100AEAEAE00BBBBBB00C9C9C900D6D6D600E4E4E400
310
F1F1F100FFFFFF0000000000000000000000000000000000000000000000000000000000000000000000000000000000E2E2E2E2E2E2E2E2E2E2E2E2E2E2E2E2E2E2E2E2E2E2E2E2E2E2E2E2E2E2E2E2E2E2E2E2E2E2E2E2E2E2E2E2E2E2E2E2E2E2E2E2E2E2E2E2E2E2E2E2E2E2E2E2E2E2E2E2E2E2E2E2E2E2E2E2E2E2E2
310
E2E2E2E2E2E2E2E2E2E2E2E2E2E2E2E2E2E2E2E2E2E2E2E2E2E2E2E2E2E2E2E2E2E2E2E2E2E2E2E2E2E2E2E2E2E2E2E2E2E2E2E2E2E2E2E2E2E2E2E2E2E2E2E2E2E2E2E2E2E2E2E2E2E2E2E2E2E2E2E2E2E2E2E2E2E2E2E2E2E2E2E2E2E2E2E2E2E2E2E2E2E2F5F5F5F5F5F5F5F5F5F5F5F5F5F5F5F5F5F5F5F5F5F5F5F5F5
310
F5F5F5F5F5F5F5F5F5F5F5F5F5F5F5F5F5F5F5F5F5F5F5F5F5F5F5F5F5F5F5F5F5F5F5F5F5F5F5F5F5F5F5F5F5F5F5F5F5F5F5F5F5F5F5F5F5F5F5F5F5F5F5F5F5F5F5F5F5F5F5F5F5F5F5F5F5F5F5F5F5F5F5F5F5F5F5F5F5F5F5F5F5F5F5F5F5F5F5F5F5F5F5F5F5F5F5F5F5F5F5F5F5F5F5F5F5F5F5F5F5F5F5F5F5F5F5
310
F5F5F5F5F5F5F5F5F5F5F5F5F5F5F5F5F5F5F5F5F5F5F5F5F5E2E2E2F5F5F5F5F5F5F5F5F5F5F5F5F5F5F5F5F5F5F5F5F5F5F5F5F5F5F5F5F5F5F5F5F5F5F5F5F5F5F5F5F5F5F5F5F5F5F5F5F5F5F5F5F5F5F5F5F5F5F5F5F5F5F5F5F5F5F5F5F5F5F5F5F5F5F5F5F5F5F5F5F5F5F5F5F5F5F5F5F5F5F5F5F5F5F5F5F5F5F5
310
F5F5F5F5F5F5F5F5F5F5F5F5F5F5F5F5F5F5F5F5F5F5F5F5F5F5F5F5F5F5F5F5F5F5F5F5F5F5F5F5F5F5F5F5F5F5F5F5F5F5F5F5F5F5F5F5F5F5F5F5F5F5F5F5F5F5F5F5F5F5F5F5F5F5F5F5F5F5E2E2E2F5F5F5F5F5F5F5F5F5F5F5F5F5F5F5F5F5F5F5F5F5F5F5F5F5F5F5F5F5F5F5F5F5F5F5F5F5F5F5F5F5F5F5F5F5F5
310
F5F5F5F5F5F5F5F5F5F5F5F5F5F5F5F5F5F5F5F5F5F5F5F5F5F5F5F5F5F5F5F5F5F5F5F5F5F5F5F5F5F5F5F5F5F5F5F5F5F5F5F5F5F5F5F5F5F5F5F5F5F5F5F5F5F5F5F5F5F5F5F5F5F5F5F5F5F5F5F5F5F5F5F5F5F5F5F5F5F5F5F5F5F5F5F5F5F5F5F5F5F5F5F5F5F5F5F5F5F5F5F5F5F5F5F5F5F5F5F5F5F5F5F5F5F5F5
310
F5F5F5F5E2E2E2F5F5F5F5F5F5F5F5F5F5F5F5F5F5F5F5F5F5F5F5F5F5F5F5F5F5F5F5F5F5F5F5F5F5F5F5F5F5F5F5F5F5F5F5F5F5F5F5F5F5F5F5F5F5F5F5F5F5F5F5F5F5F5F5F5F5F5F5F5F5F5F5F5F5F5F5F5F5F5F5F5F5F5F5F5F5F5F5F5F5F5F5F5F5F5F5F5F5F5F5F5F5F5F5F5F5F5F5F5F5F5F5F5F5F5F5F5F5F5F5
310
F5F5F5F5F5F5F5F5F5F5F5F5F5F5F5F5F5F5F5F5F5F5F5F5F5F5F5F5F5F5F5F5F5F5F5F5F5F5F5F5F5F5F5F5F5F5F5F5F5F5F5F5F5F5F5F5F5E2E2E2F5F5F5F5F5F5F5F5F5F5F5E2E2E2E2E2E2E2E2E2F5F5F5F5F5F5F5F5F5E2E2E2E2E2E2E2E2E2E2E2E2E2E2E2E2F5F5F5F5F5F5F5F5F5F5E2E2E2E2E2E2E2E2E2E2E2E2
310
E2E2E2E2F5F5F5F5F5F5F5F5F5E2E2E2E2E2E2E2E2E2E2E2E2E2E2E2E2E2F5F5F5F5F5F5F5F5F5E2E2E2E2E2E2E2E2E2E2E2E2E2E2E2E2F5F5F5F5F5F5F5F5F5F5E2E2E2E2E2E2E2E2E2E2E2E2E2E2E2E2F5F5F5F5F5F5F5F5F5E2E2E2E2E2E2E2E2E2F5F5F5F5F5F5F5F5F5F5F5E2E2E2F5F5F5F5F5F5F5F5F5F5F5E2F5F5
310
F5F5F5F5F5F5F5F5F5F5F5F5F5F5F5F5F5F5F5F5F5F5F5F5F5F5F5F5F5F5F5F5F5F5F5F5F5F5F5F5F5F5F5F5F5F5F5F5F5F5F5F5F5F5F5F5F5F5F5F5F5F5F5F5F5F5F5F5F5F5F5F5F5F5F5F5F5F5F5F5F5F5F5F5F5F5F5F5F5F5F5F5F5F5F5F5F5F5F5F5F5F5F5F5F5F5F5F5F5F5F5F5F5F5F5F5F5F5F5F5F5F5F5F5F5F5F5
310
F5F5F5F5F5F5F5F5F5F5F5F5F5F5F5F5F5F5F5F5F5F5F5F5E2F5F5F5F5F5F5F5F5F5F5F5E2E2E2F5F5F5F5F5F5F5F5F5F5F5E2F5F5F5F5F5F5F5F5F5F5F5F5F5F5F5F5F5F5F5F5F5F5F5F5F5F5F5F5F5F5F5F5F5F5F5F5F5F5F5F5F5F5F5F5F5F5F5F5F5F5F5F5F5F5F5F5F5F5F5F5F5F5F5F5F5F5F5F5F5F5F5F5F5F5F5F5
310
F5F5F5F5F5F5F5F5F5F5F5F5F5F5F5F5F5F5F5F5F5F5F5F5F5F5F5F5F5F5F5F5F5F5F5F5F5F5F5F5F5F5F5F5F5F5F5F5F5F5F5F5F5F5F5F5F5F5F5F5F5F5F5F5F5F5F5F5F5F5F5F5F5F5F5F5F5E2F5F5F5F5F5F5F5F5F5F5F5E2E2E2F5F5F5F5F5F5F5F5F5F5F5E2F5F5F5F5F5F5F5F5F5F5F5F5F5F5F5F5F5F5F5F5F5F5F5
310
F5F5F5F5F5F5F5F5F5F5F5F5F5F5F5F5F5F5F5F5F5F5F5F5F5F5F5F5F5F5F5F5F5F5F5F5F5F5F5F5F5F5F5F5F5F5F5F5F5F5F5F5F5F5F5F5F5F5F5F5F5F5F5F5F5F5F5F5F5F5F5F5F5F5F5F5F5F5F5F5F5F5F5F5F5F5F5F5F5F5F5F5F5F5F5F5F5F5F5F5F5F5F5F5F5F5F5F5F5F5F5F5F5F5F5F5F5F5F5F5F5F5F5F5F5F5F5
310
F5F5F5E2F5F5F5F5F5F5F5F5F5F5F5E2E2E2F5F5F5F5F5F5F5F5F5F5F5E2F5F5F5F5F5F5F5F5F5F5F5F5F5F5F5F5F5F5F5F5F5F5F5F5F5F5F5F5F5F5F5F5F5F5F5F5F5F5F5F5F5F5F5F5F5F5F5F5F5F5F5F5F5F5F5F5F5F5F5F5F5F5F5F5F5F5F5F5F5F5F5F5F5F5F5F5F5F5F5F5F5F5F5F5F5F5F5F5F5F5F5F5F5F5F5F5F5
310
F5F5F5F5F5F5F5F5F5F5F5F5F5F5F5F5F5F5F5F5F5F5F5F5F5F5F5F5F5F5F5F5F5F5F5F5F5F5F5F5F5F5F5F5F5F5F5F5F5F5F5F5F5F5F5F5E2F5F5F5F5F5F5F5F5F5F5F5E2E2E2F5F5F5F5F5F5F5F5F5F5F5E2F5F5F5F5F5F5F5F5F5F5F5F5F5F5F5F5F5F5F5F5F5F5F5F5F5F5F5F5F5F5F5F5F5F5F5F5F5F5F5F5F5F5F5F5
310
F5F5F5F5F5F5F5F5F5F5F5F5F5F5F5F5F5F5F5F5F5F5F5F5F5F5F5F5F5F5F5F5F5F5F5F5F5F5F5F5F5F5F5F5F5F5F5F5F5F5F5F5F5F5F5F5F5F5F5F5F5F5F5F5F5F5F5F5F5F5F5F5F5F5F5F5F5F5F5F5F5F5F5F5F5F5F5F5F5F5F5F5F5F5F5F5F5F5F5F5F5F5F5F5F5F5F5F5F5E2F5F5F5F5F5F5F5F5F5F5F5E2E2E2F5F5F5
310
F5F5F5F5F5F5F5F5E2F5F5F5F5F5F5F5F5F5F5F5F5F5F5F5F5F5F5F5F5F5F5F5F5F5F5F5F5F5F5F5F5F5F5F5F5F5F5F5F5F5F5F5F5F5F5F5F5F5F5F5F5F5F5F5F5F5F5F5F5F5F5F5F5F5F5F5F5F5F5F5F5F5F5F5F5F5F5F5F5F5F5F5F5F5F5F5F5F5F5F5F5F5F5F5F5F5F5F5F5F5F5F5F5F5F5F5F5F5F5F5F5F5F5F5F5F5F5
310
F5F5F5F5F5F5F5F5F5F5F5F5F5F5F5F5F5F5F5F5F5F5F5F5F5F5F5F5F5F5F5F5F5F5F5E2F5F5F5F5F5F5F5F5F5F5F5E2E2E2F5F5F5F5F5F5F5F5F5F5F5E2F5F5F5F5F5F5F5F5F5F5F5F5F5F5F5F5F5F5F5F5F5F5F5F5F5F5F5F5F5F5F5F5F5F5F5F5F5F5F5F5F5F5F5F5F5F5F5F5F5F5F5F5F5F5F5F5F5F5F5F5F5F5F5F5F5
310
F5F5F5F5F5F5F5F5F5F5F5F5F5F5F5F5F5F5F5F5F5F5F5F5F5F5F5F5F5F5F5F5F5F5F5F5F5F5F5F5F5F5F5F5F5F5F5F5F5F5F5F5F5F5F5F5F5F5F5F5F5F5F5F5F5F5F5F5F5F5F5F5F5F5F5F5F5F5F5F5F5F5F5F5F5F5F5F5E2F5F5F5F5F5F5F5F5F5F5F5E2E2E2F5F5F5F5F5F5F5F5F5F5F5F5F5F5F5F5F5F5F5F5F5F5F5F5
310
F5F5F5F5F5F5F5F5F5F5F5F5F5F5F5F5F5F5F5F5F5F5F5F5F5F5F5F5F5F5F5F5F5F5F5F5F5F5F5F5F5F5F5F5F5F5F5F5F5F5F5F5F5F5F5F5F5F5F5F5F5F5F5F5F5F5F5F5F5F5F5F5F5F5F5F5F5F5F5F5F5F5F5F5F5F5F5F5F5F5F5F5F5F5F5F5F5F5F5F5F5F5F5F5F5F5F5F5F5F5F5F5F5F5F5F5F5F5F5F5F5F5F5F5F5F5F5
310
F5F5F5F5F5F5F5F5F5F5F5F5F5F5F5F5F5F5F5F5F5F5F5F5F5F5E2E2E2F5F5F5F5F5F5F5F5F5F5F5F5F5F5F5F5F5F5F5F5F5F5F5F5F5F5F5F5F5F5F5F5F5F5F5F5F5F5F5F5F5F5F5F5F5F5F5F5F5F5F5F5F5F5F5F5F5F5F5F5F5F5F5F5F5F5F5F5F5F5F5F5F5F5F5F5F5F5F5F5F5F5F5F5F5F5F5F5F5F5F5F5F5F5F5F5F5F5
310
F5F5F5F5F5F5F5F5F5F5F5F5F5F5F5F5F5F5F5F5F5F5F5F5F5F5F5F5F5F5F5F5F5F5F5F5F5F5F5F5F5F5F5F5F5F5F5F5F5F5F5F5F5F5F5F5F5F5F5F5F5F5F5F5F5F5F5F5F5F5F5F5F5F5F5F5F5F5F5E2E2E2F5F5F5F5F5F5F5F5F5F5F5F5F5F5F5F5F5F5F5F5F5F5F5F5F5F5F5F5F5F5F5F5F5F5F5F5F5F5F5F5F5F5F5F5F5
310
F5F5F5F5F5F5F5F5F5F5F5F5F5F5F5F5F5F5F5F5F5F5F5F5F5F5F5F5F5F5F5F5F5F5F5F5F5F5F5F5F5F5F5F5F5F5F5F5F5F5F5F5F5F5F5F5F5F5F5F5F5F5F5F5F5F5F5F5F5F5F5F5F5F5F5F5F5F5F5F5F5F5F5F5F5F5F5F5F5F5F5F5F5F5F5F5F5F5F5F5F5F5F5F5F5F5F5F5F5F5F5F5F5F5F5F5F5F5F5F5F5F5F5F5F5F5F5
310
F5F5F5F5F5E2E2E2F5F5F5F5F5F5F5F5F5F5F5F5F5F5F5F5F5F5F5F5F5F5F5F5F5F5F5F5F5F5F5F5F5F5F5F5F5F5F5F5F5F5F5F5F5F5F5F5F5F5F5F5F5F5F5F5F5F5F5F5F5F5F5F5F5F5F5F5F5F5F5F5F5F5F5F5F5F5F5F5F5F5F5F5F5F5F5F5F5F5F5F5F5F5F5F5F5F5F5F5F5F5F5F5F5F5F5F5F5F5F5F5F5F5F5F5F5F5F5
310
F5F5F5F5F5F5F5F5F5F5F5F5F5F5F5F5F5F5F5F5F5F5F5F5F5F5F5F5F5F5F5F5F5F5F5F5F5F5F5F5F5F5F5F5F5F5F5F5F5F5F5F5F5F5F5F5F5F5E2E2E2F5F5F5F5F5F5F5F5F5F5F5F5F5F5F5F5F5F5F5F5F5F5F5F5F5F5F5F5F5F5F5F5F5F5F5F5F5F5F5F5F5F5F5F5F5F5F5F5F5F5F5F5F5F5F5F5F5F5F5F5F5F5F5F5F5F5
310
F5F5F5F5F5F5F5F5F5F5F5F5F5F5F5F5F5F5F5F5F5F5F5F5F5F5F5F5F5F5F5F5F5F5F5F5F5F5F5F5F5F5F5F5F5F5F5F5F5F5F5F5F5F5F5F5F5F5F5F5F5F5F5F5F5F5F5F5F5F5F5F5F5F5F5F5F5F5F5F5F5F5F5F5F5F5F5F5F5F5F5F5F5F5F5F5F5F5F5F5F5F5F5F5F5F5F5F5F5F5F5E2E2E2F5F5F5F5F5F5F5F5F5F5F5F5F5
310
F5F5F5F5F5F5F5F5F5F5F5F5F5F5F5F5F5F5F5F5F5F5F5F5F5F5F5F5F5F5F5F5F5F5F5F5F5F5F5F5F5F5F5F5F5F5F5F5F5F5F5F5F5F5F5F5F5F5F5F5F5F5F5F5F5F5F5F5F5F5F5F5F5F5F5F5F5F5F5F5F5F5F5F5F5F5F5F5F5F5F5F5F5F5F5F5F5F5F5F5F5F5F5F5F5F5F5F5F5F5F5F5F5F5F5F5F5F5F5F5F5F5F5F5F5F5F5
310
F5F5F5F5F5F5F5F5F5F5F5F5F5F5F5F5F5F5F5F5F5F5F5F5F5F5F5F5F5F5F5F5F5F5F5F5F5E2E2E2F5F5F5F5F5F5F5F5F5F5F5F5F5F5F5F5F5F5F5F5F5F5F5F5F5F5F5F5F5F5F5F5F5F5F5F5F5F5F5F5F5F5F5F5F5F5F5F5F5F5F5F5F5F5F5F5F5F5F5F5F5F5F5F5F5F5F5F5F5F5F5F5F5F5F5F5F5F5F5F5F5F5F5F5F5F5F5
310
F5F5F5F5F5F5F5F5F5F5F5F5F5F5F5F5F5F5F5F5F5F5F5F5F5F5F5F5F5F5F5F5F5F5F5F5F5F5F5F5F5F5F5F5F5F5F5F5F5F5F5F5F5F5F5F5F5F5F5F5F5F5F5F5F5F5F5F5F5F5F5F5F5F5F5F5F5F5F5F5F5F5F5F5F5F5F5F5F5F5E2E2E2F5F5F5F5F5F5F5F5F5F5F5F5F5F5F5F5F5F5F5F5F5F5F5F5F5F5F5F5F5F5F5F5F5F5
310
F5F5F5F5F5F5F5F5F5F5F5F5F5F5F5F5F5F5F5F5F5F5F5F5F5F5F5F5F5F5F5F5F5F5F5F5F5F5F5F5F5F5F5F5F5F5F5F5F5F5F5F5F5F5F5F5F5F5F5F5F5F5F5F5F5F5F5F5F5F5F5F5F5F5F5F5F5F5F5F5F5F5F5F5F5F5F5F5F5F5F5F5F5F5F5F5F5F5F5F5F5F5F5F5F5F5F5F5F5F5F5F5F5F5F5F5F5F5F5F5F5F5F5F5F5F5F5
310
F5F5F5F5F5F5F5F5F5F5F5F5F5F5F5F5E2E2E2F5F5F5F5F5F5F5F5F5F5F5E2F5F5F5F5F5F5F5F5F5F5F5F5F5F5F5F5F5F5F5F5F5F5F5F5F5F5F5F5F5F5F5F5F5F5F5F5F5F5F5F5F5F5F5F5F5F5F5F5F5F5F5F5F5F5F5F5F5F5F5F5F5F5F5F5F5F5F5F5F5F5F5F5F5F5F5F5F5F5F5F5F5F5F5F5F5F5F5F5F5F5F5F5F5F5F5F5
310
F5F5F5F5F5F5F5F5F5F5F5F5F5F5F5F5F5F5F5F5F5F5F5F5F5F5F5F5F5F5F5F5F5F5F5F5F5F5F5F5F5F5F5F5F5F5F5F5F5F5F5F5F5F5F5F5F5E2F5F5F5F5F5F5F5F5F5F5F5E2E2E2F5F5F5F5F5F5F5F5F5F5F5E2F5F5F5F5F5F5F5F5F5F5F5F5F5F5F5F5F5F5F5F5F5F5F5F5F5F5F5F5F5F5F5F5F5F5F5F5F5F5F5F5F5F5F5
310
F5F5F5F5F5F5F5F5F5F5F5F5F5F5F5F5F5F5F5F5F5F5F5F5F5F5F5F5F5F5F5F5F5F5F5F5F5F5F5F5F5F5F5F5F5F5F5F5F5F5F5F5F5F5F5F5F5F5F5F5F5F5F5F5F5F5F5F5F5F5F5F5F5F5F5F5F5F5F5F5F5F5F5F5F5F5F5F5F5F5F5F5F5F5F5F5F5F5F5F5F5F5F5F5F5F5F5F5F5F5E2F5F5F5F5F5F5F5F5F5F5F5E2E2E2F5F5
310
F5F5F5F5F5F5F5F5F5E2F5F5F5F5F5F5F5F5F5F5F5F5F5F5F5F5F5F5F5F5F5F5F5F5F5F5F5F5F5F5F5F5F5F5F5F5F5F5F5F5F5F5F5F5F5F5F5F5F5F5F5F5F5F5F5F5F5F5F5F5F5F5F5F5F5F5F5F5F5F5F5F5F5F5F5F5F5F5F5F5F5F5F5F5F5F5F5F5F5F5F5F5F5F5F5F5F5F5F5F5F5F5F5F5F5F5F5F5F5F5F5F5F5F5F5F5F5
310
F5F5F5F5F5F5F5F5F5F5F5F5F5F5F5F5F5F5F5F5F5F5F5F5F5F5F5F5F5F5F5F5F5F5F5F5E2F5F5F5F5F5F5F5F5F5F5F5E2E2E2F5F5F5F5F5F5F5F5F5F5F5E2F5F5F5F5F5F5F5F5F5F5F5F5F5F5F5F5F5F5F5F5F5F5F5F5F5F5F5F5F5F5F5F5F5F5F5F5F5F5F5F5F5F5F5F5F5F5F5F5F5F5F5F5F5F5F5F5F5F5F5F5F5F5F5F5
310
F5F5F5F5F5F5F5F5F5F5F5F5F5F5F5F5F5F5F5F5F5F5F5F5F5F5F5F5F5F5F5F5F5F5F5F5F5F5F5F5F5F5F5F5F5F5F5F5F5F5F5F5F5F5F5F5F5F5F5F5F5F5F5F5F5F5F5F5F5F5F5F5F5F5F5F5F5F5F5F5F5F5F5F5F5F5F5F5F5E2F5F5F5F5F5F5F5F5F5F5F5E2E2E2F5F5F5F5F5F5F5F5F5F5F5E2F5F5F5F5F5F5F5F5F5F5F5
310
F5F5F5F5F5F5F5F5F5F5F5F5F5F5F5F5F5F5F5F5F5F5F5F5F5F5F5F5F5F5F5F5F5F5F5F5F5F5F5F5F5F5F5F5F5F5F5F5F5F5F5F5F5F5F5F5F5F5F5F5F5F5F5F5F5F5F5F5F5F5F5F5F5F5F5F5F5F5F5F5F5F5F5F5F5F5F5F5F5F5F5F5F5F5F5F5F5F5F5F5F5F5F5F5F5F5F5F5F5F5F5F5F5F5F5F5F5F5F5F5F5F5F5F5F5F5F5
310
F5F5F5F5F5F5F5F5F5F5F5F5F5F5F5E2F5F5F5F5F5F5F5F5F5F5F5E2E2E2F5F5F5F5F5F5F5F5F5F5F5E2F5F5F5F5F5F5F5F5F5F5F5F5F5F5F5F5F5F5F5F5F5F5F5F5F5F5F5F5F5F5F5F5F5F5F5F5F5F5F5F5F5F5F5F5F5F5F5F5F5F5F5F5F5F5F5F5F5F5F5F5F5F5F5F5F5F5F5F5F5F5F5F5F5F5F5F5F5F5F5F5F5F5F5F5F5
310
F5F5F5F5F5F5F5F5F5F5F5F5F5F5F5F5F5F5F5F5F5F5F5F5F5F5F5F5F5F5F5F5F5F5F5F5F5F5F5F5F5F5F5F5F5F5F5F5F5F5F5F5F5F5F5F5F5F5F5F5F5F5F5F5F5F5F5F5E2F5F5F5F5F5F5F5F5F5F5F5E2E2E2F5F5F5F5F5F5F5F5F5F5F5E2F5F5F5F5F5F5F5F5F5F5F5F5F5F5F5F5F5F5F5F5F5F5F5F5F5F5F5F5F5F5F5F5
310
F5F5F5F5F5F5F5F5F5F5F5F5F5F5F5F5F5F5F5F5F5F5F5F5F5F5F5F5F5F5F5F5F5F5F5F5F5F5F5F5F5F5F5F5F5F5F5F5F5F5F5F5F5F5F5F5F5F5F5F5F5F5F5F5F5F5F5F5F5F5F5F5F5F5F5F5F5F5F5F5F5F5F5F5F5F5F5F5F5F5F5F5F5F5F5F5F5F5F5F5F5F5F5F5F5F5F5F5F5F5F5F5F5F5F5F5F5F5F5F5F5E2F5F5F5F5F5
310
F5F5F5F5F5F5E2E2E2F5F5F5F5F5F5F5F5F5F5F5E2F5F5F5F5F5F5F5F5F5F5F5F5F5F5F5F5F5F5F5F5F5F5F5F5F5F5F5F5F5F5F5F5F5F5F5F5F5F5F5F5F5F5F5F5F5F5F5F5F5F5F5F5F5F5F5F5F5F5F5F5F5F5F5F5F5F5F5F5F5F5F5F5F5F5F5F5F5F5F5F5F5F5F5F5F5F5F5F5F5F5F5F5F5F5F5F5F5F5F5F5F5F5F5F5F5F5
310
F5F5F5F5F5F5F5F5F5F5F5F5F5F5F5F5F5F5F5F5F5F5F5F5F5F5F5F5F5F5F5F5F5F5F5F5F5F5F5F5F5F5F5F5F5F5F5E2F5F5F5F5F5F5F5F5F5F5F5E2E2E2F5F5F5F5F5F5F5F5F5F5F5E2F5F5F5F5F5F5F5F5F5F5F5F5F5F5F5F5F5F5F5F5F5F5F5F5F5F5F5F5F5F5F5F5F5F5F5F5F5F5F5F5F5F5F5F5F5F5F5F5F5F5F5F5F5
310
F5F5F5F5F5F5F5F5F5F5F5F5F5F5F5F5F5F5F5F5F5F5F5F5F5F5F5F5F5F5F5F5F5F5F5F5F5F5F5F5F5F5F5F5F5F5F5F5F5F5F5F5F5F5F5F5F5F5F5F5F5F5F5F5F5F5F5F5F5F5F5F5F5F5F5F5F5F5F5F5F5F5F5F5F5F5F5F5F5F5F5F5F5F5F5F5F5F5F5F5E2F5F5F5F5F5F5F5F5F5F5F5E2E2E2F5F5F5F5F5F5F5F5F5F5F5E2
310
F5F5F5F5F5F5F5F5F5F5F5F5F5F5F5F5F5F5F5F5F5F5F5F5F5F5F5F5F5F5F5F5F5F5F5F5F5F5F5F5F5F5F5F5F5F5F5F5F5F5F5F5F5F5F5F5F5F5F5F5F5F5F5F5F5F5F5F5F5F5F5F5F5F5F5F5F5F5F5F5F5F5F5F5F5F5F5F5F5F5F5F5F5F5F5F5F5F5F5F5F5F5F5F5F5F5F5F5F5F5F5F5F5F5F5F5F5F5F5F5F5F5F5F5F5F5F5
310
F5F5F5F5F5F5F5F5F5F5F5F5F5F5F5F5F5F5F5F5F5F5F5F5F5F5E2F5F5F5F5F5F5F5F5F5F5F5E2E2E2F5F5F5F5F5F5F5F5F5F5F5E2F5F5F5F5F5F5F5F5F5F5F5F5F5F5F5F5F5F5F5F5F5F5F5F5F5F5F5F5F5F5F5F5F5F5F5F5F5F5F5F5F5F5F5F5F5F5F5F5F5F5F5F5F5F5F5F5F5F5F5F5F5F5F5F5F5F5F5F5F5F5F5F5F5F5
310
F5F5F5F5F5F5F5F5F5F5F5F5F5F5F5F5F5F5F5F5F5F5F5F5F5F5F5F5F5F5F5F5F5F5F5F5F5F5F5F5F5F5F5F5F5F5F5F5F5F5F5F5F5F5F5F5F5F5F5F5F5F5F5F5F5F5F5F5F5F5F5F5F5F5F5F5F5F5F5E2F5F5F5F5F5F5F5F5F5F5F5E2E2E2F5F5F5F5F5F5F5F5F5F5F5E2F5F5F5F5F5F5F5F5F5F5F5F5F5F5F5F5F5F5F5F5F5
310
F5F5F5F5F5F5F5F5F5F5F5F5F5F5F5F5F5F5F5F5F5F5F5F5F5F5F5F5F5F5F5F5F5F5F5F5F5F5F5F5F5F5F5F5F5F5F5F5F5F5F5F5F5F5F5F5F5F5F5F5F5F5F5F5F5F5F5F5F5F5F5F5F5F5F5F5F5F5F5F5F5F5F5F5F5F5F5F5F5F5F5F5F5F5F5F5F5F5F5F5F5F5F5F5F5F5F5F5F5F5F5F5F5F5F5F5F5F5F5F5F5F5F5F5F5F5F5
310
F5F5F5F5F5E2F5F5F5F5F5F5F5F5F5F5F5E2E2E2F5F5F5F5F5F5F5F5F5F5F5E2F5F5F5F5F5F5F5F5F5F5F5F5F5F5F5F5F5F5F5F5F5F5F5F5F5F5F5F5F5F5F5F5F5F5F5F5F5F5F5F5F5F5F5F5F5F5F5F5F5F5F5F5F5F5F5F5F5F5F5F5F5F5F5F5F5F5F5F5F5F5F5F5F5F5F5F5F5F5F5F5F5F5F5F5F5F5F5F5F5F5F5F5F5F5F5
310
F5F5F5F5F5F5F5F5F5F5F5F5F5F5F5F5F5F5F5F5F5F5F5F5F5F5F5F5F5F5F5F5F5F5F5F5F5F5F5F5F5F5F5F5F5F5F5F5F5F5F5F5F5F5F5F5F5F5E2F5F5F5F5F5F5F5F5F5F5F5E2E2E2F5F5F5F5F5F5F5F5F5F5F5E2F5F5F5F5F5F5F5F5F5F5F5F5F5F5F5F5F5F5F5F5F5F5F5F5F5F5F5F5F5F5F5F5F5F5F5F5F5F5F5F5F5F5
310
F5F5F5F5F5F5F5F5F5F5F5F5F5F5F5F5F5F5F5F5F5F5F5F5F5F5F5F5F5F5F5F5F5F5F5F5F5F5F5F5F5F5F5F5F5F5F5F5F5F5F5F5F5F5F5F5F5F5F5F5F5F5F5F5F5F5F5F5F5F5F5F5F5F5F5F5F5F5F5F5F5F5F5F5F5F5F5F5F5F5F5F5F5F5F5F5F5F5F5F5F5F5F5F5F5F5F5F5F5F5F5E2F5F5F5F5F5F5F5F5F5F5F5E2E2E2F5
310
F5F5F5F5F5F5F5F5F5F5E2F5F5F5F5F5F5F5F5F5F5F5F5F5F5F5F5F5F5F5F5F5F5F5F5F5F5F5F5F5F5F5F5F5F5F5F5F5F5F5F5F5F5F5F5F5F5F5F5F5F5F5F5F5F5F5F5F5F5F5F5F5F5F5F5F5F5F5F5F5F5F5F5F5F5F5F5F5F5F5F5F5F5F5F5F5F5F5F5F5F5F5F5F5F5F5F5F5F5F5F5F5F5F5F5F5F5F5F5F5F5F5F5F5F5F5F5
310
F5F5F5F5F5F5F5F5F5F5F5F5F5F5F5F5F5F5F5F5F5F5F5F5F5F5F5F5F5F5F5F5F5F5F5F5F5E2F5F5F5F5F5F5F5F5F5F5F5E2E2E2F5F5F5F5F5F5F5F5F5F5F5F5F5F5F5F5F5F5F5F5F5F5F5F5F5F5F5F5F5F5F5F5F5F5F5F5F5F5F5F5F5F5F5F5F5F5F5F5F5F5F5F5F5F5F5F5F5F5F5F5F5F5F5F5F5F5F5F5F5F5F5F5F5F5F5
310
F5F5F5F5F5F5F5F5F5F5F5F5F5F5F5F5F5F5F5F5F5F5F5F5F5F5F5F5F5F5F5F5F5F5F5F5F5F5F5F5F5F5F5F5F5F5F5F5F5F5F5F5F5F5F5F5F5F5F5F5F5F5F5F5F5F5F5F5F5F5F5F5F5F5F5F5F5F5F5F5F5F5F5F5F5F5F5F5F5F5F5F5F5F5F5F5F5F5F5F5F5F5E2E2E2F5F5F5F5F5F5F5F5F5F5F5F5F5F5F5F5F5F5F5F5F5F5
310
F5F5F5F5F5F5F5F5F5F5F5F5F5F5F5F5F5F5F5F5F5F5F5F5F5F5F5F5F5F5F5F5F5F5F5F5F5F5F5F5F5F5F5F5F5F5F5F5F5F5F5F5F5F5F5F5F5F5F5F5F5F5F5F5F5F5F5F5F5F5F5F5F5F5F5F5F5F5F5F5F5F5F5F5F5F5F5F5F5F5F5F5F5F5F5F5F5F5F5F5F5F5F5F5F5F5F5F5F5F5F5F5F5F5F5F5F5F5F5F5F5F5F5F5F5F5F5
310
F5F5F5F5F5F5F5F5F5F5F5F5F5F5F5F5F5F5F5F5F5F5F5F5F5F5F5F5E2E2E2F5F5F5F5F5F5F5F5F5F5F5F5F5F5F5F5F5F5F5F5F5F5F5F5F5F5F5F5F5F5F5F5F5F5F5F5F5F5F5F5F5F5F5F5F5F5F5F5F5F5F5F5F5F5F5F5F5F5F5F5F5F5F5F5F5F5F5F5F5F5F5F5F5F5F5F5F5F5F5F5F5F5F5F5F5F5F5F5F5F5F5F5F5F5F5F5
310
F5F5F5F5F5F5F5F5F5F5F5F5F5F5F5F5F5F5F5F5F5F5F5F5F5F5F5F5F5F5F5F5F5F5F5F5F5F5F5F5F5F5F5F5F5F5F5F5F5F5F5F5F5F5F5F5F5F5F5F5F5F5F5F5F5F5F5F5F5F5F5F5F5F5F5F5F5F5F5F5F5E2E2E2F5F5F5F5F5F5F5F5F5F5F5F5F5F5F5F5F5F5F5F5F5F5F5F5F5F5F5F5F5F5F5F5F5F5F5F5F5F5F5F5F5F5F5
310
F5F5F5F5F5F5F5F5F5F5F5F5F5F5F5F5F5F5F5F5F5F5F5F5F5F5F5F5F5F5F5F5F5F5F5F5F5F5F5F5F5F5F5F5F5F5F5F5F5F5F5F5F5F5F5F5F5F5F5F5F5F5F5F5F5F5F5F5F5F5F5F5F5F5F5F5F5F5F5F5F5F5F5F5F5F5F5F5F5F5F5F5F5F5F5F5F5F5F5F5F5F5F5F5F5F5F5F5F5F5F5F5F5F5F5F5F5F5F5F5F5F5F5F5F5F5F5
310
F5F5F5F5F5F5F5E2E2E2F5F5F5F5F5F5F5F5F5F5F5F5F5F5F5F5F5F5F5F5F5F5F5F5F5F5F5F5F5F5F5F5F5F5F5F5F5F5F5F5F5F5F5F5F5F5F5F5F5F5F5F5F5F5F5F5F5F5F5F5F5F5F5F5F5F5F5F5F5F5F5F5F5F5F5F5F5F5F5F5F5F5F5F5F5F5F5F5F5F5F5F5F5F5F5F5F5F5F5F5F5F5F5F5F5F5F5F5F5F5F5F5F5F5F5F5F5
310
F5F5F5F5F5F5F5F5F5F5F5F5F5F5F5F5F5F5F5F5F5F5F5F5F5F5F5F5F5F5F5F5F5F5F5F5F5F5F5F5F5F5F5F5F5F5F5F5F5F5F5F5F5F5F5F5F5F5F5F5E2E2E2F5F5F5F5F5F5F5F5F5F5F5F5F5F5F5F5F5F5F5F5F5F5F5F5F5F5F5F5F5F5F5F5F5F5F5F5F5F5F5F5F5F5F5F5F5F5F5F5F5F5F5F5F5F5F5F5F5F5F5F5F5F5F5F5
310
F5F5F5F5F5F5F5F5F5F5F5F5F5F5F5F5F5F5F5F5F5F5F5F5F5F5F5F5F5F5F5F5F5F5F5F5F5F5F5F5F5F5F5F5F5F5F5F5F5F5F5F5F5F5F5F5F5F5F5F5F5F5F5F5F5F5F5F5F5F5F5F5F5F5F5F5F5F5F5F5F5F5F5F5F5F5F5F5F5F5F5F5F5F5F5F5F5F5F5F5F5F5F5F5F5F5F5F5F5F5F5F5F5E2E2E2F5F5F5F5F5F5F5F5F5F5F5
310
F5F5F5F5F5F5F5F5F5F5F5F5F5F5F5F5F5F5F5F5F5F5F5F5F5F5F5F5F5F5F5F5F5F5F5F5F5F5F5F5F5F5F5F5F5F5F5F5F5F5F5F5F5F5F5F5F5F5F5F5F5F5F5F5F5F5F5F5F5F5F5F5F5F5F5F5F5F5F5F5F5F5F5F5F5F5F5F5F5F5F5F5F5F5F5F5F5F5F5F5F5F5F5F5F5F5F5F5F5F5F5F5F5F5F5F5F5F5F5F5F5F5F5F5F5F5F5
310
F5F5F5F5F5F5F5F5F5F5F5F5F5F5F5F5F5F5F5F5F5F5F5F5F5F5F5F5F5F5F5F5F5F5F5F5F5F5F5E2E2E2F5F5F5F5F5F5F5F5F5F5F5F5F5F5F5F5F5F5F5F5F5F5F5F5F5F5F5F5F5F5F5F5F5F5F5F5F5F5F5F5F5F5F5F5F5F5F5F5F5F5F5F5F5F5F5F5F5F5F5F5F5F5F5F5F5F5F5F5F5F5F5F5F5F5F5F5F5F5F5F5F5F5F5F5F5
310
F5F5F5F5F5F5F5F5F5F5F5F5F5F5F5F5F5F5F5F5F5F5F5F5F5F5F5F5F5F5F5F5F5F5F5F5F5F5F5F5F5F5F5F5F5F5F5F5F5F5F5F5F5F5F5F5F5F5F5F5F5F5F5F5F5F5F5F5F5F5F5F5F5F5F5F5F5F5F5F5F5F5F5F5F5F5F5F5F5F5F5F5E2E2E2F5F5F5F5F5F5F5F5F5F5F5E2F5F5F5F5F5F5F5F5F5F5F5F5F5F5F5F5F5F5F5F5
310
F5F5F5F5F5F5F5F5F5F5F5F5F5F5F5F5F5F5F5F5F5F5F5F5F5F5F5F5F5F5F5F5F5F5F5F5F5F5F5F5F5F5F5F5F5F5F5F5F5F5F5F5F5F5F5F5F5F5F5F5F5F5F5F5F5F5F5F5F5F5F5F5F5F5F5F5F5F5F5F5F5F5F5F5F5F5F5F5F5F5F5F5F5F5F5F5F5F5F5F5F5F5F5F5F5F5F5F5F5F5F5F5F5F5F5F5F5F5F5F5F5F5F5F5F5F5F5
310
F5F5F5F5F5F5E2F5F5F5F5F5F5F5F5F5F5F5E2E2E2F5F5F5F5F5F5F5F5F5F5F5E2F5F5F5F5F5F5F5F5F5F5F5F5F5F5F5F5F5F5F5F5F5F5F5F5F5F5F5F5F5F5F5F5F5F5F5F5F5F5F5F5F5F5F5F5F5F5F5F5F5F5F5F5F5F5F5F5F5F5F5F5F5F5F5F5F5F5F5F5F5F5F5F5F5F5F5F5F5F5F5F5F5F5F5F5F5F5F5F5F5F5F5F5F5F5
310
F5F5F5F5F5F5F5F5F5F5F5F5F5F5F5F5F5F5F5F5F5F5F5F5F5F5F5F5F5F5F5F5F5F5F5F5F5F5F5F5F5F5F5F5F5F5F5F5F5F5F5F5F5F5F5F5F5F5F5E2F5F5F5F5F5F5F5F5F5F5F5E2E2E2F5F5F5F5F5F5F5F5F5F5F5E2F5F5F5F5F5F5F5F5F5F5F5F5F5F5F5F5F5F5F5F5F5F5F5F5F5F5F5F5F5F5F5F5F5F5F5F5F5F5F5F5F5
310
F5F5F5F5F5F5F5F5F5F5F5F5F5F5F5F5F5F5F5F5F5F5F5F5F5F5F5F5F5F5F5F5F5F5F5F5F5F5F5F5F5F5F5F5F5F5F5F5F5F5F5F5F5F5F5F5F5F5F5F5F5F5F5F5F5F5F5F5F5F5F5F5F5F5F5F5F5F5F5F5F5F5F5F5F5F5F5F5F5F5F5F5F5F5F5F5F5F5F5F5F5F5F5F5F5F5F5F5F5F5F5F5E2F5F5F5F5F5F5F5F5F5F5F5E2E2E2
310
F5F5F5F5F5F5F5F5F5F5F5E2F5F5F5F5F5F5F5F5F5F5F5F5F5F5F5F5F5F5F5F5F5F5F5F5F5F5F5F5F5F5F5F5F5F5F5F5F5F5F5F5F5F5F5F5F5F5F5F5F5F5F5F5F5F5F5F5F5F5F5F5F5F5F5F5F5F5F5F5F5F5F5F5F5F5F5F5F5F5F5F5F5F5F5F5F5F5F5F5F5F5F5F5F5F5F5F5F5F5F5F5F5F5F5F5F5F5F5F5F5F5F5F5F5F5F5
310
F5F5F5F5F5F5F5F5F5F5F5F5F5F5F5F5F5F5F5F5F5F5F5F5F5F5F5F5F5F5F5F5F5F5F5F5F5F5E2F5F5F5F5F5F5F5F5F5F5F5E2E2E2F5F5F5F5F5F5F5F5F5F5F5E2F5F5F5F5F5F5F5F5F5F5F5F5F5F5F5F5F5F5F5F5F5F5F5F5F5F5F5F5F5F5F5F5F5F5F5F5F5F5F5F5F5F5F5F5F5F5F5F5F5F5F5F5F5F5F5F5F5F5F5F5F5F5
310
F5F5F5F5F5F5F5F5F5F5F5F5F5F5F5F5F5F5F5F5F5F5F5F5F5F5F5F5F5F5F5F5F5F5F5F5F5F5F5F5F5F5F5F5F5F5F5F5F5F5F5F5F5F5F5F5F5F5F5F5F5F5F5F5F5F5F5F5F5F5F5F5F5F5F5F5F5F5F5F5F5F5F5F5F5F5F5F5F5F5F5E2F5F5F5F5F5F5F5F5F5F5F5E2E2E2F5F5F5F5F5F5F5F5F5F5F5E2F5F5F5F5F5F5F5F5F5
310
F5F5F5F5F5F5F5F5F5F5F5F5F5F5F5F5F5F5F5F5F5F5F5F5F5F5F5F5F5F5F5F5F5F5F5F5F5F5F5F5F5F5F5F5F5F5F5F5F5F5F5F5F5F5F5F5F5F5F5F5F5F5F5F5F5F5F5F5F5F5F5F5F5F5F5F5F5F5F5F5F5F5F5F5F5F5F5F5F5F5F5F5F5F5F5F5F5F5F5F5F5F5F5F5F5F5F5F5F5F5F5F5F5F5F5F5F5F5F5F5F5F5F5F5F5F5F5
310
F5F5F5F5F5F5F5F5F5F5F5F5F5F5F5F5F5E2F5F5F5F5F5F5F5F5F5F5F5E2E2E2F5F5F5F5F5F5F5F5F5F5F5E2F5F5F5F5F5F5F5F5F5F5F5F5F5F5F5F5F5F5F5F5F5F5F5F5F5F5F5F5F5F5F5F5F5F5F5F5F5F5F5F5F5F5F5F5F5F5F5F5F5F5F5F5F5F5F5F5F5F5F5F5F5F5F5F5F5F5F5F5F5F5F5F5F5F5F5F5F5F5F5F5F5F5F5
310
F5F5F5F5F5F5F5F5F5F5F5F5F5F5F5F5F5F5F5F5F5F5F5F5F5F5F5F5F5F5F5F5F5F5F5F5F5F5F5F5F5F5F5F5F5F5F5F5F5F5F5F5F5F5F5F5F5F5F5F5F5F5F5F5F5F5F5F5F5F5E2F5F5F5F5F5F5F5F5F5F5F5E2E2E2F5F5F5F5F5F5F5F5F5F5F5E2F5F5F5F5F5F5F5F5F5F5F5F5F5F5F5F5F5F5F5F5F5F5F5F5F5F5F5F5F5F5
310
F5F5F5F5F5F5F5F5F5F5F5F5F5F5F5F5F5F5F5F5F5F5F5F5F5F5F5F5F5F5F5F5F5F5F5F5F5F5F5F5F5F5F5F5F5F5F5F5F5F5F5F5F5F5F5F5F5F5F5F5F5F5F5F5F5F5F5F5F5F5F5F5F5F5F5F5F5F5F5F5F5F5F5F5F5F5F5F5F5F5F5F5F5F5F5F5F5F5F5F5F5F5F5F5F5F5F5F5F5F5F5F5F5F5F5F5F5F5F5F5F5F5F5E2F5F5F5
310
F5F5F5F5F5F5F5F5E2E2E2F5F5F5F5F5F5F5F5F5F5F5E2F5F5F5F5F5F5F5F5F5F5F5F5F5F5F5F5F5F5F5F5F5F5F5F5F5F5F5F5F5F5F5F5F5F5F5F5F5F5F5F5F5F5F5F5F5F5F5F5F5F5F5F5F5F5F5F5F5F5F5F5F5F5F5F5F5F5F5F5F5F5F5F5F5F5F5F5F5F5F5F5F5F5F5F5F5F5F5F5F5F5F5F5F5F5F5F5F5F5F5F5F5F5F5F5
310
F5F5F5F5F5F5F5F5F5F5F5F5F5F5F5F5F5F5F5F5F5F5F5F5F5F5F5F5F5F5F5F5F5F5F5F5F5F5F5F5F5F5F5F5F5F5F5F5F5E2F5F5F5F5F5F5F5F5F5F5F5E2E2E2F5F5F5F5F5F5F5F5F5F5F5E2F5F5F5F5F5F5F5F5F5F5F5F5F5F5F5F5F5F5F5F5F5F5F5F5F5F5F5F5F5F5F5F5F5F5F5F5F5F5F5F5F5F5F5F5F5F5F5F5F5F5F5
310
F5F5F5F5F5F5F5F5F5F5F5F5F5F5F5F5F5F5F5F5F5F5F5F5F5F5F5F5F5F5F5F5F5F5F5F5F5F5F5F5F5F5F5F5F5F5F5F5F5F5F5F5F5F5F5F5F5F5F5F5F5F5F5F5F5F5F5F5F5F5F5F5F5F5F5F5F5F5F5F5F5F5F5F5F5F5F5F5F5F5F5F5F5F5F5F5F5F5F5F5F5F5E2F5F5F5F5F5F5F5F5F5F5F5E2E2E2F5F5F5F5F5F5F5F5F5F5
310
F5E2F5F5F5F5F5F5F5F5F5F5F5F5F5F5F5F5F5F5F5F5F5F5F5F5F5F5F5F5F5F5F5F5F5F5F5F5F5F5F5F5F5F5F5F5F5F5F5F5F5F5F5F5F5F5F5F5F5F5F5F5F5F5F5F5F5F5F5F5F5F5F5F5F5F5F5F5F5F5F5F5F5F5F5F5F5F5F5F5F5F5F5F5F5F5F5F5F5F5F5F5F5F5F5F5F5F5F5F5F5F5F5F5F5F5F5F5F5F5F5F5F5F5F5F5F5
310
F5F5F5F5F5F5F5F5F5F5F5F5F5F5F5F5F5F5F5F5F5F5F5F5F5F5F5F5E2F5F5F5F5F5F5F5F5F5F5F5E2E2E2F5F5F5F5F5F5F5F5F5F5F5E2F5F5F5F5F5F5F5F5F5F5F5F5F5F5F5F5F5F5F5F5F5F5F5F5F5F5F5F5F5F5F5F5F5F5F5F5F5F5F5F5F5F5F5F5F5F5F5F5F5F5F5F5F5F5F5F5F5F5F5F5F5F5F5F5F5F5F5F5F5F5F5F5
310
F5F5F5F5F5F5F5F5F5F5F5F5F5F5F5F5F5F5F5F5F5F5F5F5F5F5F5F5F5F5F5F5F5F5F5F5F5F5F5F5F5F5F5F5F5F5F5F5F5F5F5F5F5F5F5F5F5F5F5F5F5F5F5F5F5F5F5F5F5F5F5F5F5F5F5F5F5F5F5F5F5E2F5F5F5F5F5F5F5F5F5F5F5E2E2E2F5F5F5F5F5F5F5F5F5F5F5E2F5F5F5F5F5F5F5F5F5F5F5F5F5F5F5F5F5F5F5
310
F5F5F5F5F5F5F5F5F5F5F5F5F5F5F5F5F5F5F5F5F5F5F5F5F5F5F5F5F5F5F5F5F5F5F5F5F5F5F5F5F5F5F5F5F5F5F5F5F5F5F5F5F5F5F5F5F5F5F5F5F5F5F5F5F5F5F5F5F5F5F5F5F5F5F5F5F5F5F5F5F5F5F5F5F5F5F5F5F5F5F5F5F5F5F5F5F5F5F5F5F5F5F5F5F5F5F5F5F5F5F5F5F5F5F5F5F5F5F5F5F5F5F5F5F5F5F5
310
F5F5F5F5F5F5F5E2F5F5F5F5F5F5F5F5F5F5F5E2E2E2F5F5F5F5F5F5F5F5F5F5F5E2F5F5F5F5F5F5F5F5F5F5F5F5F5F5F5F5F5F5F5F5F5F5F5F5F5F5F5F5F5F5F5F5F5F5F5F5F5F5F5F5F5F5F5F5F5F5F5F5F5F5F5F5F5F5F5F5F5F5F5F5F5F5F5F5F5F5F5F5F5F5F5F5F5F5F5F5F5F5F5F5F5F5F5F5F5F5F5F5F5F5F5F5F5
310
F5F5F5F5F5F5F5F5F5F5F5F5F5F5F5F5F5F5F5F5F5F5F5F5F5F5F5F5F5F5F5F5F5F5F5F5F5F5F5F5F5F5F5F5F5F5F5F5F5F5F5F5F5F5F5F5F5F5F5F5E2F5F5F5F5F5F5F5F5F5F5F5E2E2E2F5F5F5F5F5F5F5F5F5F5F5E2F5F5F5F5F5F5F5F5F5F5F5F5F5F5F5F5F5F5F5F5F5F5F5F5F5F5F5F5F5F5F5F5F5F5F5F5F5F5F5F5
310
F5F5F5F5F5F5F5F5F5F5F5F5F5F5F5F5F5F5F5F5F5F5F5F5F5F5F5F5F5F5F5F5F5F5F5F5F5F5F5F5F5F5F5F5F5F5F5F5F5F5F5F5F5F5F5F5F5F5F5F5F5F5F5F5F5F5F5F5F5F5F5F5F5F5F5F5F5F5F5F5F5F5F5F5F5F5F5F5F5F5F5F5F5F5F5F5F5F5F5F5F5F5F5F5F5F5F5F5F5F5F5F5F5E2F5F5F5F5F5F5F5F5F5F5F5E2E2
310
E2F5F5F5F5F5F5F5F5F5F5F5F5F5F5F5F5F5F5F5F5F5F5F5F5F5F5F5F5F5F5F5F5F5F5F5F5F5F5F5F5F5F5F5F5F5F5F5F5F5F5F5F5F5F5F5F5F5F5F5F5F5F5F5F5F5F5F5F5F5F5F5F5F5F5F5F5F5F5F5F5F5F5F5F5F5F5F5F5F5F5F5F5F5F5F5F5F5F5F5F5F5F5F5F5F5F5F5F5F5F5F5F5F5F5F5F5F5F5F5F5F5F5F5F5F5F5
310
F5F5F5F5F5F5F5F5F5F5F5F5F5F5F5F5F5F5F5F5F5F5F5F5F5F5F5F5F5F5F5F5F5F5F5F5F5F5F5F5F5F5F5F5F5F5F5F5F5F5F5E2E2E2F5F5F5F5F5F5F5F5F5F5F5F5F5F5F5F5F5F5F5F5F5F5F5F5F5F5F5F5F5F5F5F5F5F5F5F5F5F5F5F5F5F5F5F5F5F5F5F5F5F5F5F5F5F5F5F5F5F5F5F5F5F5F5F5F5F5F5F5F5F5F5F5F5
310
F5F5F5F5F5F5F5F5F5F5F5F5F5F5F5F5F5F5F5F5F5F5F5F5F5F5F5F5F5F5F5F5F5F5F5F5F5F5F5F5F5F5F5F5F5F5F5F5F5F5F5F5F5F5F5F5F5F5F5F5F5F5F5F5F5F5F5F5F5F5F5F5F5F5F5F5F5F5F5F5F5F5F5F5F5F5F5F5F5F5F5F5F5F5F5F5F5F5F5F5F5F5F5F5E2E2E2F5F5F5F5F5F5F5F5F5F5F5F5F5F5F5F5F5F5F5F5
310
F5F5F5F5F5F5F5F5F5F5F5F5F5F5F5F5F5F5F5F5F5F5F5F5F5F5F5F5F5F5F5F5F5F5F5F5F5F5F5F5F5F5F5F5F5F5F5F5F5F5F5F5F5F5F5F5F5F5F5F5F5F5F5F5F5F5F5F5F5F5F5F5F5F5F5F5F5F5F5F5F5F5F5F5F5F5F5F5F5F5F5F5F5F5F5F5F5F5F5F5F5F5F5F5F5F5F5F5F5F5F5F5F5F5F5F5F5F5F5F5F5F5F5F5F5F5F5
310
F5F5F5F5F5F5F5F5F5F5F5F5F5F5F5F5F5F5F5F5F5F5F5F5F5F5F5F5F5F5E2E2E2F5F5F5F5F5F5F5F5F5F5F5F5F5F5F5F5F5F5F5F5F5F5F5F5F5F5F5F5F5F5F5F5F5F5F5F5F5F5F5F5F5F5F5F5F5F5F5F5F5F5F5F5F5F5F5F5F5F5F5F5F5F5F5F5F5F5F5F5F5F5F5F5F5F5F5F5F5F5F5F5F5F5F5F5F5F5F5F5F5F5F5F5F5F5
310
F5F5F5F5F5F5F5F5F5F5F5F5F5F5F5F5F5F5F5F5F5F5F5F5F5F5F5F5F5F5F5F5F5F5F5F5F5F5F5F5F5F5F5F5F5F5F5F5F5F5F5F5F5F5F5F5F5F5F5F5F5F5F5F5F5F5F5F5F5F5F5F5F5F5F5F5F5F5F5F5F5F5F5E2E2E2F5F5F5F5F5F5F5F5F5F5F5F5F5F5F5F5F5F5F5F5F5F5F5F5F5F5F5F5F5F5F5F5F5F5F5F5F5F5F5F5F5
310
F5F5F5F5F5F5F5F5F5F5F5F5F5F5F5F5F5F5F5F5F5F5F5F5F5F5F5F5F5F5F5F5F5F5F5F5F5F5F5F5F5F5F5F5F5F5F5F5F5F5F5F5F5F5F5F5F5F5F5F5F5F5F5F5F5F5F5F5F5F5F5F5F5F5F5F5F5F5F5F5F5F5F5F5F5F5F5F5F5F5F5F5F5F5F5F5F5F5F5F5F5F5F5F5F5F5F5F5F5F5F5F5F5F5F5F5F5F5F5F5F5F5F5F5F5F5F5
310
F5F5F5F5F5F5F5F5F5E2E2E2F5F5F5F5F5F5F5F5F5F5F5F5F5F5F5F5F5F5F5F5F5F5F5F5F5F5F5F5F5F5F5F5F5F5F5F5F5F5F5F5F5F5F5F5F5F5F5F5F5F5F5F5F5F5F5F5F5F5F5F5F5F5F5F5F5F5F5F5F5F5F5F5F5F5F5F5F5F5F5F5F5F5F5F5F5F5F5F5F5F5F5F5F5F5F5F5F5F5F5F5F5F5F5F5F5F5F5F5F5F5F5F5F5F5F5
310
F5F5F5F5F5F5F5F5F5F5F5F5F5F5F5F5F5F5F5F5F5F5F5F5F5F5F5F5F5F5F5F5F5F5F5F5F5F5F5F5F5F5F5F5F5F5F5F5F5F5F5F5F5F5F5F5F5F5F5F5F5F5E2E2E2F5F5F5F5F5F5F5F5F5F5F5F5F5F5F5F5F5F5F5F5F5F5F5F5F5F5F5F5F5F5F5F5F5F5F5F5F5F5F5F5F5F5F5F5F5F5F5F5F5F5F5F5F5F5F5F5F5F5F5F5F5F5
310
F5F5F5F5F5F5F5F5F5F5F5F5F5F5F5F5F5F5F5F5F5F5F5F5F5F5F5F5F5F5F5F5F5F5F5F5F5F5F5F5F5F5F5F5F5F5F5F5F5F5F5F5F5F5F5F5F5F5F5F5F5F5F5F5F5F5F5F5F5F5F5F5F5F5F5F5F5F5F5F5F5F5F5F5F5F5F5F5F5F5F5F5F5F5F5F5F5F5F5F5F5F5F5F5F5F5F5F5F5F5F5F5F5F5F5E2E2E2F5F5F5F5F5F5F5F5F5
310
F5F5F5F5F5F5F5F5F5F5F5F5F5F5F5F5F5F5F5F5F5F5F5F5F5F5F5F5F5F5F5F5F5F5F5F5F5F5F5F5F5F5F5F5F5F5F5F5F5F5F5F5F5F5F5F5F5F5F5F5F5F5F5F5F5F5F5F5F5F5F5F5F5F5F5F5F5F5F5F5F5F5F5F5F5F5F5F5F5F5F5F5F5F5F5F5F5F5F5F5F5F5F5F5F5F5F5F5F5F5F5F5F5F5F5F5F5F5F5F5F5F5F5F5F5F5F5
310
F5F5F5F5F5F5F5F5F5F5F5F5F5F5F5F5F5F5F5F5F5F5F5F5F5F5F5F5F5F5F5F5F5F5F5F5F5F5F5F5F5E2E2E2F5F5F5F5F5F5F5F5F5F5F5F5F5F5F5F5F5F5F5F5F5F5F5F5F5F5F5F5F5F5F5F5F5F5F5F5F5F5F5F5F5F5F5F5F5F5F5F5F5F5F5F5F5F5F5F5F5F5F5F5F5F5F5F5F5F5F5F5F5F5F5F5F5F5F5F5F5F5F5F5F5F5F5
310
F5F5F5F5F5F5F5F5F5F5F5F5F5F5F5F5F5F5F5F5F5F5F5F5F5F5F5F5F5F5F5F5F5F5F5F5F5F5F5F5F5F5F5F5F5F5F5F5F5F5F5F5F5F5F5F5F5F5F5F5F5F5F5F5F5F5F5F5F5F5F5F5F5F5F5F5F5F5F5F5F5F5F5F5F5F5F5F5F5F5F5F5F5F5E2E2E2F5F5F5F5F5F5F5F5F5F5F5E2F5F5F5F5F5F5F5F5F5F5F5F5F5F5F5F5F5F5
310
F5F5F5F5F5F5F5F5F5F5F5F5F5F5F5F5F5F5F5F5F5F5F5F5F5F5F5F5F5F5F5F5F5F5F5F5F5F5F5F5F5F5F5F5F5F5F5F5F5F5F5F5F5F5F5F5F5F5F5F5F5F5F5F5F5F5F5F5F5F5F5F5F5F5F5F5F5F5F5F5F5F5F5F5F5F5F5F5F5F5F5F5F5F5F5F5F5F5F5F5F5F5F5F5F5F5F5F5F5F5F5F5F5F5F5F5F5F5F5F5F5F5F5F5F5F5F5
310
F5F5F5F5F5F5F5F5E2F5F5F5F5F5F5F5F5F5F5F5E2E2E2F5F5F5F5F5F5F5F5F5F5F5E2F5F5F5F5F5F5F5F5F5F5F5F5F5F5F5F5F5F5F5F5F5F5F5F5F5F5F5F5F5F5F5F5F5F5F5F5F5F5F5F5F5F5F5F5F5F5F5F5F5F5F5F5F5F5F5F5F5F5F5F5F5F5F5F5F5F5F5F5F5F5F5F5F5F5F5F5F5F5F5F5F5F5F5F5F5F5F5F5F5F5F5F5
310
F5F5F5F5F5F5F5F5F5F5F5F5F5F5F5F5F5F5F5F5F5F5F5F5F5F5F5F5F5F5F5F5F5F5F5F5F5F5F5F5F5F5F5F5F5F5F5F5F5F5F5F5F5F5F5F5F5F5F5F5F5E2F5F5F5F5F5F5F5F5F5F5F5E2E2E2F5F5F5F5F5F5F5F5F5F5F5E2F5F5F5F5F5F5F5F5F5F5F5F5F5F5F5F5F5F5F5F5F5F5F5F5F5F5F5F5F5F5F5F5F5F5F5F5F5F5F5
310
F5F5F5F5F5F5F5F5F5F5F5F5F5F5F5F5F5F5F5F5F5F5F5F5F5F5F5F5F5F5F5F5F5F5F5F5F5F5F5F5F5F5F5F5F5F5F5F5F5F5F5F5F5F5F5F5F5F5F5F5F5F5F5F5F5F5F5F5F5F5F5F5F5F5F5F5F5F5F5F5F5F5F5F5F5F5F5F5F5F5F5F5F5F5F5F5F5F5F5F5F5F5F5F5F5F5F5F5F5F5F5F5F5F5E2F5F5F5F5F5F5F5F5F5F5F5E2
310
E2E2F5F5F5F5F5F5F5F5F5F5F5E2F5F5F5F5F5F5F5F5F5F5F5F5F5F5F5F5F5F5F5F5F5F5F5F5F5F5F5F5F5F5F5F5F5F5F5F5F5F5F5F5F5F5F5F5F5F5F5F5F5F5F5F5F5F5F5F5F5F5F5F5F5F5F5F5F5F5F5F5F5F5F5F5F5F5F5F5F5F5F5F5F5F5F5F5F5F5F5F5F5F5F5F5F5F5F5F5F5F5F5F5F5F5F5F5F5F5F5F5F5F5F5F5F5
310
F5F5F5F5F5F5F5F5F5F5F5F5F5F5F5F5F5F5F5F5F5F5F5F5F5F5F5F5F5F5F5F5F5F5F5F5F5F5F5F5E2F5F5F5F5F5F5F5F5F5F5F5E2E2E2F5F5F5F5F5F5F5F5F5F5F5E2F5F5F5F5F5F5F5F5F5F5F5F5F5F5F5F5F5F5F5F5F5F5F5F5F5F5F5F5F5F5F5F5F5F5F5F5F5F5F5F5F5F5F5F5F5F5F5F5F5F5F5F5F5F5F5F5F5F5F5F5
310
F5F5F5F5F5F5F5F5F5F5F5F5F5F5F5F5F5F5F5F5F5F5F5F5F5F5F5F5F5F5F5F5F5F5F5F5F5F5F5F5F5F5F5F5F5F5F5F5F5F5F5F5F5F5F5F5F5F5F5F5F5F5F5F5F5F5F5F5F5F5F5F5F5F5F5F5F5F5F5F5F5F5F5F5F5F5F5F5F5F5F5F5F5E2F5F5F5F5F5F5F5F5F5F5F5E2E2E2F5F5F5F5F5F5F5F5F5F5F5E2F5F5F5F5F5F5F5
310
F5F5F5F5F5F5F5F5F5F5F5F5F5F5F5F5F5F5F5F5F5F5F5F5F5F5F5F5F5F5F5F5F5F5F5F5F5F5F5F5F5F5F5F5F5F5F5F5F5F5F5F5F5F5F5F5F5F5F5F5F5F5F5F5F5F5F5F5F5F5F5F5F5F5F5F5F5F5F5F5F5F5F5F5F5F5F5F5F5F5F5F5F5F5F5F5F5F5F5F5F5F5F5F5F5F5F5F5F5F5F5F5F5F5F5F5F5F5F5F5F5F5F5F5F5F5F5
310
F5F5F5F5F5F5F5F5F5F5F5F5F5F5F5F5F5F5F5E2F5F5F5F5F5F5F5F5F5F5F5E2E2E2F5F5F5F5F5F5F5F5F5F5F5E2F5F5F5F5F5F5F5F5F5F5F5F5F5F5F5F5F5F5F5F5F5F5F5F5F5F5F5F5F5F5F5F5F5F5F5F5F5F5F5F5F5F5F5F5F5F5F5F5F5F5F5F5F5F5F5F5F5F5F5F5F5F5F5F5F5F5F5F5F5F5F5F5F5F5F5F5F5F5F5F5F5
310
F5F5F5F5F5F5F5F5F5F5F5F5F5F5F5F5F5F5F5F5F5F5F5F5F5F5F5F5F5F5F5F5F5F5F5F5F5F5F5F5F5F5F5F5F5F5F5F5F5F5F5F5F5F5F5F5F5F5F5F5F5F5F5F5F5F5F5F5F5F5F5F5E2F5F5F5F5F5F5F5F5F5F5F5E2E2E2F5F5F5F5F5F5F5F5F5F5F5E2F5F5F5F5F5F5F5F5F5F5F5F5F5F5F5F5F5F5F5F5F5F5F5F5F5F5F5F5
310
F5F5F5F5F5F5F5F5F5F5F5F5F5F5F5F5F5F5F5F5F5F5F5F5F5F5F5F5F5F5F5F5F5F5F5F5F5F5F5F5F5F5F5F5F5F5F5F5F5F5F5F5F5F5F5F5F5F5F5F5F5F5F5F5F5F5F5F5F5F5F5F5F5F5F5F5F5F5F5F5F5F5F5F5F5F5F5F5F5F5F5F5F5F5F5F5F5F5F5F5F5F5F5F5F5F5F5F5F5F5F5F5F5F5F5F5F5F5F5F5F5F5F5F5F5E2F5
310
F5F5F5F5F5F5F5F5F5F5E2E2E2F5F5F5F5F5F5F5F5F5F5F5E2F5F5F5F5F5F5F5F5F5F5F5F5F5F5F5F5F5F5F5F5F5F5F5F5F5F5F5F5F5F5F5F5F5F5F5F5F5F5F5F5F5F5F5F5F5F5F5F5F5F5F5F5F5F5F5F5F5F5F5F5F5F5F5F5F5F5F5F5F5F5F5F5F5F5F5F5F5F5F5F5F5F5F5F5F5F5F5F5F5F5F5F5F5F5F5F5F5F5F5F5F5F5
310
F5F5F5F5F5F5F5F5F5F5F5F5F5F5F5F5F5F5F5F5F5F5F5F5F5F5F5F5F5F5F5F5F5F5F5F5F5F5F5F5F5F5F5F5F5F5F5F5F5F5F5E2F5F5F5F5F5F5F5F5F5F5F5E2E2E2F5F5F5F5F5F5F5F5F5F5F5E2F5F5F5F5F5F5F5F5F5F5F5F5F5F5F5F5F5F5F5F5F5F5F5F5F5F5F5F5F5F5F5F5F5F5F5F5F5F5F5F5F5F5F5F5F5F5F5F5F5
310
F5F5F5F5F5F5F5F5F5F5F5F5F5F5F5F5F5F5F5F5F5F5F5F5F5F5F5F5F5F5F5F5F5F5F5F5F5F5F5F5F5F5F5F5F5F5F5F5F5F5F5F5F5F5F5F5F5F5F5F5F5F5F5F5F5F5F5F5F5F5F5F5F5F5F5F5F5F5F5F5F5F5F5F5F5F5F5F5F5F5F5F5F5F5F5F5F5F5F5F5F5F5F5F5E2F5F5F5F5F5F5F5F5F5F5F5E2E2E2F5F5F5F5F5F5F5F5
310
F5F5F5E2F5F5F5F5F5F5F5F5F5F5F5F5F5F5F5F5F5F5F5F5F5F5F5F5F5F5F5F5F5F5F5F5F5F5F5F5F5F5F5F5F5F5F5F5F5F5F5F5F5F5F5F5F5F5F5F5F5F5F5F5F5F5F5F5F5F5F5F5F5F5F5F5F5F5F5F5F5F5F5F5F5F5F5F5F5F5F5F5F5F5F5F5F5F5F5F5F5F5F5F5F5F5F5F5F5F5F5F5F5F5F5F5F5F5F5F5F5F5F5F5F5F5F5
310
F5F5F5F5F5F5F5F5F5F5F5F5F5F5F5F5F5F5F5F5F5F5F5F5F5F5F5F5F5F5E2F5F5F5F5F5F5F5F5F5F5F5E2E2E2F5F5F5F5F5F5F5F5F5F5F5E2F5F5F5F5F5F5F5F5F5F5F5F5F5F5F5F5F5F5F5F5F5F5F5F5F5F5F5F5F5F5F5F5F5F5F5F5F5F5F5F5F5F5F5F5F5F5F5F5F5F5F5F5F5F5F5F5F5F5F5F5F5F5F5F5F5F5F5F5F5F5
310
F5F5F5F5F5F5F5F5F5F5F5F5F5F5F5F5F5F5F5F5F5F5F5F5F5F5F5F5F5F5F5F5F5F5F5F5F5F5F5F5F5F5F5F5F5F5F5F5F5F5F5F5F5F5F5F5F5F5F5F5F5F5F5F5F5F5F5F5F5F5F5F5F5F5F5F5F5F5F5F5F5F5F5E2F5F5F5F5F5F5F5F5F5F5F5E2E2E2F5F5F5F5F5F5F5F5F5F5F5E2F5F5F5F5F5F5F5F5F5F5F5F5F5F5F5F5F5
310
F5F5F5F5F5F5F5F5F5F5F5F5F5F5F5F5F5F5F5F5F5F5F5F5F5F5F5F5F5F5F5F5F5F5F5F5F5F5F5F5F5F5F5F5F5F5F5F5F5F5F5F5F5F5F5F5F5F5F5F5F5F5F5F5F5F5F5F5F5F5F5F5F5F5F5F5F5F5F5F5F5F5F5F5F5F5F5F5F5F5F5F5F5F5F5F5F5F5F5F5F5F5F5F5F5F5F5F5F5F5F5F5F5F5F5F5F5F5F5F5F5F5F5F5F5F5F5
310
F5F5F5F5F5F5F5F5F5E2F5F5F5F5F5F5F5F5F5F5F5E2E2E2F5F5F5F5F5F5F5F5F5F5F5E2F5F5F5F5F5F5F5F5F5F5F5F5F5F5F5F5F5F5F5F5F5F5F5F5F5F5F5F5F5F5F5F5F5F5F5F5F5F5F5F5F5F5F5F5F5F5F5F5F5F5F5F5F5F5F5F5F5F5F5F5F5F5F5F5F5F5F5F5F5F5F5F5F5F5F5F5F5F5F5F5F5F5F5F5F5F5F5F5F5F5F5
310
F5F5F5F5F5F5F5F5F5F5F5F5F5F5F5F5F5F5F5F5F5F5F5F5F5F5F5F5F5F5F5F5F5F5F5F5F5F5F5F5F5F5F5F5F5F5F5F5F5F5F5F5F5F5F5F5F5F5F5F5F5F5E2F5F5F5F5F5F5F5F5F5F5F5E2E2E2F5F5F5F5F5F5F5F5F5F5F5E2F5F5F5F5F5F5F5F5F5F5F5F5F5F5F5F5F5F5F5F5F5F5F5F5F5F5F5F5F5F5F5F5F5F5F5F5F5F5
310
F5F5F5F5F5F5F5F5F5F5F5F5F5F5F5F5F5F5F5F5F5F5F5F5F5F5F5F5F5F5F5F5F5F5F5F5F5F5F5F5F5F5F5F5F5F5F5F5F5F5F5F5F5F5F5F5F5F5F5F5F5F5F5F5F5F5F5F5F5F5F5F5F5F5F5F5F5F5F5F5F5F5F5F5F5F5F5F5F5F5F5F5F5F5F5F5F5F5F5F5F5F5F5F5F5F5F5F5F5F5F5F5F5F5F5E2F5F5F5F5F5F5F5F5F5F5F5
310
E2E2E2F5F5F5F5F5F5F5F5F5F5F5F5F5F5F5F5F5F5F5F5F5F5F5F5F5F5F5F5F5F5F5F5F5F5F5F5F5F5F5F5F5F5F5F5F5F5F5F5F5F5F5F5F5F5F5F5F5F5F5F5F5F5F5F5F5F5F5F5F5F5F5F5F5F5F5F5F5F5F5F5F5F5F5F5F5F5F5F5F5F5F5F5F5F5F5F5F5F5F5F5F5F5F5F5F5F5F5F5F5F5F5F5F5F5F5F5F5F5F5F5F5F5F5F5
310
F5F5F5F5F5F5F5F5F5F5F5F5F5F5F5F5F5F5F5F5F5F5F5F5F5F5F5F5F5F5F5F5F5F5F5F5F5F5F5F5F5F5F5F5F5F5F5F5F5F5F5F5F5E2E2E2F5F5F5F5F5F5F5F5F5F5F5F5F5F5F5F5F5F5F5F5F5F5F5F5F5F5F5F5F5F5F5F5F5F5F5F5F5F5F5F5F5F5F5F5F5F5F5F5F5F5F5F5F5F5F5F5F5F5F5F5F5F5F5F5F5F5F5F5F5F5F5
310
F5F5F5F5F5F5F5F5F5F5F5F5F5F5F5F5F5F5F5F5F5F5F5F5F5F5F5F5F5F5F5F5F5F5F5F5F5F5F5F5F5F5F5F5F5F5F5F5F5F5F5F5F5F5F5F5F5F5F5F5F5F5F5F5F5F5F5F5F5F5F5F5F5F5F5F5F5F5F5F5F5F5F5F5F5F5F5F5F5F5F5F5F5F5F5F5F5F5F5F5F5F5F5F5F5F5E2E2E2F5F5F5F5F5F5F5F5F5F5F5F5F5F5F5F5F5F5
310
F5F5F5F5F5F5F5F5F5F5F5F5F5F5F5F5F5F5F5F5F5F5F5F5F5F5F5F5F5F5F5F5F5F5F5F5F5F5F5F5F5F5F5F5F5F5F5F5F5F5F5F5F5F5F5F5F5F5F5F5F5F5F5F5F5F5F5F5F5F5F5F5F5F5F5F5F5F5F5F5F5F5F5F5F5F5F5F5F5F5F5F5F5F5F5F5F5F5F5F5F5F5F5F5F5F5F5F5F5F5F5F5F5F5F5F5F5F5F5F5F5F5F5F5F5F5F5
310
F5F5F5F5F5F5F5F5F5F5F5F5F5F5F5F5F5F5F5F5F5F5F5F5F5F5F5F5F5F5F5F5E2E2E2F5F5F5F5F5F5F5F5F5F5F5F5F5F5F5F5F5F5F5F5F5F5F5F5F5F5F5F5F5F5F5F5F5F5F5F5F5F5F5F5F5F5F5F5F5F5F5F5F5F5F5F5F5F5F5F5F5F5F5F5F5F5F5F5F5F5F5F5F5F5F5F5F5F5F5F5F5F5F5F5F5F5F5F5F5F5F5F5F5F5F5F5
310
F5F5F5F5F5F5F5F5F5F5F5F5F5F5F5F5F5F5F5F5F5F5F5F5F5F5F5F5F5F5F5F5F5F5F5F5F5F5F5F5F5F5F5F5F5F5F5F5F5F5F5F5F5F5F5F5F5F5F5F5F5F5F5F5F5F5F5F5F5F5F5F5F5F5F5F5F5F5F5F5F5F5F5F5F5E2E2E2F5F5F5F5F5F5F5F5F5F5F5F5F5F5F5F5F5F5F5F5F5F5F5F5F5F5F5F5F5F5F5F5F5F5F5F5F5F5F5
310
F5F5F5F5F5F5F5F5F5F5F5F5F5F5F5F5F5F5F5F5F5F5F5F5F5F5F5F5F5F5F5F5F5F5F5F5F5F5F5F5F5F5F5F5F5F5F5F5F5F5F5F5F5F5F5F5F5F5F5F5F5F5F5F5F5F5F5F5F5F5F5F5F5F5F5F5F5F5F5F5F5F5F5F5F5F5F5F5F5F5F5F5F5F5F5F5F5F5F5F5F5F5F5F5F5F5F5F5F5F5F5F5F5F5F5F5F5F5F5F5F5F5F5F5F5F5F5
310
F5F5F5F5F5F5F5F5F5F5F5E2E2E2F5F5F5F5F5F5F5F5F5F5F5F5F5F5F5F5F5F5F5F5F5F5F5F5F5F5F5F5F5F5F5F5F5F5F5F5F5F5F5F5F5F5F5F5F5F5F5F5F5F5F5F5F5F5F5F5F5F5F5F5F5F5F5F5F5F5F5F5F5F5F5F5F5F5F5F5F5F5F5F5F5F5F5F5F5F5F5F5F5F5F5F5F5F5F5F5F5F5F5F5F5F5F5F5F5F5F5F5F5F5F5F5F5
310
F5F5F5F5F5F5F5F5F5F5F5F5F5F5F5F5F5F5F5F5F5F5F5F5F5F5F5F5F5F5F5F5F5F5F5F5F5F5F5F5F5F5F5F5F5F5F5F5F5F5F5F5F5F5F5F5F5F5F5F5F5F5F5F5E2E2E2F5F5F5F5F5F5F5F5F5F5F5F5F5F5F5F5F5F5F5F5F5F5F5F5F5F5F5F5F5F5F5F5F5F5F5F5F5F5F5F5F5F5F5F5F5F5F5F5F5F5F5F5F5F5F5F5F5F5F5F5
310
F5F5F5F5F5F5F5F5F5F5F5F5F5F5F5F5F5F5F5F5F5F5F5F5F5F5F5F5F5F5F5F5F5F5F5F5F5F5F5F5F5F5F5F5F5F5F5F5F5F5F5F5F5F5F5F5F5F5F5F5F5F5F5F5F5F5F5F5F5F5F5F5F5F5F5F5F5F5F5F5F5F5F5F5F5F5F5F5F5F5F5F5F5F5F5F5F5F5F5F5F5F5F5F5F5F5F5F5F5F5F5F5F5F5F5F5F5E2E2E2F5F5F5F5F5F5F5
310
F5F5F5F5F5F5F5F5F5F5F5F5F5F5F5F5F5F5F5F5F5F5F5F5F5F5F5F5F5F5F5F5F5F5F5F5F5F5F5F5F5F5F5F5F5F5F5F5F5F5F5F5F5F5F5F5F5F5F5F5F5F5F5F5F5F5F5F5F5F5F5F5F5F5F5F5F5F5F5F5F5F5F5F5F5F5F5F5F5F5F5F5F5F5F5F5F5F5F5F5F5F5F5F5F5F5F5F5F5F5F5F5F5F5F5F5F5F5F5F5F5F5F5F5F5F5F5
310
F5F5F5F5F5F5F5F5F5F5F5F5F5F5F5F5F5F5F5F5F5F5F5F5F5F5F5F5F5F5F5F5F5F5F5F5F5F5F5F5F5F5F5E2E2E2F5F5F5F5F5F5F5F5F5F5F5E2F5F5F5F5F5F5F5F5F5F5F5F5F5F5F5F5F5F5F5F5F5F5F5F5F5F5F5F5F5F5F5F5F5F5F5F5F5F5F5F5F5F5F5F5F5F5F5F5F5F5F5F5F5F5F5F5F5F5F5F5F5F5F5F5F5F5F5F5F5
310
F5F5F5F5F5F5F5F5F5F5F5F5F5F5F5F5F5F5F5F5F5F5F5F5F5F5F5F5F5F5F5F5F5F5F5F5F5F5F5F5F5F5F5F5F5F5F5F5F5F5F5F5F5F5F5F5F5F5F5F5F5F5F5F5F5F5F5F5F5F5F5F5F5F5F5F5F5F5F5F5F5F5F5F5E2F5F5F5F5F5F5F5F5F5F5F5E2E2E2F5F5F5F5F5F5F5F5F5F5F5E2F5F5F5F5F5F5F5F5F5F5F5F5F5F5F5F5
310
F5F5F5F5F5F5F5F5F5F5F5F5F5F5F5F5F5F5F5F5F5F5F5F5F5F5F5F5F5F5F5F5F5F5F5F5F5F5F5F5F5F5F5F5F5F5F5F5F5F5F5F5F5F5F5F5F5F5F5F5F5F5F5F5F5F5F5F5F5F5F5F5F5F5F5F5F5F5F5F5F5F5F5F5F5F5F5F5F5F5F5F5F5F5F5F5F5F5F5F5F5F5F5F5F5F5F5F5F5F5F5F5F5F5F5F5F5F5F5F5F5F5F5F5F5F5F5
310
F5F5F5F5F5F5F5F5F5F5E2F5F5F5F5F5F5F5F5F5F5F5E2E2E2F5F5F5F5F5F5F5F5F5F5F5E2F5F5F5F5F5F5F5F5F5F5F5F5F5F5F5F5F5F5F5F5F5F5F5F5F5F5F5F5F5F5F5F5F5F5F5F5F5F5F5F5F5F5F5F5F5F5F5F5F5F5F5F5F5F5F5F5F5F5F5F5F5F5F5F5F5F5F5F5F5F5F5F5F5F5F5F5F5F5F5F5F5F5F5F5F5F5F5F5F5F5
310
F5F5F5F5F5F5F5F5F5F5F5F5F5F5F5F5F5F5F5F5F5F5F5F5F5F5F5F5F5F5F5F5F5F5F5F5F5F5F5F5F5F5F5F5F5F5F5F5F5F5F5F5F5F5F5F5F5F5F5F5F5F5F5E2F5F5F5F5F5F5F5F5F5F5F5E2E2E2F5F5F5F5F5F5F5F5F5F5F5E2F5F5F5F5F5F5F5F5F5F5F5F5F5F5F5F5F5F5F5F5F5F5F5F5F5F5F5F5F5F5F5F5F5F5F5F5F5
310
F5F5F5F5F5F5F5F5F5F5F5F5F5F5F5F5F5F5F5F5F5F5F5F5F5F5F5F5F5F5F5F5F5F5F5F5F5F5F5F5F5F5F5F5F5F5F5F5F5F5F5F5F5F5F5F5F5F5F5F5F5F5F5F5F5F5F5F5F5F5F5F5F5F5F5F5F5F5F5F5F5F5F5F5F5F5F5F5F5F5F5F5F5F5F5F5F5F5F5F5F5F5F5F5F5F5F5F5F5F5F5F5F5F5F5F5E2F5F5F5F5F5F5F5F5F5F5
310
F5E2E2E2F5F5F5F5F5F5F5F5F5F5F5E2F5F5F5F5F5F5F5F5F5F5F5F5F5F5F5F5F5F5F5F5F5F5F5F5F5F5F5F5F5F5F5F5F5F5F5F5F5F5F5F5F5F5F5F5F5F5F5F5F5F5F5F5F5F5F5F5F5F5F5F5F5F5F5F5F5F5F5F5F5F5F5F5F5F5F5F5F5F5F5F5F5F5F5F5F5F5F5F5F5F5F5F5F5F5F5F5F5F5F5F5F5F5F5F5F5F5F5F5F5F5F5
310
F5F5F5F5F5F5F5F5F5F5F5F5F5F5F5F5F5F5F5F5F5F5F5F5F5F5F5F5F5F5F5F5F5F5F5F5F5F5F5F5F5F5E2F5F5F5F5F5F5F5F5F5F5F5E2E2E2F5F5F5F5F5F5F5F5F5F5F5E2F5F5F5F5F5F5F5F5F5F5F5F5F5F5F5F5F5F5F5F5F5F5F5F5F5F5F5F5F5F5F5F5F5F5F5F5F5F5F5F5F5F5F5F5F5F5F5F5F5F5F5F5F5F5F5F5F5F5
310
F5F5F5F5F5F5F5F5F5F5F5F5F5F5F5F5F5F5F5F5F5F5F5F5F5F5F5F5F5F5F5F5F5F5F5F5F5F5F5F5F5F5F5F5F5F5F5F5F5F5F5F5F5F5F5F5F5F5F5F5F5F5F5F5F5F5F5F5F5F5F5F5F5F5F5F5F5F5F5F5F5F5F5F5F5F5F5F5F5F5F5F5F5F5F5E2F5F5F5F5F5F5F5F5F5F5F5E2E2E2F5F5F5F5F5F5F5F5F5F5F5E2F5F5F5F5F5
310
F5F5F5F5F5F5F5F5F5F5F5F5F5F5F5F5F5F5F5F5F5F5F5F5F5F5F5F5F5F5F5F5F5F5F5F5F5F5F5F5F5F5F5F5F5F5F5F5F5F5F5F5F5F5F5F5F5F5F5F5F5F5F5F5F5F5F5F5F5F5F5F5F5F5F5F5F5F5F5F5F5F5F5F5F5F5F5F5F5F5F5F5F5F5F5F5F5F5F5F5F5F5F5F5F5F5F5F5F5F5F5F5F5F5F5F5F5F5F5F5F5F5F5F5F5F5F5
310
F5F5F5F5F5F5F5F5F5F5F5F5F5F5F5F5F5F5F5F5F5E2F5F5F5F5F5F5F5F5F5F5F5E2E2E2F5F5F5F5F5F5F5F5F5F5F5E2F5F5F5F5F5F5F5F5F5F5F5F5F5F5F5F5F5F5F5F5F5F5F5F5F5F5F5F5F5F5F5F5F5F5F5F5F5F5F5F5F5F5F5F5F5F5F5F5F5F5F5F5F5F5F5F5F5F5F5F5F5F5F5F5F5F5F5F5F5F5F5F5F5F5F5F5F5F5F5
310
F5F5F5F5F5F5F5F5F5F5F5F5F5F5F5F5F5F5F5F5F5F5F5F5F5F5F5F5F5F5F5F5F5F5F5F5F5F5F5F5F5F5F5F5F5F5F5F5F5F5F5F5F5F5F5F5F5F5F5F5F5F5F5F5F5F5F5F5F5F5F5F5F5F5E2F5F5F5F5F5F5F5F5F5F5F5E2E2E2F5F5F5F5F5F5F5F5F5F5F5E2F5F5F5F5F5F5F5F5F5F5F5F5F5F5F5F5F5F5F5F5F5F5F5F5F5F5
310
F5F5F5F5F5F5F5F5F5F5F5F5F5F5F5F5F5F5F5F5F5F5F5F5F5F5F5F5F5F5F5F5F5F5F5F5F5F5F5F5F5F5F5F5F5F5F5F5F5F5F5F5F5F5F5F5F5F5F5F5F5F5F5F5F5F5F5F5F5F5F5F5F5F5F5F5F5F5F5F5F5F5F5F5F5F5F5F5F5F5F5F5F5F5F5F5F5F5F5F5F5F5F5F5F5F5F5F5F5F5F5F5F5F5F5F5F5F5F5F5F5F5F5F5F5F5F5
310
E2F5F5F5F5F5F5F5F5F5F5F5E2E2E2F5F5F5F5F5F5F5F5F5F5F5E2F5F5F5F5F5F5F5F5F5F5F5F5F5F5F5F5F5F5F5F5F5F5F5F5F5F5F5F5F5F5F5F5F5F5F5F5F5F5F5F5F5F5F5F5F5F5F5F5F5F5F5F5F5F5F5F5F5F5F5F5F5F5F5F5F5F5F5F5F5F5F5F5F5F5F5F5F5F5F5F5F5F5F5F5F5F5F5F5F5F5F5F5F5F5F5F5F5F5F5F5
310
F5F5F5F5F5F5F5F5F5F5F5F5F5F5F5F5F5F5F5F5F5F5F5F5F5F5F5F5F5F5F5F5F5F5F5F5F5F5F5F5F5F5F5F5F5F5F5F5F5F5F5F5F5E2F5F5F5F5F5F5F5F5F5F5F5E2E2E2F5F5F5F5F5F5F5F5F5F5F5E2F5F5F5F5F5F5F5F5F5F5F5F5F5F5F5F5F5F5F5F5F5F5F5F5F5F5F5F5F5F5F5F5F5F5F5F5F5F5F5F5F5F5F5F5F5F5F5
310
F5F5F5F5F5F5F5F5F5F5F5F5F5F5F5F5F5F5F5F5F5F5F5F5F5F5F5F5F5F5F5F5F5F5F5F5F5F5F5F5F5F5F5F5F5F5F5F5F5F5F5F5F5F5F5F5F5F5F5F5F5F5F5F5F5F5F5F5F5F5F5F5F5F5F5F5F5F5F5F5F5F5F5F5F5F5F5F5F5F5F5F5F5F5F5F5F5F5F5F5F5F5F5F5F5F5E2F5F5F5F5F5F5F5F5F5F5F5E2E2E2F5F5F5F5F5F5
310
F5F5F5F5F5E2F5F5F5F5F5F5F5F5F5F5F5F5F5F5F5F5F5F5F5F5F5F5F5F5F5F5F5F5F5F5F5F5F5F5F5F5F5F5F5F5F5F5F5F5F5F5F5F5F5F5F5F5F5F5F5F5F5F5F5F5F5F5F5F5F5F5F5F5F5F5F5F5F5F5F5F5F5F5F5F5F5F5F5F5F5F5F5F5F5F5F5F5F5F5F5F5F5F5F5F5F5F5F5F5F5F5F5F5F5F5F5F5F5F5F5F5F5F5F5F5F5
310
F5F5F5F5F5F5F5F5F5F5F5F5F5F5F5F5F5F5F5F5F5F5F5F5F5F5F5F5F5F5F5F5E2F5F5F5F5F5F5F5F5F5F5F5E2E2E2F5F5F5F5F5F5F5F5F5F5F5E2F5F5F5F5F5F5F5F5F5F5F5F5F5F5F5F5F5F5F5F5F5F5F5F5F5F5F5F5F5F5F5F5F5F5F5F5F5F5F5F5F5F5F5F5F5F5F5F5F5F5F5F5F5F5F5F5F5F5F5F5F5F5F5F5F5F5F5F5
310
F5F5F5F5F5F5F5F5F5F5F5F5F5F5F5F5F5F5F5F5F5F5F5F5F5F5F5F5F5F5F5F5F5F5F5F5F5F5F5F5F5F5F5F5F5F5F5F5F5F5F5F5F5F5F5F5F5F5F5F5F5F5F5F5F5F5F5F5F5F5F5F5F5F5F5F5F5F5F5F5F5F5F5F5F5E2F5F5F5F5F5F5F5F5F5F5F5E2E2E2F5F5F5F5F5F5F5F5F5F5F5E2F5F5F5F5F5F5F5F5F5F5F5F5F5F5F5
310
F5F5F5F5F5F5F5F5F5F5F5F5F5F5F5F5F5F5F5F5F5F5F5F5F5F5F5F5F5F5F5F5F5F5F5F5F5F5F5F5F5F5F5F5F5F5F5F5F5F5F5F5F5F5F5F5F5F5F5F5F5F5F5F5F5F5F5F5F5F5F5F5F5F5F5F5F5F5F5F5F5F5F5F5F5F5F5F5F5F5F5F5F5F5F5F5F5F5F5F5F5F5F5F5F5F5F5F5F5F5F5F5F5F5F5F5F5F5F5F5F5F5F5F5F5F5F5
310
F5F5F5F5F5F5F5F5F5F5F5E2F5F5F5F5F5F5F5F5F5F5F5E2E2E2F5F5F5F5F5F5F5F5F5F5F5E2F5F5F5F5F5F5F5F5F5F5F5F5F5F5F5F5F5F5F5F5F5F5F5F5F5F5F5F5F5F5F5F5F5F5F5F5F5F5F5F5F5F5F5F5F5F5F5F5F5F5F5F5F5F5F5F5F5F5F5F5F5F5F5F5F5F5F5F5F5F5F5F5F5F5F5F5F5F5F5F5F5F5F5F5F5F5F5F5F5
310
F5F5F5F5F5F5F5F5F5F5F5F5F5F5F5F5F5F5F5F5F5F5F5F5F5F5F5F5F5F5F5F5F5F5F5F5F5F5F5F5F5F5F5F5F5F5F5F5F5F5F5F5F5F5F5F5F5F5F5F5F5F5F5F5E2F5F5F5F5F5F5F5F5F5F5F5E2E2E2F5F5F5F5F5F5F5F5F5F5F5F5F5F5F5F5F5F5F5F5F5F5F5F5F5F5F5F5F5F5F5F5F5F5F5F5F5F5F5F5F5F5F5F5F5F5F5F5
310
F5F5F5F5F5F5F5F5F5F5F5F5F5F5F5F5F5F5F5F5F5F5F5F5F5F5F5F5F5F5F5F5F5F5F5F5F5F5F5F5F5F5F5F5F5F5F5F5F5F5F5F5F5F5F5F5F5F5F5F5F5F5F5F5F5F5F5F5F5F5F5F5F5F5F5F5F5F5F5F5F5F5F5F5F5F5F5F5F5F5F5F5F5F5F5F5F5F5F5F5F5F5F5F5F5F5F5F5F5F5F5F5F5F5F5F5F5F5F5F5F5F5F5F5F5F5F5
310
F5F5E2E2E2F5F5F5F5F5F5F5F5F5F5F5F5F5F5F5F5F5F5F5F5F5F5F5F5F5F5F5F5F5F5F5F5F5F5F5F5F5F5F5F5F5F5F5F5F5F5F5F5F5F5F5F5F5F5F5F5F5F5F5F5F5F5F5F5F5F5F5F5F5F5F5F5F5F5F5F5F5F5F5F5F5F5F5F5F5F5F5F5F5F5F5F5F5F5F5F5F5F5F5F5F5F5F5F5F5F5F5F5F5F5F5F5F5F5F5F5F5F5F5F5F5F5
310
F5F5F5F5F5F5F5F5F5F5F5F5F5F5F5F5F5F5F5F5F5F5F5F5F5F5F5F5F5F5F5F5F5F5F5F5F5F5F5F5F5F5F5F5F5F5F5F5F5F5F5F5F5F5F5E2E2E2F5F5F5F5F5F5F5F5F5F5F5F5F5F5F5F5F5F5F5F5F5F5F5F5F5F5F5F5F5F5F5F5F5F5F5F5F5F5F5F5F5F5F5F5F5F5F5F5F5F5F5F5F5F5F5F5F5F5F5F5F5F5F5F5F5F5F5F5F5
310
F5F5F5F5F5F5F5F5F5F5F5F5F5F5F5F5F5F5F5F5F5F5F5F5F5F5F5F5F5F5F5F5F5F5F5F5F5F5F5F5F5F5F5F5F5F5F5F5F5F5F5F5F5F5F5F5F5F5F5F5F5F5F5F5F5F5F5F5F5F5F5F5F5F5F5F5F5F5F5F5F5F5F5F5F5F5F5F5F5F5F5F5F5F5F5F5F5F5F5F5F5F5F5F5F5F5F5F5E2E2E2F5F5F5F5F5F5F5F5F5F5F5F5F5F5F5F5
310
F5F5F5F5F5F5F5F5F5F5F5F5F5F5F5F5F5F5F5F5F5F5F5F5F5F5F5F5F5F5F5F5F5F5F5F5F5F5F5F5F5F5F5F5F5F5F5F5F5F5F5F5F5F5F5F5F5F5F5F5F5F5F5F5F5F5F5F5F5F5F5F5F5F5F5F5F5F5F5F5F5F5F5F5F5F5F5F5F5F5F5F5F5F5F5F5F5F5F5F5F5F5F5F5F5F5F5F5F5F5F5F5F5F5F5F5F5F5F5F5F5F5F5F5F5F5F5
310
F5F5F5F5F5F5F5F5F5F5F5F5F5F5F5F5F5F5F5F5F5F5F5F5F5F5F5F5F5F5F5F5F5F5E2E2E2F5F5F5F5F5F5F5F5F5F5F5F5F5F5F5F5F5F5F5F5F5F5F5F5F5F5F5F5F5F5F5F5F5F5F5F5F5F5F5F5F5F5F5F5F5F5F5F5F5F5F5F5F5F5F5F5F5F5F5F5F5F5F5F5F5F5F5F5F5F5F5F5F5F5F5F5F5F5F5F5F5F5F5F5F5F5F5F5F5F5
310
F5F5F5F5F5F5F5F5F5F5F5F5F5F5F5F5F5F5F5F5F5F5F5F5F5F5F5F5F5F5F5F5F5F5F5F5F5F5F5F5F5F5F5F5F5F5F5F5F5F5F5F5F5F5F5F5F5F5F5F5F5F5F5F5F5F5F5F5F5F5F5F5F5F5F5F5F5F5F5F5F5F5F5F5F5F5F5E2E2E2F5F5F5F5F5F5F5F5F5F5F5F5F5F5F5F5F5F5F5F5F5F5F5F5F5F5F5F5F5F5F5F5F5F5F5F5F5
310
F5F5F5F5F5F5F5F5F5F5F5F5F5F5F5F5F5F5F5F5F5F5F5F5F5F5F5F5F5F5F5F5F5F5F5F5F5F5F5F5F5F5F5F5F5F5F5F5F5F5F5F5F5F5F5F5F5F5F5F5F5F5F5F5F5F5F5F5F5F5F5F5F5F5F5F5F5F5F5F5F5F5F5F5F5F5F5F5F5F5F5F5F5F5F5F5F5F5F5F5F5F5F5F5F5F5F5F5F5F5F5F5F5F5F5F5F5F5F5F5F5F5F5F5F5F5F5
310
F5F5F5F5F5F5F5F5F5F5F5F5F5E2E2E2F5F5F5F5F5F5F5F5F5F5F5F5F5F5F5F5F5F5F5F5F5F5F5F5F5F5F5F5F5F5F5F5F5F5F5F5F5F5F5F5F5F5F5F5F5F5F5F5F5F5F5F5F5F5F5F5F5F5F5F5F5F5F5F5F5F5F5F5F5F5F5F5F5F5F5F5F5F5F5F5F5F5F5F5F5F5F5F5F5F5F5F5F5F5F5F5F5F5F5F5F5F5F5F5F5F5F5F5F5F5F5
310
F5F5F5F5F5F5F5F5F5F5F5F5F5F5F5F5F5F5F5F5F5F5F5F5F5F5F5F5F5F5F5F5F5F5F5F5F5F5F5F5F5F5F5F5F5F5F5F5F5F5F5F5F5F5F5F5F5F5F5F5F5F5F5F5F5F5E2E2E2F5F5F5F5F5F5F5F5F5F5F5F5F5F5F5F5F5F5F5F5F5F5F5F5F5F5F5F5F5F5F5F5F5F5F5F5F5F5F5F5F5F5F5F5F5F5F5F5F5F5F5F5F5F5F5F5F5F5
310
F5F5F5F5F5F5F5F5F5F5F5F5F5F5F5F5F5F5F5F5F5F5F5F5F5F5F5F5F5F5F5F5F5F5F5F5F5F5F5F5F5F5F5F5F5F5F5F5F5F5F5F5F5F5F5F5F5F5F5F5F5F5F5F5F5F5F5F5F5F5F5F5F5F5F5F5F5F5F5F5F5F5F5F5F5F5F5F5F5F5F5F5F5F5F5F5F5F5F5F5F5F5F5F5F5F5F5F5F5F5F5F5F5F5F5F5F5F5F5E2E2E2F5F5F5F5F5
310
F5F5F5F5F5F5E2F5F5F5F5F5F5F5F5F5F5F5F5F5F5F5F5F5F5F5F5F5F5F5F5F5F5F5F5F5F5F5F5F5F5F5F5F5F5F5F5F5F5F5F5F5F5F5F5F5F5F5F5F5F5F5F5F5F5F5F5F5F5F5F5F5F5F5F5F5F5F5F5F5F5F5F5F5F5F5F5F5F5F5F5F5F5F5F5F5F5F5F5F5F5F5F5F5F5F5F5F5F5F5F5F5F5F5F5F5F5F5F5F5F5F5F5F5F5F5F5
310
F5F5F5F5F5F5F5F5F5F5F5F5F5F5F5F5F5F5F5F5F5F5F5F5F5F5F5F5F5F5F5F5F5E2F5F5F5F5F5F5F5F5F5F5F5E2E2E2F5F5F5F5F5F5F5F5F5F5F5E2F5F5F5F5F5F5F5F5F5F5F5F5F5F5F5F5F5F5F5F5F5F5F5F5F5F5F5F5F5F5F5F5F5F5F5F5F5F5F5F5F5F5F5F5F5F5F5F5F5F5F5F5F5F5F5F5F5F5F5F5F5F5F5F5F5F5F5
310
F5F5F5F5F5F5F5F5F5F5F5F5F5F5F5F5F5F5F5F5F5F5F5F5F5F5F5F5F5F5F5F5F5F5F5F5F5F5F5F5F5F5F5F5F5F5F5F5F5F5F5F5F5F5F5F5F5F5F5F5F5F5F5F5F5F5F5F5F5F5F5F5F5F5F5F5F5F5F5F5F5F5F5F5F5F5E2F5F5F5F5F5F5F5F5F5F5F5E2E2E2F5F5F5F5F5F5F5F5F5F5F5E2F5F5F5F5F5F5F5F5F5F5F5F5F5F5
310
F5F5F5F5F5F5F5F5F5F5F5F5F5F5F5F5F5F5F5F5F5F5F5F5F5F5F5F5F5F5F5F5F5F5F5F5F5F5F5F5F5F5F5F5F5F5F5F5F5F5F5F5F5F5F5F5F5F5F5F5F5F5F5F5F5F5F5F5F5F5F5F5F5F5F5F5F5F5F5F5F5F5F5F5F5F5F5F5F5F5F5F5F5F5F5F5F5F5F5F5F5F5F5F5F5F5F5F5F5F5F5F5F5F5F5F5F5F5F5F5F5F5F5F5F5F5F5
310
F5F5F5F5F5F5F5F5F5F5F5F5E2F5F5F5F5F5F5F5F5F5F5F5E2E2E2F5F5F5F5F5F5F5F5F5F5F5E2F5F5F5F5F5F5F5F5F5F5F5F5F5F5F5F5F5F5F5F5F5F5F5F5F5F5F5F5F5F5F5F5F5F5F5F5F5F5F5F5F5F5F5F5F5F5F5F5F5F5F5F5F5F5F5F5F5F5F5F5F5F5F5F5F5F5F5F5F5F5F5F5F5F5F5F5F5F5F5F5F5F5F5F5F5F5F5F5
310
F5F5F5F5F5F5F5F5F5F5F5F5F5F5F5F5F5F5F5F5F5F5F5F5F5F5F5F5F5F5F5F5F5F5F5F5F5F5F5F5F5F5F5F5F5F5F5F5F5F5F5F5F5F5F5F5F5F5F5F5F5F5F5F5F5E2F5F5F5F5F5F5F5F5F5F5F5E2E2E2F5F5F5F5F5F5F5F5F5F5F5E2F5F5F5F5F5F5F5F5F5F5F5F5F5F5F5F5F5F5F5F5F5F5F5F5F5F5F5F5F5F5F5F5F5F5F5
310
F5F5F5F5F5F5F5F5F5F5F5F5F5F5F5F5F5F5F5F5F5F5F5F5F5F5F5F5F5F5F5F5F5F5F5F5F5F5F5F5F5F5F5F5F5F5F5F5F5F5F5F5F5F5F5F5F5F5F5F5F5F5F5F5F5F5F5F5F5F5F5F5F5F5F5F5F5F5F5F5F5F5F5F5F5F5F5F5F5F5F5F5F5F5F5F5F5F5F5F5F5F5F5F5F5F5F5F5F5F5F5F5F5F5F5F5F5F5E2F5F5F5F5F5F5F5F5
310
F5F5F5E2E2E2F5F5F5F5F5F5F5F5F5F5F5E2F5F5F5F5F5F5F5F5F5F5F5F5F5F5F5F5F5F5F5F5F5F5F5F5F5F5F5F5F5F5F5F5F5F5F5F5F5F5F5F5F5F5F5F5F5F5F5F5F5F5F5F5F5F5F5F5F5F5F5F5F5F5F5F5F5F5F5F5F5F5F5F5F5F5F5F5F5F5F5F5F5F5F5F5F5F5F5F5F5F5F5F5F5F5F5F5F5F5F5F5F5F5F5F5F5F5F5F5F5
310
F5F5F5F5F5F5F5F5F5F5F5F5F5F5F5F5F5F5F5F5F5F5F5F5F5F5F5F5F5F5F5F5F5F5F5F5F5F5F5F5F5F5F5F5E2F5F5F5F5F5F5F5F5F5F5F5E2E2E2F5F5F5F5F5F5F5F5F5F5F5E2F5F5F5F5F5F5F5F5F5F5F5F5F5F5F5F5F5F5F5F5F5F5F5F5F5F5F5F5F5F5F5F5F5F5F5F5F5F5F5F5F5F5F5F5F5F5F5F5F5F5F5F5F5F5F5F5
310
F5F5F5F5F5F5F5F5F5F5F5F5F5F5F5F5F5F5F5F5F5F5F5F5F5F5F5F5F5F5F5F5F5F5F5F5F5F5F5F5F5F5F5F5F5F5F5F5F5F5F5F5F5F5F5F5F5F5F5F5F5F5F5F5F5F5F5F5F5F5F5F5F5F5F5F5F5F5F5F5F5F5F5F5F5F5F5F5F5F5F5F5F5F5F5F5F5E2F5F5F5F5F5F5F5F5F5F5F5E2E2E2F5F5F5F5F5F5F5F5F5F5F5E2E2E2E2
310
E2E2E2E2E2F5F5F5F5F5F5F5F5F5E2E2E2E2E2E2E2E2E2E2E2E2E2E2E2E2F5F5F5F5F5F5F5F5F5F5E2E2E2E2E2E2E2E2E2E2E2E2E2E2E2E2F5F5F5F5F5F5F5F5F5E2E2E2E2E2E2E2E2E2E2E2E2E2E2E2E2E2F5F5F5F5F5F5F5F5F5E2E2E2E2E2E2E2E2E2E2E2E2E2E2E2E2F5F5F5F5F5F5F5F5F5F5E2E2E2E2E2E2E2E2E2E2
310
E2E2E2E2E2E2F5F5F5F5F5F5F5F5F5E2E2E2E2E2E2E2E2E2F5F5F5F5F5F5F5F5F5F5F5E2E2E2F5F5F5F5F5F5F5F5F5F5F5F5F5F5F5F5F5F5F5F5F5F5F5F5F5F5F5F5F5F5F5F5F5F5F5F5F5F5F5F5F5F5F5F5F5F5F5F5F5F5F5F5F5F5F5F5F5F5F5F5F5F5F5F5F5F5F5F5F5F5F5F5F5F5F5F5F5F5F5F5F5F5F5F5F5F5F5F5F5
310
F5F5F5F5F5F5F5F5F5F5F5F5F5F5F5F5F5F5F5F5F5F5F5F5F5F5F5F5F5F5F5F5F5F5F5F5F5F5F5F5F5F5F5F5F5F5F5F5F5F5F5F5F5F5F5F5F5F5F5F5F5F5F5F5F5F5F5F5F5F5F5F5F5F5F5F5F5F5F5F5F5F5F5F5F5F5F5F5E2E2E2F5F5F5F5F5F5F5F5F5F5F5F5F5F5F5F5F5F5F5F5F5F5F5F5F5F5F5F5F5F5F5F5F5F5F5F5
310
F5F5F5F5F5F5F5F5F5F5F5F5F5F5F5F5F5F5F5F5F5F5F5F5F5F5F5F5F5F5F5F5F5F5F5F5F5F5F5F5F5F5F5F5F5F5F5F5F5F5F5F5F5F5F5F5F5F5F5F5F5F5F5F5F5F5F5F5F5F5F5F5F5F5F5F5F5F5F5F5F5F5F5F5F5F5F5F5F5F5F5F5F5F5F5F5F5F5F5F5F5F5F5F5F5F5F5F5F5F5F5F5F5F5F5F5F5F5F5F5F5F5F5F5F5F5F5
310
F5F5F5F5F5F5F5F5F5F5F5F5F5F5E2E2E2F5F5F5F5F5F5F5F5F5F5F5F5F5F5F5F5F5F5F5F5F5F5F5F5F5F5F5F5F5F5F5F5F5F5F5F5F5F5F5F5F5F5F5F5F5F5F5F5F5F5F5F5F5F5F5F5F5F5F5F5F5F5F5F5F5F5F5F5F5F5F5F5F5F5F5F5F5F5F5F5F5F5F5F5F5F5F5F5F5F5F5F5F5F5F5F5F5F5F5F5F5F5F5F5F5F5F5F5F5F5
310
F5F5F5F5F5F5F5F5F5F5F5F5F5F5F5F5F5F5F5F5F5F5F5F5F5F5F5F5F5F5F5F5F5F5F5F5F5F5F5F5F5F5F5F5F5F5F5F5F5F5F5F5F5F5F5F5F5F5F5F5F5F5F5F5F5F5F5E2E2E2F5F5F5F5F5F5F5F5F5F5F5F5F5F5F5F5F5F5F5F5F5F5F5F5F5F5F5F5F5F5F5F5F5F5F5F5F5F5F5F5F5F5F5F5F5F5F5F5F5F5F5F5F5F5F5F5F5
310
F5F5F5F5F5F5F5F5F5F5F5F5F5F5F5F5F5F5F5F5F5F5F5F5F5F5F5F5F5F5F5F5F5F5F5F5F5F5F5F5F5F5F5F5F5F5F5F5F5F5F5F5F5F5F5F5F5F5F5F5F5F5F5F5F5F5F5F5F5F5F5F5F5F5F5F5F5F5F5F5F5F5F5F5F5F5F5F5F5F5F5F5F5F5F5F5F5F5F5F5F5F5F5F5F5F5F5F5F5F5F5F5F5F5F5F5F5F5F5F5E2EFE2E2E2E2E2
310
E2E2E2E2E2E2E2E2E2E2E2E2E2E2E2E2E2E2E2E2E2E2E2E2E2E2E2E2E2E2E2E2E2E2E2E2E2E2E2E2E2E2E2E2E2E2E2E2E2E2E2E2E2E2E2E2E2E2E2E2E2E2E2E2E2E2E2E2E2E2E2E2E2E2E2E2E2E2E2E2E2E2E2E2E2E2E2E2E2E2E2E2E2E2E2E2E2E2E2E2E2E2E2E2E2E2E2E2E2E2E2E2E2E2E2E2E2E2E2E2E2E2E2E2E2E2E2
310
E2E2E2E2E2E2E2E2E2E2E2E2E2E2E2E2E2E2E2E2E2E2E2E2E2E2E2E2E2E2E2E2E2E2E2E2E2E2E2E2E2E2E2E2E2E2E2EF
  0
XRECORD
  5
2B39
102
{ACAD_REACTORS
330
2B38
102
}
330
2B38
100
AcDbXrecord
280
     1
102
SHADEPLOT
 70
     0
102
SHADEPLOTRESLEVEL
 70
     2
102
SHADEPLOTCUSTOMDPI
 70
   300
  0
XRECORD
  5
2B3F
102
{ACAD_REACTORS
330
2AE7
102
}
330
2AE7
100
AcDbXrecord
280
     1
102
MATERIAL
148
0.0
149
0.0
149
0.0
 93
        0
 94
      127
282
     0
 72
     0
 77
     0
171
     0
175
     0
179
     0
273
     0
  0
XRECORD
  5
2AE9
102
{ACAD_REACTORS
330
2AE7
102
}
330
2AE7
100
AcDbXrecord
280
     1
270
     1
271
     1
  0
XRECORD
  5
2AE8
102
{ACAD_REACTORS
330
2AE7
102
}
330
2AE7
100
AcDbXrecord
280
     1
270
     1
271
     1
  0
XRECORD
  5
2AEC
102
{ACAD_REACTORS
330
2AE7
102
}
330
2AE7
100
AcDbXrecord
280
     1
270
     1
271
     1
  0
XRECORD
  5
2AEB
102
{ACAD_REACTORS
330
2AE7
102
}
330
2AE7
100
AcDbXrecord
280
     1
270
     1
271
     1
  0
XRECORD
  5
2AED
102
{ACAD_REACTORS
330
2AE7
102
}
330
2AE7
100
AcDbXrecord
280
     1
270
     1
271
     1
  0
XRECORD
  5
2AEA
102
{ACAD_REACTORS
330
2AE7
102
}
330
2AE7
100
AcDbXrecord
280
     1
270
     1
271
     1
  0
XRECORD
  5
2B3E
102
{ACAD_REACTORS
330
2ADF
102
}
330
2ADF
100
AcDbXrecord
280
     1
102
MATERIAL
148
0.0
149
0.0
149
0.0
 93
        0
 94
      127
282
     0
 72
     0
 77
     0
171
     0
175
     0
179
     0
273
     0
  0
XRECORD
  5
2AE1
102
{ACAD_REACTORS
330
2ADF
102
}
330
2ADF
100
AcDbXrecord
280
     1
270
     1
271
     1
  0
XRECORD
  5
2AE0
102
{ACAD_REACTORS
330
2ADF
102
}
330
2ADF
100
AcDbXrecord
280
     1
270
     1
271
     1
  0
XRECORD
  5
2AE4
102
{ACAD_REACTORS
330
2ADF
102
}
330
2ADF
100
AcDbXrecord
280
     1
270
     1
271
     1
  0
XRECORD
  5
2AE3
102
{ACAD_REACTORS
330
2ADF
102
}
330
2ADF
100
AcDbXrecord
280
     1
270
     1
271
     1
  0
XRECORD
  5
2AE5
102
{ACAD_REACTORS
330
2ADF
102
}
330
2ADF
100
AcDbXrecord
280
     1
270
     1
271
     1
  0
XRECORD
  5
2AE2
102
{ACAD_REACTORS
330
2ADF
102
}
330
2ADF
100
AcDbXrecord
280
     1
270
     1
271
     1
  0
XRECORD
  5
2B40
102
{ACAD_REACTORS
330
2AEF
102
}
330
2AEF
100
AcDbXrecord
280
     1
102
MATERIAL
148
0.0
149
0.0
149
0.0
 93
        0
 94
      127
282
     0
 72
     0
 77
     0
171
     0
175
     0
179
     0
273
     0
  0
XRECORD
  5
2AF1
102
{ACAD_REACTORS
330
2AEF
102
}
330
2AEF
100
AcDbXrecord
280
     1
270
     1
271
     1
  0
XRECORD
  5
2AF0
102
{ACAD_REACTORS
330
2AEF
102
}
330
2AEF
100
AcDbXrecord
280
     1
270
     1
271
     1
  0
XRECORD
  5
2AF4
102
{ACAD_REACTORS
330
2AEF
102
}
330
2AEF
100
AcDbXrecord
280
     1
270
     1
271
     1
  0
XRECORD
  5
2AF3
102
{ACAD_REACTORS
330
2AEF
102
}
330
2AEF
100
AcDbXrecord
280
     1
270
     1
271
     1
  0
XRECORD
  5
2AF5
102
{ACAD_REACTORS
330
2AEF
102
}
330
2AEF
100
AcDbXrecord
280
     1
270
     1
271
     1
  0
XRECORD
  5
2AF2
102
{ACAD_REACTORS
330
2AEF
102
}
330
2AEF
100
AcDbXrecord
280
     1
270
     1
271
     1
  0
XRECORD
  5
2B33
102
{ACAD_REACTORS
330
2B32
102
}
330
2B32
100
AcDbXrecord
280
     1
102
ACAD_ROUNDTRIP_2012_MLEADER_STYLE
298
     1
  0
CELLSTYLEMAP
  5
2B31
102
{ACAD_REACTORS
330
2B30
102
}
330
2B30
100
AcDbCellStyleMap
 90
        3
300
CELLSTYLE
  1
TABLEFORMAT_BEGIN
 90
        5
170
     1
 91
        0
 92
    32768
 62
   257
 93
        1
300
CONTENTFORMAT
  1
CONTENTFORMAT_BEGIN
 90
        0
 91
        0
 92
        4
 93
        0
300

 40
0.0
140
1.0
 94
        5
 62
     0
340
11
144
0.25
309
CONTENTFORMAT_END
171
     0
 94
        6
 95
        1
302
GRIDFORMAT
  1
GRIDFORMAT_BEGIN
 90
        0
 91
        1
 62
     0
 92
       -2
340
0
 93
        0
 40
0.045
309
GRIDFORMAT_END
 95
        2
302
GRIDFORMAT
  1
GRIDFORMAT_BEGIN
 90
        0
 91
        1
 62
     0
 92
       -2
340
0
 93
        0
 40
0.045
309
GRIDFORMAT_END
 95
        4
302
GRIDFORMAT
  1
GRIDFORMAT_BEGIN
 90
        0
 91
        1
 62
     0
 92
       -2
340
0
 93
        0
 40
0.045
309
GRIDFORMAT_END
 95
        8
302
GRIDFORMAT
  1
GRIDFORMAT_BEGIN
 90
        0
 91
        1
 62
     0
 92
       -2
340
0
 93
        0
 40
0.045
309
GRIDFORMAT_END
 95
       16
302
GRIDFORMAT
  1
GRIDFORMAT_BEGIN
 90
        0
 91
        1
 62
     0
 92
       -2
340
0
 93
        0
 40
0.045
309
GRIDFORMAT_END
 95
       32
302
GRIDFORMAT
  1
GRIDFORMAT_BEGIN
 90
        0
 91
        1
 62
     0
 92
       -2
340
0
 93
        0
 40
0.045
309
GRIDFORMAT_END
309
TABLEFORMAT_END
  1
CELLSTYLE_BEGIN
 90
        1
 91
        1
300
_TITLE
309
CELLSTYLE_END
300
CELLSTYLE
  1
TABLEFORMAT_BEGIN
 90
        5
170
     1
 91
        0
 92
        0
 62
   257
 93
        1
300
CONTENTFORMAT
  1
CONTENTFORMAT_BEGIN
 90
        0
 91
        0
 92
        4
 93
        0
300

 40
0.0
140
1.0
 94
        5
 62
     0
340
11
144
0.18
309
CONTENTFORMAT_END
171
     0
 94
        6
 95
        1
302
GRIDFORMAT
  1
GRIDFORMAT_BEGIN
 90
        0
 91
        1
 62
     0
 92
       -2
340
0
 93
        0
 40
0.045
309
GRIDFORMAT_END
 95
        2
302
GRIDFORMAT
  1
GRIDFORMAT_BEGIN
 90
        0
 91
        1
 62
     0
 92
       -2
340
0
 93
        0
 40
0.045
309
GRIDFORMAT_END
 95
        4
302
GRIDFORMAT
  1
GRIDFORMAT_BEGIN
 90
        0
 91
        1
 62
     0
 92
       -2
340
0
 93
        0
 40
0.045
309
GRIDFORMAT_END
 95
        8
302
GRIDFORMAT
  1
GRIDFORMAT_BEGIN
 90
        0
 91
        1
 62
     0
 92
       -2
340
0
 93
        0
 40
0.045
309
GRIDFORMAT_END
 95
       16
302
GRIDFORMAT
  1
GRIDFORMAT_BEGIN
 90
        0
 91
        1
 62
     0
 92
       -2
340
0
 93
        0
 40
0.045
309
GRIDFORMAT_END
 95
       32
302
GRIDFORMAT
  1
GRIDFORMAT_BEGIN
 90
        0
 91
        1
 62
     0
 92
       -2
340
0
 93
        0
 40
0.045
309
GRIDFORMAT_END
309
TABLEFORMAT_END
  1
CELLSTYLE_BEGIN
 90
        2
 91
        1
300
_HEADER
309
CELLSTYLE_END
300
CELLSTYLE
  1
TABLEFORMAT_BEGIN
 90
        5
170
     1
 91
        0
 92
        0
 62
   257
 93
        1
300
CONTENTFORMAT
  1
CONTENTFORMAT_BEGIN
 90
        0
 91
        0
 92
        4
 93
        0
300

 40
0.0
140
1.0
 94
        2
 62
     0
340
11
144
0.18
309
CONTENTFORMAT_END
171
     0
 94
        6
 95
        1
302
GRIDFORMAT
  1
GRIDFORMAT_BEGIN
 90
        0
 91
        1
 62
     0
 92
       -2
340
0
 93
        0
 40
0.045
309
GRIDFORMAT_END
 95
        2
302
GRIDFORMAT
  1
GRIDFORMAT_BEGIN
 90
        0
 91
        1
 62
     0
 92
       -2
340
0
 93
        0
 40
0.045
309
GRIDFORMAT_END
 95
        4
302
GRIDFORMAT
  1
GRIDFORMAT_BEGIN
 90
        0
 91
        1
 62
     0
 92
       -2
340
0
 93
        0
 40
0.045
309
GRIDFORMAT_END
 95
        8
302
GRIDFORMAT
  1
GRIDFORMAT_BEGIN
 90
        0
 91
        1
 62
     0
 92
       -2
340
0
 93
        0
 40
0.045
309
GRIDFORMAT_END
 95
       16
302
GRIDFORMAT
  1
GRIDFORMAT_BEGIN
 90
        0
 91
        1
 62
     0
 92
       -2
340
0
 93
        0
 40
0.045
309
GRIDFORMAT_END
 95
       32
302
GRIDFORMAT
  1
GRIDFORMAT_BEGIN
 90
        0
 91
        1
 62
     0
 92
       -2
340
0
 93
        0
 40
0.045
309
GRIDFORMAT_END
309
TABLEFORMAT_END
  1
CELLSTYLE_BEGIN
 90
        3
 91
        2
300
_DATA
309
CELLSTYLE_END
  0
XRECORD
  5
2B3B
102
{ACAD_REACTORS
330
2B30
102
}
330
2B30
100
AcDbXrecord
280
     1
102
ACAD_ROUNDTRIP_PRE2007_TABLESTYLE
 90
        4
 91
        0
  1

 92
        4
 93
        0
  2

 94
        4
 95
        0
  3

  0
XRECORD
  5
2B4C
102
{ACAD_REACTORS
330
2B4B
102
}
330
2B4B
100
AcDbXrecord
280
     1
102
RTVSPropertyOp0
 70
     1
102
RTVSPropertyOp1
 70
     1
102
RTVSPropertyOp2
 70
     1
102
RTVSPropertyOp3
 70
     1
102
RTVSPropertyOp4
 70
     1
102
RTVSPropertyOp5
 70
     1
102
RTVSPropertyOp6
 70
     1
102
RTVSPropertyOp7
 70
     1
102
RTVSPropertyOp8
 70
     1
102
RTVSPropertyOp9
 70
     1
102
RTVSPropertyOp10
 70
     1
102
RTVSPropertyOp11
 70
     1
102
RTVSPropertyOp12
 70
     1
102
RTVSPropertyOp13
 70
     1
102
RTVSPropertyOp14
 70
     1
102
RTVSPropertyOp15
 70
     1
102
RTVSPropertyOp16
 70
     1
102
RTVSPropertyOp17
 70
     1
102
RTVSPropertyOp18
 70
     1
102
RTVSPropertyOp19
 70
     1
102
RTVSPropertyOp20
 70
     1
102
RTVSPropertyOp21
 70
     1
102
RTVSPropertyOp22
 70
     1
102
RTVSPropertyOp23
 70
     1
102
RTVSPropertyOp24
 70
     1
102
RTVSPropertyOp25
 70
     1
102
RTVSPropertyOp26
 70
     1
102
RTVSPropertyOp27
 70
     1
102
RTVSPropertyOp28
 70
     1
102
RTVSPropertyOp29
 70
     1
102
RTVSPropertyOp30
 70
     1
102
RTVSPropertyOp31
 70
     1
102
RTVSPropertyOp32
 70
     1
  0
XRECORD
  5
2B4A
102
{ACAD_REACTORS
330
2B49
102
}
330
2B49
100
AcDbXrecord
280
     1
102
RTVSPropertyOp0
 70
     1
102
RTVSPropertyOp1
 70
     1
102
RTVSPropertyOp2
 70
     1
102
RTVSPropertyOp3
 70
     1
102
RTVSPropertyOp4
 70
     1
102
RTVSPropertyOp5
 70
     1
102
RTVSPropertyOp6
 70
     1
102
RTVSPropertyOp7
 70
     1
102
RTVSPropertyOp8
 70
     1
102
RTVSPropertyOp9
 70
     1
102
RTVSPropertyOp10
 70
     1
102
RTVSPropertyOp11
 70
     1
102
RTVSPropertyOp12
 70
     1
102
RTVSPropertyOp13
 70
     1
102
RTVSPropertyOp14
 70
     1
102
RTVSPropertyOp15
 70
     1
102
RTVSPropertyOp16
 70
     1
102
RTVSPropertyOp17
 70
     1
102
RTVSPropertyOp18
 70
     1
102
RTVSPropertyOp19
 70
     1
102
RTVSPropertyOp20
 70
     1
102
RTVSPropertyOp21
 70
     1
102
RTVSPropertyOp22
 70
     1
102
RTVSPropertyOp23
 70
     1
102
RTVSPropertyOp24
 70
     1
102
RTVSPropertyOp25
 70
     1
102
RTVSPropertyOp26
 70
     1
102
RTVSPropertyOp27
 70
     1
102
RTVSPropertyOp28
 70
     1
102
RTVSPropertyOp29
 70
     1
102
RTVSPropertyOp30
 70
     1
102
RTVSPropertyOp31
 70
     1
102
RTVSPropertyOp32
 70
     1
  0
XRECORD
  5
2B58
102
{ACAD_REACTORS
330
2B57
102
}
330
2B57
100
AcDbXrecord
280
     1
102
RTVSPropertyOp0
 70
     1
102
RTVSPropertyOp1
 70
     1
102
RTVSPropertyOp2
 70
     1
102
RTVSPropertyOp3
 70
     1
102
RTVSPropertyOp4
 70
     1
102
RTVSPropertyOp5
 70
     1
102
RTVSPropertyOp6
 70
     1
102
RTVSPropertyOp7
 70
     1
102
RTVSPropertyOp8
 70
     1
102
RTVSPropertyOp9
 70
     1
102
RTVSPropertyOp10
 70
     1
102
RTVSPropertyOp11
 70
     1
102
RTVSPropertyOp12
 70
     1
102
RTVSPropertyOp13
 70
     1
102
RTVSPropertyOp14
 70
     1
102
RTVSPropertyOp15
 70
     1
102
RTVSPropertyOp16
 70
     1
102
RTVSPropertyOp17
 70
     1
102
RTVSPropertyOp18
 70
     1
102
RTVSPropertyOp19
 70
     1
102
RTVSPropertyOp20
 70
     1
102
RTVSPropertyOp21
 70
     1
102
RTVSPropertyOp22
 70
     1
102
RTVSPropertyOp23
 70
     1
102
RTVSPropertyOp24
 70
     1
102
RTVSPropertyOp25
 70
     1
102
RTVSPropertyOp26
 70
     1
102
RTVSPropertyOp27
 70
     1
102
RTVSPropertyOp28
 70
     1
102
RTVSPropertyOp29
 70
     1
102
RTVSPropertyOp30
 70
     1
102
RTVSPropertyOp31
 70
     1
102
RTVSPropertyOp32
 70
     1
  0
XRECORD
  5
2B60
102
{ACAD_REACTORS
330
2B5F
102
}
330
2B5F
100
AcDbXrecord
280
     1
102
RTVSPropertyOp0
 70
     1
102
RTVSPropertyOp1
 70
     1
102
RTVSPropertyOp2
 70
     1
102
RTVSPropertyOp3
 70
     1
102
RTVSPropertyOp4
 70
     1
102
RTVSPropertyOp5
 70
     1
102
RTVSPropertyOp6
 70
     1
102
RTVSPropertyOp7
 70
     1
102
RTVSPropertyOp8
 70
     1
102
RTVSPropertyOp9
 70
     1
102
RTVSPropertyOp10
 70
     1
102
RTVSPropertyOp11
 70
     1
102
RTVSPropertyOp12
 70
     1
102
RTVSPropertyOp13
 70
     1
102
RTVSPropertyOp14
 70
     1
102
RTVSPropertyOp15
 70
     1
102
RTVSPropertyOp16
 70
     1
102
RTVSPropertyOp17
 70
     1
102
RTVSPropertyOp18
 70
     1
102
RTVSPropertyOp19
 70
     1
102
RTVSPropertyOp20
 70
     1
102
RTVSPropertyOp21
 70
     1
102
RTVSPropertyOp22
 70
     1
102
RTVSPropertyOp23
 70
     1
102
RTVSPropertyOp24
 70
     1
102
RTVSPropertyOp25
 70
     1
102
RTVSPropertyOp26
 70
     1
102
RTVSPropertyOp27
 70
     1
102
RTVSPropertyOp28
 70
     1
102
RTVSPropertyOp29
 70
     1
102
RTVSPropertyOp30
 70
     1
102
RTVSPropertyOp31
 70
     1
102
RTVSPropertyOp32
 70
     1
  0
XRECORD
  5
2B52
102
{ACAD_REACTORS
330
2B51
102
}
330
2B51
100
AcDbXrecord
280
     1
102
RTVSPropertyOp0
 70
     1
102
RTVSPropertyOp1
 70
     1
102
RTVSPropertyOp2
 70
     1
102
RTVSPropertyOp3
 70
     1
102
RTVSPropertyOp4
 70
     1
102
RTVSPropertyOp5
 70
     1
102
RTVSPropertyOp6
 70
     1
102
RTVSPropertyOp7
 70
     1
102
RTVSPropertyOp8
 70
     1
102
RTVSPropertyOp9
 70
     1
102
RTVSPropertyOp10
 70
     1
102
RTVSPropertyOp11
 70
     1
102
RTVSPropertyOp12
 70
     1
102
RTVSPropertyOp13
 70
     1
102
RTVSPropertyOp14
 70
     1
102
RTVSPropertyOp15
 70
     1
102
RTVSPropertyOp16
 70
     1
102
RTVSPropertyOp17
 70
     1
102
RTVSPropertyOp18
 70
     1
102
RTVSPropertyOp19
 70
     1
102
RTVSPropertyOp20
 70
     1
102
RTVSPropertyOp21
 70
     1
102
RTVSPropertyOp22
 70
     1
102
RTVSPropertyOp23
 70
     1
102
RTVSPropertyOp24
 70
     1
102
RTVSPropertyOp25
 70
     1
102
RTVSPropertyOp26
 70
     1
102
RTVSPropertyOp27
 70
     1
102
RTVSPropertyOp28
 70
     1
102
RTVSPropertyOp29
 70
     1
102
RTVSPropertyOp30
 70
     1
102
RTVSPropertyOp31
 70
     1
102
RTVSPropertyOp32
 70
     1
  0
XRECORD
  5
2B56
102
{ACAD_REACTORS
330
2B55
102
}
330
2B55
100
AcDbXrecord
280
     1
102
RTVSPropertyOp0
 70
     1
102
RTVSPropertyOp1
 70
     1
102
RTVSPropertyOp2
 70
     1
102
RTVSPropertyOp3
 70
     1
102
RTVSPropertyOp4
 70
     1
102
RTVSPropertyOp5
 70
     1
102
RTVSPropertyOp6
 70
     1
102
RTVSPropertyOp7
 70
     1
102
RTVSPropertyOp8
 70
     1
102
RTVSPropertyOp9
 70
     1
102
RTVSPropertyOp10
 70
     1
102
RTVSPropertyOp11
 70
     1
102
RTVSPropertyOp12
 70
     1
102
RTVSPropertyOp13
 70
     1
102
RTVSPropertyOp14
 70
     1
102
RTVSPropertyOp15
 70
     1
102
RTVSPropertyOp16
 70
     1
102
RTVSPropertyOp17
 70
     1
102
RTVSPropertyOp18
 70
     1
102
RTVSPropertyOp19
 70
     1
102
RTVSPropertyOp20
 70
     1
102
RTVSPropertyOp21
 70
     1
102
RTVSPropertyOp22
 70
     1
102
RTVSPropertyOp23
 70
     1
102
RTVSPropertyOp24
 70
     1
102
RTVSPropertyOp25
 70
     1
102
RTVSPropertyOp26
 70
     1
102
RTVSPropertyOp27
 70
     1
102
RTVSPropertyOp28
 70
     1
102
RTVSPropertyOp29
 70
     1
102
RTVSPropertyOp30
 70
     1
102
RTVSPropertyOp31
 70
     1
102
RTVSPropertyOp32
 70
     1
  0
XRECORD
  5
2B70
102
{ACAD_REACTORS
330
2B6F
102
}
330
2B6F
100
AcDbXrecord
280
     1
102
RTVSPropertyOp0
 70
     0
102
RTVSPropertyOp1
 70
     0
102
RTVSPropertyOp2
 70
     0
102
RTVSPropertyOp3
 70
     0
102
RTVSPropertyOp4
 70
     0
102
RTVSPropertyOp5
 70
     0
102
RTVSPropertyOp6
 70
     0
102
RTVSPropertyOp7
 70
     0
102
RTVSPropertyOp8
 70
     0
102
RTVSPropertyOp9
 70
     0
102
RTVSPropertyOp10
 70
     0
102
RTVSPropertyOp11
 70
     0
102
RTVSPropertyOp12
 70
     0
102
RTVSPropertyOp13
 70
     0
102
RTVSPropertyOp14
 70
     2
102
RTVSPropertyOp15
 70
     0
102
RTVSPropertyOp16
 70
     0
102
RTVSPropertyOp17
 70
     0
102
RTVSPropertyOp18
 70
     0
102
RTVSPropertyOp19
 70
     0
102
RTVSPropertyOp20
 70
     0
102
RTVSPropertyOp21
 70
     0
102
RTVSPropertyOp22
 70
     0
102
RTVSPropertyOp23
 70
     0
102
RTVSPropertyOp24
 70
     0
102
RTVSPropertyOp25
 70
     0
102
RTVSPropertyOp26
 70
     0
102
RTVSPropertyOp27
 70
     0
102
RTVSPropertyOp28
 70
     0
102
RTVSPropertyOp29
 70
     0
102
RTVSPropertyOp30
 70
     0
102
RTVSPropertyOp31
 70
     0
102
RTVSPropertyOp32
 70
     0
  0
XRECORD
  5
2B5E
102
{ACAD_REACTORS
330
2B5D
102
}
330
2B5D
100
AcDbXrecord
280
     1
102
RTVSPropertyOp0
 70
     1
102
RTVSPropertyOp1
 70
     1
102
RTVSPropertyOp2
 70
     1
102
RTVSPropertyOp3
 70
     1
102
RTVSPropertyOp4
 70
     1
102
RTVSPropertyOp5
 70
     1
102
RTVSPropertyOp6
 70
     1
102
RTVSPropertyOp7
 70
     1
102
RTVSPropertyOp8
 70
     1
102
RTVSPropertyOp9
 70
     1
102
RTVSPropertyOp10
 70
     1
102
RTVSPropertyOp11
 70
     1
102
RTVSPropertyOp12
 70
     1
102
RTVSPropertyOp13
 70
     1
102
RTVSPropertyOp14
 70
     1
102
RTVSPropertyOp15
 70
     1
102
RTVSPropertyOp16
 70
     1
102
RTVSPropertyOp17
 70
     1
102
RTVSPropertyOp18
 70
     1
102
RTVSPropertyOp19
 70
     1
102
RTVSPropertyOp20
 70
     1
102
RTVSPropertyOp21
 70
     1
102
RTVSPropertyOp22
 70
     1
102
RTVSPropertyOp23
 70
     1
102
RTVSPropertyOp24
 70
     1
102
RTVSPropertyOp25
 70
     1
102
RTVSPropertyOp26
 70
     1
102
RTVSPropertyOp27
 70
     1
102
RTVSPropertyOp28
 70
     1
102
RTVSPropertyOp29
 70
     1
102
RTVSPropertyOp30
 70
     1
102
RTVSPropertyOp31
 70
     1
102
RTVSPropertyOp32
 70
     1
  0
XRECORD
  5
2B42
102
{ACAD_REACTORS
330
2B41
102
}
330
2B41
100
AcDbXrecord
280
     1
102
RTVSPropertyOp0
 70
     1
102
RTVSPropertyOp1
 70
     1
102
RTVSPropertyOp2
 70
     1
102
RTVSPropertyOp3
 70
     1
102
RTVSPropertyOp4
 70
     1
102
RTVSPropertyOp5
 70
     1
102
RTVSPropertyOp6
 70
     1
102
RTVSPropertyOp7
 70
     1
102
RTVSPropertyOp8
 70
     1
102
RTVSPropertyOp9
 70
     1
102
RTVSPropertyOp10
 70
     1
102
RTVSPropertyOp11
 70
     1
102
RTVSPropertyOp12
 70
     1
102
RTVSPropertyOp13
 70
     1
102
RTVSPropertyOp14
 70
     1
102
RTVSPropertyOp15
 70
     1
102
RTVSPropertyOp16
 70
     1
102
RTVSPropertyOp17
 70
     1
102
RTVSPropertyOp18
 70
     1
102
RTVSPropertyOp19
 70
     1
102
RTVSPropertyOp20
 70
     1
102
RTVSPropertyOp21
 70
     1
102
RTVSPropertyOp22
 70
     1
102
RTVSPropertyOp23
 70
     1
102
RTVSPropertyOp24
 70
     1
102
RTVSPropertyOp25
 70
     1
102
RTVSPropertyOp26
 70
     1
102
RTVSPropertyOp27
 70
     1
102
RTVSPropertyOp28
 70
     1
102
RTVSPropertyOp29
 70
     1
102
RTVSPropertyOp30
 70
     1
102
RTVSPropertyOp31
 70
     1
102
RTVSPropertyOp32
 70
     1
  0
XRECORD
  5
2B44
102
{ACAD_REACTORS
330
2B43
102
}
330
2B43
100
AcDbXrecord
280
     1
102
RTVSPropertyOp0
 70
     1
102
RTVSPropertyOp1
 70
     1
102
RTVSPropertyOp2
 70
     1
102
RTVSPropertyOp3
 70
     1
102
RTVSPropertyOp4
 70
     1
102
RTVSPropertyOp5
 70
     1
102
RTVSPropertyOp6
 70
     1
102
RTVSPropertyOp7
 70
     1
102
RTVSPropertyOp8
 70
     1
102
RTVSPropertyOp9
 70
     1
102
RTVSPropertyOp10
 70
     1
102
RTVSPropertyOp11
 70
     1
102
RTVSPropertyOp12
 70
     1
102
RTVSPropertyOp13
 70
     1
102
RTVSPropertyOp14
 70
     1
102
RTVSPropertyOp15
 70
     1
102
RTVSPropertyOp16
 70
     1
102
RTVSPropertyOp17
 70
     1
102
RTVSPropertyOp18
 70
     1
102
RTVSPropertyOp19
 70
     1
102
RTVSPropertyOp20
 70
     1
102
RTVSPropertyOp21
 70
     1
102
RTVSPropertyOp22
 70
     1
102
RTVSPropertyOp23
 70
     1
102
RTVSPropertyOp24
 70
     1
102
RTVSPropertyOp25
 70
     1
102
RTVSPropertyOp26
 70
     1
102
RTVSPropertyOp27
 70
     1
102
RTVSPropertyOp28
 70
     1
102
RTVSPropertyOp29
 70
     1
102
RTVSPropertyOp30
 70
     1
102
RTVSPropertyOp31
 70
     1
102
RTVSPropertyOp32
 70
     1
  0
XRECORD
  5
2B46
102
{ACAD_REACTORS
330
2B45
102
}
330
2B45
100
AcDbXrecord
280
     1
102
RTVSPropertyOp0
 70
     1
102
RTVSPropertyOp1
 70
     1
102
RTVSPropertyOp2
 70
     1
102
RTVSPropertyOp3
 70
     1
102
RTVSPropertyOp4
 70
     1
102
RTVSPropertyOp5
 70
     1
102
RTVSPropertyOp6
 70
     1
102
RTVSPropertyOp7
 70
     1
102
RTVSPropertyOp8
 70
     1
102
RTVSPropertyOp9
 70
     1
102
RTVSPropertyOp10
 70
     1
102
RTVSPropertyOp11
 70
     1
102
RTVSPropertyOp12
 70
     1
102
RTVSPropertyOp13
 70
     1
102
RTVSPropertyOp14
 70
     1
102
RTVSPropertyOp15
 70
     1
102
RTVSPropertyOp16
 70
     1
102
RTVSPropertyOp17
 70
     1
102
RTVSPropertyOp18
 70
     1
102
RTVSPropertyOp19
 70
     1
102
RTVSPropertyOp20
 70
     1
102
RTVSPropertyOp21
 70
     1
102
RTVSPropertyOp22
 70
     1
102
RTVSPropertyOp23
 70
     1
102
RTVSPropertyOp24
 70
     1
102
RTVSPropertyOp25
 70
     1
102
RTVSPropertyOp26
 70
     1
102
RTVSPropertyOp27
 70
     1
102
RTVSPropertyOp28
 70
     1
102
RTVSPropertyOp29
 70
     1
102
RTVSPropertyOp30
 70
     1
102
RTVSPropertyOp31
 70
     1
102
RTVSPropertyOp32
 70
     1
  0
XRECORD
  5
2B48
102
{ACAD_REACTORS
330
2B47
102
}
330
2B47
100
AcDbXrecord
280
     1
102
RTVSPropertyOp0
 70
     1
102
RTVSPropertyOp1
 70
     1
102
RTVSPropertyOp2
 70
     1
102
RTVSPropertyOp3
 70
     1
102
RTVSPropertyOp4
 70
     1
102
RTVSPropertyOp5
 70
     1
102
RTVSPropertyOp6
 70
     1
102
RTVSPropertyOp7
 70
     1
102
RTVSPropertyOp8
 70
     1
102
RTVSPropertyOp9
 70
     1
102
RTVSPropertyOp10
 70
     1
102
RTVSPropertyOp11
 70
     1
102
RTVSPropertyOp12
 70
     1
102
RTVSPropertyOp13
 70
     1
102
RTVSPropertyOp14
 70
     1
102
RTVSPropertyOp15
 70
     1
102
RTVSPropertyOp16
 70
     1
102
RTVSPropertyOp17
 70
     1
102
RTVSPropertyOp18
 70
     1
102
RTVSPropertyOp19
 70
     1
102
RTVSPropertyOp20
 70
     1
102
RTVSPropertyOp21
 70
     1
102
RTVSPropertyOp22
 70
     1
102
RTVSPropertyOp23
 70
     1
102
RTVSPropertyOp24
 70
     1
102
RTVSPropertyOp25
 70
     1
102
RTVSPropertyOp26
 70
     1
102
RTVSPropertyOp27
 70
     1
102
RTVSPropertyOp28
 70
     1
102
RTVSPropertyOp29
 70
     1
102
RTVSPropertyOp30
 70
     1
102
RTVSPropertyOp31
 70
     1
102
RTVSPropertyOp32
 70
     1
  0
XRECORD
  5
2B50
102
{ACAD_REACTORS
330
2B4F
102
}
330
2B4F
100
AcDbXrecord
280
     1
102
RTVSPropertyOp0
 70
     1
102
RTVSPropertyOp1
 70
     1
102
RTVSPropertyOp2
 70
     1
102
RTVSPropertyOp3
 70
     1
102
RTVSPropertyOp4
 70
     1
102
RTVSPropertyOp5
 70
     1
102
RTVSPropertyOp6
 70
     1
102
RTVSPropertyOp7
 70
     1
102
RTVSPropertyOp8
 70
     1
102
RTVSPropertyOp9
 70
     1
102
RTVSPropertyOp10
 70
     1
102
RTVSPropertyOp11
 70
     1
102
RTVSPropertyOp12
 70
     1
102
RTVSPropertyOp13
 70
     1
102
RTVSPropertyOp14
 70
     1
102
RTVSPropertyOp15
 70
     1
102
RTVSPropertyOp16
 70
     1
102
RTVSPropertyOp17
 70
     1
102
RTVSPropertyOp18
 70
     1
102
RTVSPropertyOp19
 70
     1
102
RTVSPropertyOp20
 70
     1
102
RTVSPropertyOp21
 70
     1
102
RTVSPropertyOp22
 70
     1
102
RTVSPropertyOp23
 70
     1
102
RTVSPropertyOp24
 70
     1
102
RTVSPropertyOp25
 70
     1
102
RTVSPropertyOp26
 70
     1
102
RTVSPropertyOp27
 70
     1
102
RTVSPropertyOp28
 70
     1
102
RTVSPropertyOp29
 70
     1
102
RTVSPropertyOp30
 70
     1
102
RTVSPropertyOp31
 70
     1
102
RTVSPropertyOp32
 70
     1
  0
XRECORD
  5
2B6C
102
{ACAD_REACTORS
330
2B6B
102
}
330
2B6B
100
AcDbXrecord
280
     1
102
RTVSPropertyOp0
 70
     0
102
RTVSPropertyOp1
 70
     0
102
RTVSPropertyOp2
 70
     0
102
RTVSPropertyOp3
 70
     0
102
RTVSPropertyOp4
 70
     0
102
RTVSPropertyOp5
 70
     0
102
RTVSPropertyOp6
 70
     0
102
RTVSPropertyOp7
 70
     0
102
RTVSPropertyOp8
 70
     0
102
RTVSPropertyOp9
 70
     0
102
RTVSPropertyOp10
 70
     0
102
RTVSPropertyOp11
 70
     0
102
RTVSPropertyOp12
 70
     0
102
RTVSPropertyOp13
 70
     0
102
RTVSPropertyOp14
 70
     2
102
RTVSPropertyOp15
 70
     0
102
RTVSPropertyOp16
 70
     0
102
RTVSPropertyOp17
 70
     0
102
RTVSPropertyOp18
 70
     0
102
RTVSPropertyOp19
 70
     0
102
RTVSPropertyOp20
 70
     0
102
RTVSPropertyOp21
 70
     0
102
RTVSPropertyOp22
 70
     0
102
RTVSPropertyOp23
 70
     0
102
RTVSPropertyOp24
 70
     0
102
RTVSPropertyOp25
 70
     0
102
RTVSPropertyOp26
 70
     0
102
RTVSPropertyOp27
 70
     0
102
RTVSPropertyOp28
 70
     0
102
RTVSPropertyOp29
 70
     0
102
RTVSPropertyOp30
 70
     0
102
RTVSPropertyOp31
 70
     0
102
RTVSPropertyOp32
 70
     0
  0
XRECORD
  5
2B5C
102
{ACAD_REACTORS
330
2B5B
102
}
330
2B5B
100
AcDbXrecord
280
     1
102
RTVSPropertyOp0
 70
     1
102
RTVSPropertyOp1
 70
     1
102
RTVSPropertyOp2
 70
     1
102
RTVSPropertyOp3
 70
     1
102
RTVSPropertyOp4
 70
     1
102
RTVSPropertyOp5
 70
     1
102
RTVSPropertyOp6
 70
     1
102
RTVSPropertyOp7
 70
     1
102
RTVSPropertyOp8
 70
     1
102
RTVSPropertyOp9
 70
     1
102
RTVSPropertyOp10
 70
     1
102
RTVSPropertyOp11
 70
     1
102
RTVSPropertyOp12
 70
     1
102
RTVSPropertyOp13
 70
     1
102
RTVSPropertyOp14
 70
     1
102
RTVSPropertyOp15
 70
     1
102
RTVSPropertyOp16
 70
     1
102
RTVSPropertyOp17
 70
     1
102
RTVSPropertyOp18
 70
     1
102
RTVSPropertyOp19
 70
     1
102
RTVSPropertyOp20
 70
     1
102
RTVSPropertyOp21
 70
     1
102
RTVSPropertyOp22
 70
     1
102
RTVSPropertyOp23
 70
     1
102
RTVSPropertyOp24
 70
     1
102
RTVSPropertyOp25
 70
     1
102
RTVSPropertyOp26
 70
     1
102
RTVSPropertyOp27
 70
     1
102
RTVSPropertyOp28
 70
     1
102
RTVSPropertyOp29
 70
     1
102
RTVSPropertyOp30
 70
     1
102
RTVSPropertyOp31
 70
     1
102
RTVSPropertyOp32
 70
     1
  0
XRECORD
  5
2B6E
102
{ACAD_REACTORS
330
2B6D
102
}
330
2B6D
100
AcDbXrecord
280
     1
102
RTVSPropertyOp0
 70
     0
102
RTVSPropertyOp1
 70
     0
102
RTVSPropertyOp2
 70
     0
102
RTVSPropertyOp3
 70
     0
102
RTVSPropertyOp4
 70
     0
102
RTVSPropertyOp5
 70
     0
102
RTVSPropertyOp6
 70
     0
102
RTVSPropertyOp7
 70
     0
102
RTVSPropertyOp8
 70
     0
102
RTVSPropertyOp9
 70
     0
102
RTVSPropertyOp10
 70
     0
102
RTVSPropertyOp11
 70
     0
102
RTVSPropertyOp12
 70
     0
102
RTVSPropertyOp13
 70
     0
102
RTVSPropertyOp14
 70
     2
102
RTVSPropertyOp15
 70
     0
102
RTVSPropertyOp16
 70
     0
102
RTVSPropertyOp17
 70
     0
102
RTVSPropertyOp18
 70
     0
102
RTVSPropertyOp19
 70
     0
102
RTVSPropertyOp20
 70
     0
102
RTVSPropertyOp21
 70
     0
102
RTVSPropertyOp22
 70
     0
102
RTVSPropertyOp23
 70
     0
102
RTVSPropertyOp24
 70
     0
102
RTVSPropertyOp25
 70
     0
102
RTVSPropertyOp26
 70
     0
102
RTVSPropertyOp27
 70
     0
102
RTVSPropertyOp28
 70
     0
102
RTVSPropertyOp29
 70
     0
102
RTVSPropertyOp30
 70
     0
102
RTVSPropertyOp31
 70
     0
102
RTVSPropertyOp32
 70
     0
  0
XRECORD
  5
2B54
102
{ACAD_REACTORS
330
2B53
102
}
330
2B53
100
AcDbXrecord
280
     1
102
RTVSPropertyOp0
 70
     1
102
RTVSPropertyOp1
 70
     1
102
RTVSPropertyOp2
 70
     1
102
RTVSPropertyOp3
 70
     1
102
RTVSPropertyOp4
 70
     1
102
RTVSPropertyOp5
 70
     1
102
RTVSPropertyOp6
 70
     1
102
RTVSPropertyOp7
 70
     1
102
RTVSPropertyOp8
 70
     1
102
RTVSPropertyOp9
 70
     1
102
RTVSPropertyOp10
 70
     1
102
RTVSPropertyOp11
 70
     1
102
RTVSPropertyOp12
 70
     1
102
RTVSPropertyOp13
 70
     1
102
RTVSPropertyOp14
 70
     1
102
RTVSPropertyOp15
 70
     1
102
RTVSPropertyOp16
 70
     1
102
RTVSPropertyOp17
 70
     1
102
RTVSPropertyOp18
 70
     1
102
RTVSPropertyOp19
 70
     1
102
RTVSPropertyOp20
 70
     1
102
RTVSPropertyOp21
 70
     1
102
RTVSPropertyOp22
 70
     1
102
RTVSPropertyOp23
 70
     1
102
RTVSPropertyOp24
 70
     1
102
RTVSPropertyOp25
 70
     1
102
RTVSPropertyOp26
 70
     1
102
RTVSPropertyOp27
 70
     1
102
RTVSPropertyOp28
 70
     1
102
RTVSPropertyOp29
 70
     1
102
RTVSPropertyOp30
 70
     1
102
RTVSPropertyOp31
 70
     1
102
RTVSPropertyOp32
 70
     1
  0
XRECORD
  5
2B6A
102
{ACAD_REACTORS
330
2B69
102
}
330
2B69
100
AcDbXrecord
280
     1
102
RTVSPropertyOp0
 70
     1
102
RTVSPropertyOp1
 70
     1
102
RTVSPropertyOp2
 70
     1
102
RTVSPropertyOp3
 70
     1
102
RTVSPropertyOp4
 70
     1
102
RTVSPropertyOp5
 70
     1
102
RTVSPropertyOp6
 70
     1
102
RTVSPropertyOp7
 70
     1
102
RTVSPropertyOp8
 70
     1
102
RTVSPropertyOp9
 70
     1
102
RTVSPropertyOp10
 70
     1
102
RTVSPropertyOp11
 70
     1
102
RTVSPropertyOp12
 70
     1
102
RTVSPropertyOp13
 70
     1
102
RTVSPropertyOp14
 70
     1
102
RTVSPropertyOp15
 70
     1
102
RTVSPropertyOp16
 70
     1
102
RTVSPropertyOp17
 70
     1
102
RTVSPropertyOp18
 70
     1
102
RTVSPropertyOp19
 70
     1
102
RTVSPropertyOp20
 70
     1
102
RTVSPropertyOp21
 70
     1
102
RTVSPropertyOp22
 70
     1
102
RTVSPropertyOp23
 70
     1
102
RTVSPropertyOp24
 70
     1
102
RTVSPropertyOp25
 70
     1
102
RTVSPropertyOp26
 70
     1
102
RTVSPropertyOp27
 70
     1
102
RTVSPropertyOp28
 70
     1
102
RTVSPropertyOp29
 70
     1
102
RTVSPropertyOp30
 70
     1
102
RTVSPropertyOp31
 70
     1
102
RTVSPropertyOp32
 70
     1
  0
XRECORD
  5
2B68
102
{ACAD_REACTORS
330
2B67
102
}
330
2B67
100
AcDbXrecord
280
     1
102
RTVSPropertyOp0
 70
     1
102
RTVSPropertyOp1
 70
     1
102
RTVSPropertyOp2
 70
     1
102
RTVSPropertyOp3
 70
     1
102
RTVSPropertyOp4
 70
     1
102
RTVSPropertyOp5
 70
     1
102
RTVSPropertyOp6
 70
     1
102
RTVSPropertyOp7
 70
     1
102
RTVSPropertyOp8
 70
     1
102
RTVSPropertyOp9
 70
     1
102
RTVSPropertyOp10
 70
     1
102
RTVSPropertyOp11
 70
     1
102
RTVSPropertyOp12
 70
     1
102
RTVSPropertyOp13
 70
     1
102
RTVSPropertyOp14
 70
     1
102
RTVSPropertyOp15
 70
     1
102
RTVSPropertyOp16
 70
     1
102
RTVSPropertyOp17
 70
     1
102
RTVSPropertyOp18
 70
     1
102
RTVSPropertyOp19
 70
     1
102
RTVSPropertyOp20
 70
     1
102
RTVSPropertyOp21
 70
     1
102
RTVSPropertyOp22
 70
     1
102
RTVSPropertyOp23
 70
     1
102
RTVSPropertyOp24
 70
     1
102
RTVSPropertyOp25
 70
     1
102
RTVSPropertyOp26
 70
     1
102
RTVSPropertyOp27
 70
     1
102
RTVSPropertyOp28
 70
     1
102
RTVSPropertyOp29
 70
     1
102
RTVSPropertyOp30
 70
     1
102
RTVSPropertyOp31
 70
     1
102
RTVSPropertyOp32
 70
     1
  0
XRECORD
  5
2B62
102
{ACAD_REACTORS
330
2B61
102
}
330
2B61
100
AcDbXrecord
280
     1
102
RTVSPropertyOp0
 70
     1
102
RTVSPropertyOp1
 70
     1
102
RTVSPropertyOp2
 70
     1
102
RTVSPropertyOp3
 70
     1
102
RTVSPropertyOp4
 70
     1
102
RTVSPropertyOp5
 70
     1
102
RTVSPropertyOp6
 70
     1
102
RTVSPropertyOp7
 70
     1
102
RTVSPropertyOp8
 70
     1
102
RTVSPropertyOp9
 70
     1
102
RTVSPropertyOp10
 70
     1
102
RTVSPropertyOp11
 70
     1
102
RTVSPropertyOp12
 70
     1
102
RTVSPropertyOp13
 70
     1
102
RTVSPropertyOp14
 70
     1
102
RTVSPropertyOp15
 70
     1
102
RTVSPropertyOp16
 70
     1
102
RTVSPropertyOp17
 70
     1
102
RTVSPropertyOp18
 70
     1
102
RTVSPropertyOp19
 70
     1
102
RTVSPropertyOp20
 70
     1
102
RTVSPropertyOp21
 70
     1
102
RTVSPropertyOp22
 70
     1
102
RTVSPropertyOp23
 70
     1
102
RTVSPropertyOp24
 70
     1
102
RTVSPropertyOp25
 70
     1
102
RTVSPropertyOp26
 70
     1
102
RTVSPropertyOp27
 70
     1
102
RTVSPropertyOp28
 70
     1
102
RTVSPropertyOp29
 70
     1
102
RTVSPropertyOp30
 70
     1
102
RTVSPropertyOp31
 70
     1
102
RTVSPropertyOp32
 70
     1
  0
XRECORD
  5
2B64
102
{ACAD_REACTORS
330
2B63
102
}
330
2B63
100
AcDbXrecord
280
     1
102
RTVSPropertyOp0
 70
     1
102
RTVSPropertyOp1
 70
     1
102
RTVSPropertyOp2
 70
     1
102
RTVSPropertyOp3
 70
     1
102
RTVSPropertyOp4
 70
     1
102
RTVSPropertyOp5
 70
     1
102
RTVSPropertyOp6
 70
     1
102
RTVSPropertyOp7
 70
     1
102
RTVSPropertyOp8
 70
     1
102
RTVSPropertyOp9
 70
     1
102
RTVSPropertyOp10
 70
     1
102
RTVSPropertyOp11
 70
     1
102
RTVSPropertyOp12
 70
     1
102
RTVSPropertyOp13
 70
     1
102
RTVSPropertyOp14
 70
     1
102
RTVSPropertyOp15
 70
     1
102
RTVSPropertyOp16
 70
     1
102
RTVSPropertyOp17
 70
     1
102
RTVSPropertyOp18
 70
     1
102
RTVSPropertyOp19
 70
     1
102
RTVSPropertyOp20
 70
     1
102
RTVSPropertyOp21
 70
     1
102
RTVSPropertyOp22
 70
     1
102
RTVSPropertyOp23
 70
     1
102
RTVSPropertyOp24
 70
     1
102
RTVSPropertyOp25
 70
     1
102
RTVSPropertyOp26
 70
     1
102
RTVSPropertyOp27
 70
     1
102
RTVSPropertyOp28
 70
     1
102
RTVSPropertyOp29
 70
     1
102
RTVSPropertyOp30
 70
     1
102
RTVSPropertyOp31
 70
     1
102
RTVSPropertyOp32
 70
     1
  0
XRECORD
  5
2B5A
102
{ACAD_REACTORS
330
2B59
102
}
330
2B59
100
AcDbXrecord
280
     1
102
RTVSPropertyOp0
 70
     1
102
RTVSPropertyOp1
 70
     1
102
RTVSPropertyOp2
 70
     1
102
RTVSPropertyOp3
 70
     1
102
RTVSPropertyOp4
 70
     1
102
RTVSPropertyOp5
 70
     1
102
RTVSPropertyOp6
 70
     1
102
RTVSPropertyOp7
 70
     1
102
RTVSPropertyOp8
 70
     1
102
RTVSPropertyOp9
 70
     1
102
RTVSPropertyOp10
 70
     1
102
RTVSPropertyOp11
 70
     1
102
RTVSPropertyOp12
 70
     1
102
RTVSPropertyOp13
 70
     1
102
RTVSPropertyOp14
 70
     1
102
RTVSPropertyOp15
 70
     1
102
RTVSPropertyOp16
 70
     1
102
RTVSPropertyOp17
 70
     1
102
RTVSPropertyOp18
 70
     1
102
RTVSPropertyOp19
 70
     1
102
RTVSPropertyOp20
 70
     1
102
RTVSPropertyOp21
 70
     1
102
RTVSPropertyOp22
 70
     1
102
RTVSPropertyOp23
 70
     1
102
RTVSPropertyOp24
 70
     1
102
RTVSPropertyOp25
 70
     1
102
RTVSPropertyOp26
 70
     1
102
RTVSPropertyOp27
 70
     1
102
RTVSPropertyOp28
 70
     1
102
RTVSPropertyOp29
 70
     1
102
RTVSPropertyOp30
 70
     1
102
RTVSPropertyOp31
 70
     1
102
RTVSPropertyOp32
 70
     1
  0
XRECORD
  5
2B4E
102
{ACAD_REACTORS
330
2B4D
102
}
330
2B4D
100
AcDbXrecord
280
     1
102
RTVSPropertyOp0
 70
     1
102
RTVSPropertyOp1
 70
     1
102
RTVSPropertyOp2
 70
     1
102
RTVSPropertyOp3
 70
     1
102
RTVSPropertyOp4
 70
     1
102
RTVSPropertyOp5
 70
     1
102
RTVSPropertyOp6
 70
     1
102
RTVSPropertyOp7
 70
     1
102
RTVSPropertyOp8
 70
     1
102
RTVSPropertyOp9
 70
     1
102
RTVSPropertyOp10
 70
     1
102
RTVSPropertyOp11
 70
     1
102
RTVSPropertyOp12
 70
     1
102
RTVSPropertyOp13
 70
     1
102
RTVSPropertyOp14
 70
     1
102
RTVSPropertyOp15
 70
     1
102
RTVSPropertyOp16
 70
     1
102
RTVSPropertyOp17
 70
     1
102
RTVSPropertyOp18
 70
     1
102
RTVSPropertyOp19
 70
     1
102
RTVSPropertyOp20
 70
     1
102
RTVSPropertyOp21
 70
     1
102
RTVSPropertyOp22
 70
     1
102
RTVSPropertyOp23
 70
     1
102
RTVSPropertyOp24
 70
     1
102
RTVSPropertyOp25
 70
     1
102
RTVSPropertyOp26
 70
     1
102
RTVSPropertyOp27
 70
     1
102
RTVSPropertyOp28
 70
     1
102
RTVSPropertyOp29
 70
     1
102
RTVSPropertyOp30
 70
     1
102
RTVSPropertyOp31
 70
     1
102
RTVSPropertyOp32
 70
     1
  0
XRECORD
  5
2B66
102
{ACAD_REACTORS
330
2B65
102
}
330
2B65
100
AcDbXrecord
280
     1
102
RTVSPropertyOp0
 70
     1
102
RTVSPropertyOp1
 70
     1
102
RTVSPropertyOp2
 70
     1
102
RTVSPropertyOp3
 70
     1
102
RTVSPropertyOp4
 70
     1
102
RTVSPropertyOp5
 70
     1
102
RTVSPropertyOp6
 70
     1
102
RTVSPropertyOp7
 70
     1
102
RTVSPropertyOp8
 70
     1
102
RTVSPropertyOp9
 70
     1
102
RTVSPropertyOp10
 70
     1
102
RTVSPropertyOp11
 70
     1
102
RTVSPropertyOp12
 70
     1
102
RTVSPropertyOp13
 70
     1
102
RTVSPropertyOp14
 70
     1
102
RTVSPropertyOp15
 70
     1
102
RTVSPropertyOp16
 70
     1
102
RTVSPropertyOp17
 70
     1
102
RTVSPropertyOp18
 70
     1
102
RTVSPropertyOp19
 70
     1
102
RTVSPropertyOp20
 70
     1
102
RTVSPropertyOp21
 70
     1
102
RTVSPropertyOp22
 70
     1
102
RTVSPropertyOp23
 70
     1
102
RTVSPropertyOp24
 70
     1
102
RTVSPropertyOp25
 70
     1
102
RTVSPropertyOp26
 70
     1
102
RTVSPropertyOp27
 70
     1
102
RTVSPropertyOp28
 70
     1
102
RTVSPropertyOp29
 70
     1
102
RTVSPropertyOp30
 70
     1
102
RTVSPropertyOp31
 70
     1
102
RTVSPropertyOp32
 70
     1
  0
ENDSEC
  0
EOF
