  0
SECTION
  2
HEADER
  9
$ACADVER
  1
AC1018
  9
$ACADMAINTVER
 70
     0
  9
$DWGCODEPAGE
  3
ANSI_1252
  9
$LASTSAVEDBY
  1
mjones
  9
$INSBASE
 10
0.0
 20
0.0
 30
0.0
  9
$EXTMIN
 10
23.16983802119994
 20
23.7107346992
 30
0.0
  9
$EXTMAX
 10
972.2160626207001
 20
710.7668454371002
 30
0.0
  9
$LIMMIN
 10
0.0
 20
0.0
  9
$LIMMAX
 10
1000.0
 20
750.0
  9
$ORTHOMODE
 70
     0
  9
$REGENMODE
 70
     1
  9
$FILLMODE
 70
     1
  9
$QTEXTMODE
 70
     0
  9
$MIRRTEXT
 70
     1
  9
$LTSCALE
 40
1.0
  9
$ATTMODE
 70
     1
  9
$TEXTSIZE
 40
3.5
  9
$TRACEWID
 40
1.0
  9
$TEXTSTYLE
  7
Standard
  9
$CLAYER
  8
0
  9
$CELTYPE
  6
ByLayer
  9
$CECOLOR
 62
   256
  9
$CELTSCALE
 40
1.0
  9
$DISPSILH
 70
     0
  9
$DIMSCALE
 40
1.0
  9
$DIMASZ
 40
6.0
  9
$DIMEXO
 40
1.0
  9
$DIMDLI
 40
3.75
  9
$DIMRND
 40
0.0
  9
$DIMDLE
 40
0.0
  9
$DIMEXE
 40
1.0
  9
$DIMTP
 40
0.0
  9
$DIMTM
 40
0.0
  9
$DIMTXT
 40
3.5
  9
$DIMCEN
 40
2.5
  9
$DIMTSZ
 40
0.0
  9
$DIMTOL
 70
     0
  9
$DIMLIM
 70
     0
  9
$DIMTIH
 70
     1
  9
$DIMTOH
 70
     1
  9
$DIMSE1
 70
     0
  9
$DIMSE2
 70
     0
  9
$DIMTAD
 70
     1
  9
$DIMZIN
 70
     0
  9
$DIMBLK
  1

  9
$DIMASO
 70
     1
  9
$DIMSHO
 70
     1
  9
$DIMPOST
  1

  9
$DIMAPOST
  1

  9
$DIMALT
 70
     0
  9
$DIMALTD
 70
     3
  9
$DIMALTF
 40
0.0393700787
  9
$DIMLFAC
 40
2.0
  9
$DIMTOFL
 70
     1
  9
$DIMTVP
 40
0.0
  9
$DIMTIX
 70
     0
  9
$DIMSOXD
 70
     0
  9
$DIMSAH
 70
     0
  9
$DIMBLK1
  1

  9
$DIMBLK2
  1

  9
$DIMSTYLE
  2
ISO-25
  9
$DIMCLRD
 70
     0
  9
$DIMCLRE
 70
     0
  9
$DIMCLRT
 70
     0
  9
$DIMTFAC
 40
1.0
  9
$DIMGAP
 40
1.524
  9
$DIMJUST
 70
     0
  9
$DIMSD1
 70
     0
  9
$DIMSD2
 70
     0
  9
$DIMTOLJ
 70
     0
  9
$DIMTZIN
 70
     0
  9
$DIMALTZ
 70
     0
  9
$DIMALTTZ
 70
     0
  9
$DIMUPT
 70
     0
  9
$DIMDEC
 70
     2
  9
$DIMTDEC
 70
     2
  9
$DIMALTU
 70
     2
  9
$DIMALTTD
 70
     3
  9
$DIMTXSTY
  7
Standard
  9
$DIMAUNIT
 70
     0
  9
$DIMADEC
 70
     0
  9
$DIMALTRND
 40
0.0
  9
$DIMAZIN
 70
     0
  9
$DIMDSEP
 70
    44
  9
$DIMATFIT
 70
     3
  9
$DIMFRAC
 70
     0
  9
$DIMLDRBLK
  1

  9
$DIMLUNIT
 70
     2
  9
$DIMLWD
 70
    -2
  9
$DIMLWE
 70
    -2
  9
$DIMTMOVE
 70
     0
  9
$LUNITS
 70
     2
  9
$LUPREC
 70
     1
  9
$SKETCHINC
 40
1.0
  9
$FILLETRAD
 40
10.0
  9
$AUNITS
 70
     0
  9
$AUPREC
 70
     0
  9
$MENU
  1
.
  9
$ELEVATION
 40
0.0
  9
$PELEVATION
 40
0.0
  9
$THICKNESS
 40
0.0
  9
$LIMCHECK
 70
     0
  9
$CHAMFERA
 40
10.0
  9
$CHAMFERB
 40
10.0
  9
$CHAMFERC
 40
20.0
  9
$CHAMFERD
 40
0.0
  9
$SKPOLY
 70
     0
  9
$TDCREATE
 40
2453353.550459155
  9
$TDUCREATE
 40
2453353.717125822
  9
$TDUPDATE
 40
2454965.608565498
  9
$TDUUPDATE
 40
2454965.775232164
  9
$TDINDWG
 40
0.0574884375
  9
$TDUSRTIMER
 40
0.0574884375
  9
$USRTIMER
 70
     1
  9
$ANGBASE
 50
0.0
  9
$ANGDIR
 70
     0
  9
$PDMODE
 70
     0
  9
$PDSIZE
 40
-1.0
  9
$PLINEWID
 40
0.0
  9
$SPLFRAME
 70
     0
  9
$SPLINETYPE
 70
     6
  9
$SPLINESEGS
 70
     8
  9
$HANDSEED
  5
2E8
  9
$SURFTAB1
 70
     6
  9
$SURFTAB2
 70
     6
  9
$SURFTYPE
 70
     6
  9
$SURFU
 70
     6
  9
$SURFV
 70
     6
  9
$UCSBASE
  2

  9
$UCSNAME
  2

  9
$UCSORG
 10
0.0
 20
0.0
 30
0.0
  9
$UCSXDIR
 10
1.0
 20
0.0
 30
0.0
  9
$UCSYDIR
 10
0.0
 20
1.0
 30
0.0
  9
$UCSORTHOREF
  2

  9
$UCSORTHOVIEW
 70
     0
  9
$UCSORGTOP
 10
0.0
 20
0.0
 30
0.0
  9
$UCSORGBOTTOM
 10
0.0
 20
0.0
 30
0.0
  9
$UCSORGLEFT
 10
0.0
 20
0.0
 30
0.0
  9
$UCSORGRIGHT
 10
0.0
 20
0.0
 30
0.0
  9
$UCSORGFRONT
 10
0.0
 20
0.0
 30
0.0
  9
$UCSORGBACK
 10
0.0
 20
0.0
 30
0.0
  9
$PUCSBASE
  2

  9
$PUCSNAME
  2

  9
$PUCSORG
 10
0.0
 20
0.0
 30
0.0
  9
$PUCSXDIR
 10
1.0
 20
0.0
 30
0.0
  9
$PUCSYDIR
 10
0.0
 20
1.0
 30
0.0
  9
$PUCSORTHOREF
  2

  9
$PUCSORTHOVIEW
 70
     0
  9
$PUCSORGTOP
 10
0.0
 20
0.0
 30
0.0
  9
$PUCSORGBOTTOM
 10
0.0
 20
0.0
 30
0.0
  9
$PUCSORGLEFT
 10
0.0
 20
0.0
 30
0.0
  9
$PUCSORGRIGHT
 10
0.0
 20
0.0
 30
0.0
  9
$PUCSORGFRONT
 10
0.0
 20
0.0
 30
0.0
  9
$PUCSORGBACK
 10
0.0
 20
0.0
 30
0.0
  9
$USERI1
 70
     0
  9
$USERI2
 70
     0
  9
$USERI3
 70
     0
  9
$USERI4
 70
     0
  9
$USERI5
 70
     0
  9
$USERR1
 40
0.0
  9
$USERR2
 40
0.0
  9
$USERR3
 40
0.0
  9
$USERR4
 40
0.0
  9
$USERR5
 40
0.0
  9
$WORLDVIEW
 70
     1
  9
$SHADEDGE
 70
     3
  9
$SHADEDIF
 70
    70
  9
$TILEMODE
 70
     1
  9
$MAXACTVP
 70
    64
  9
$PINSBASE
 10
0.0
 20
0.0
 30
0.0
  9
$PLIMCHECK
 70
     0
  9
$PEXTMIN
 10
1.000000000000000E+20
 20
1.000000000000000E+20
 30
1.000000000000000E+20
  9
$PEXTMAX
 10
-1.000000000000000E+20
 20
-1.000000000000000E+20
 30
-1.000000000000000E+20
  9
$PLIMMIN
 10
0.0
 20
0.0
  9
$PLIMMAX
 10
420.0
 20
297.0
  9
$UNITMODE
 70
     0
  9
$VISRETAIN
 70
     1
  9
$PLINEGEN
 70
     0
  9
$PSLTSCALE
 70
     1
  9
$TREEDEPTH
 70
  3020
  9
$CMLSTYLE
  2
Standard
  9
$CMLJUST
 70
     0
  9
$CMLSCALE
 40
20.0
  9
$PROXYGRAPHICS
 70
     1
  9
$MEASUREMENT
 70
     1
  9
$CELWEIGHT
370
    -1
  9
$ENDCAPS
280
     0
  9
$JOINSTYLE
280
     0
  9
$LWDISPLAY
290
     1
  9
$INSUNITS
 70
     4
  9
$HYPERLINKBASE
  1

  9
$STYLESHEET
  1

  9
$XEDIT
290
     0
  9
$CEPSNTYPE
380
     0
  9
$PSTYLEMODE
290
     1
  9
$FINGERPRINTGUID
  2
{E8EA9D22-47BA-482D-88AD-81059A6B1C74}
  9
$VERSIONGUID
  2
{FAEB1C32-E019-11D5-929B-00C0DF256EC4}
  9
$EXTNAMES
290
     1
  9
$PSVPSCALE
 40
0.0
  9
$OLESTARTUP
290
     0
  9
$SORTENTS
280
   127
  9
$INDEXCTL
280
     0
  9
$HIDETEXT
280
     1
  9
$XCLIPFRAME
290
     0
  9
$HALOGAP
280
     0
  9
$OBSCOLOR
 70
   257
  9
$OBSLTYPE
280
     0
  9
$INTERSECTIONDISPLAY
280
     0
  9
$INTERSECTIONCOLOR
 70
   257
  9
$DIMASSOC
280
     2
  9
$PROJECTNAME
  1

  0
ENDSEC
  0
SECTION
  2
CLASSES
  0
CLASS
  1
ACDBDICTIONARYWDFLT
  2
AcDbDictionaryWithDefault
  3
ObjectDBX Classes
 90
        0
 91
        3
280
     0
281
     0
  0
CLASS
  1
ACDBPLACEHOLDER
  2
AcDbPlaceHolder
  3
ObjectDBX Classes
 90
        0
 91
        1
280
     0
281
     0
  0
CLASS
  1
LAYOUT
  2
AcDbLayout
  3
ObjectDBX Classes
 90
        0
 91
        1
280
     0
281
     0
  0
CLASS
  1
DICTIONARYVAR
  2
AcDbDictionaryVar
  3
ObjectDBX Classes
 90
        0
 91
        3
280
     0
281
     0
  0
CLASS
  1
TABLESTYLE
  2
AcDbTableStyle
  3
ObjectDBX Classes
 90
     4095
 91
        3
280
     0
281
     0
  0
CLASS
  1
SCALE
  2
AcDbScale
  3
ObjectDBX Classes
 90
     1153
 91
        3
280
     0
281
     0
  0
CLASS
  1
VISUALSTYLE
  2
AcDbVisualStyle
  3
ObjectDBX Classes
 90
     4095
 91
        3
280
     0
281
     0
  0
ENDSEC
  0
SECTION
  2
TABLES
  0
TABLE
  2
VPORT
  5
8
330
0
100
AcDbSymbolTable
 70
     2
  0
VPORT
  5
97
330
8
100
AcDbSymbolTableRecord
100
AcDbViewportTableRecord
  2
*Active
 70
     0
 10
0.0
 20
0.0
 11
1.0
 21
1.0
 12
497.69295032095
 22
367.2387900681501
 13
0.0
 23
0.0
 14
10.0
 24
10.0
 15
10.0
 25
10.0
 16
0.0
 26
0.0
 36
1.0
 17
0.0
 27
0.0
 37
0.0
 40
700.7972329526582
 41
1.3333333333
 42
50.0
 43
0.0
 44
0.0
 50
0.0
 51
0.0
 71
    16
 72
  2000
 73
     1
 74
     3
 75
     0
 76
     0
 77
     0
 78
     0
281
     0
 65
     0
110
0.0
120
0.0
130
0.0
111
1.0
121
0.0
131
0.0
112
0.0
122
1.0
132
0.0
 79
     0
146
0.0
  0
ENDTAB
  0
TABLE
  2
LTYPE
  5
5
330
0
100
AcDbSymbolTable
 70
     6
  0
LTYPE
  5
14
330
5
100
AcDbSymbolTableRecord
100
AcDbLinetypeTableRecord
  2
ByBlock
 70
     0
  3

 72
    65
 73
     0
 40
0.0
  0
LTYPE
  5
15
330
5
100
AcDbSymbolTableRecord
100
AcDbLinetypeTableRecord
  2
ByLayer
 70
     0
  3

 72
    65
 73
     0
 40
0.0
  0
LTYPE
  5
16
330
5
100
AcDbSymbolTableRecord
100
AcDbLinetypeTableRecord
  2
Continuous
 70
     0
  3
Solid line
 72
    65
 73
     0
 40
0.0
  0
LTYPE
  5
2D2
330
5
100
AcDbSymbolTableRecord
100
AcDbLinetypeTableRecord
  2
HIDDEN
 70
     0
  3
Hidden __ __ __ __ __ __ __ __ __ __ __ __ __ __
 72
    65
 73
     2
 40
1.905
 49
1.27
 74
     4
 75
     0
340
0
 46
1.0
 50
0.0
 44
0.0
 45
0.0
 49
-0.635
 74
     4
 75
     0
340
0
 46
1.0
 50
0.0
 44
0.0
 45
0.0
  0
LTYPE
  5
2D3
330
5
100
AcDbSymbolTableRecord
100
AcDbLinetypeTableRecord
  2
PHANTOM
 70
     0
  3
Phantom ______  __  __  ______  __  __  ______
 72
    65
 73
     6
 40
12.7
 49
6.35
 74
     4
 75
     0
340
0
 46
1.0
 50
0.0
 44
0.0
 45
0.0
 49
-1.27
 74
     4
 75
     0
340
0
 46
1.0
 50
0.0
 44
0.0
 45
0.0
 49
1.27
 74
     4
 75
     0
340
0
 46
1.0
 50
0.0
 44
0.0
 45
0.0
 49
-1.27
 74
     4
 75
     0
340
0
 46
1.0
 50
0.0
 44
0.0
 45
0.0
 49
1.27
 74
     4
 75
     0
340
0
 46
1.0
 50
0.0
 44
0.0
 45
0.0
 49
-1.27
 74
     4
 75
     0
340
0
 46
1.0
 50
0.0
 44
0.0
 45
0.0
  0
LTYPE
  5
2D4
330
5
100
AcDbSymbolTableRecord
100
AcDbLinetypeTableRecord
  2
CENTER
 70
     0
  3
Center ____ _ ____ _ ____ _ ____ _ ____ _ ____
 72
    65
 73
     4
 40
10.16
 49
6.35
 74
     4
 75
     0
340
0
 46
1.0
 50
0.0
 44
0.0
 45
0.0
 49
-1.27
 74
     4
 75
     0
340
0
 46
1.0
 50
0.0
 44
0.0
 45
0.0
 49
1.27
 74
     4
 75
     0
340
0
 46
1.0
 50
0.0
 44
0.0
 45
0.0
 49
-1.27
 74
     4
 75
     0
340
0
 46
1.0
 50
0.0
 44
0.0
 45
0.0
  0
LTYPE
  5
2D5
330
5
100
AcDbSymbolTableRecord
100
AcDbLinetypeTableRecord
  2
CENTERX2
 70
     0
  3
Center (2x) ________  __  ________  __  _____
 72
    65
 73
     4
 40
20.32
 49
12.7
 74
     4
 75
     0
340
0
 46
1.0
 50
0.0
 44
0.0
 45
0.0
 49
-2.54
 74
     4
 75
     0
340
0
 46
1.0
 50
0.0
 44
0.0
 45
0.0
 49
2.54
 74
     4
 75
     0
340
0
 46
1.0
 50
0.0
 44
0.0
 45
0.0
 49
-2.54
 74
     4
 75
     0
340
0
 46
1.0
 50
0.0
 44
0.0
 45
0.0
  0
LTYPE
  5
2D6
330
5
100
AcDbSymbolTableRecord
100
AcDbLinetypeTableRecord
  2
DOT2
 70
     0
  3
Dot (.5x) ........................................
 72
    65
 73
     2
 40
0.635
 49
0.0
 74
     4
 75
     0
340
0
 46
1.0
 50
0.0
 44
0.0
 45
0.0
 49
-0.635
 74
     4
 75
     0
340
0
 46
1.0
 50
0.0
 44
0.0
 45
0.0
  0
ENDTAB
  0
TABLE
  2
LAYER
  5
2
330
0
100
AcDbSymbolTable
 70
     2
  0
LAYER
  5
10
330
2
100
AcDbSymbolTableRecord
100
AcDbLayerTableRecord
  2
0
 70
     0
 62
     7
  6
Continuous
370
    -3
390
F
  0
LAYER
  5
62
330
2
100
AcDbSymbolTableRecord
100
AcDbLayerTableRecord
  2
FORMAT
 70
     0
 62
     7
  6
Continuous
370
    -3
390
F
  0
ENDTAB
  0
TABLE
  2
STYLE
  5
3
330
0
100
AcDbSymbolTable
 70
     1
  0
STYLE
  5
11
330
3
100
AcDbSymbolTableRecord
100
AcDbTextStyleTableRecord
  2
Standard
 70
     0
 40
0.0
 41
1.0
 50
0.0
 71
     0
 42
2.5
  3
txt
  4

  0
ENDTAB
  0
TABLE
  2
VIEW
  5
6
330
0
100
AcDbSymbolTable
 70
     0
  0
ENDTAB
  0
TABLE
  2
UCS
  5
7
330
0
100
AcDbSymbolTable
 70
     0
  0
ENDTAB
  0
TABLE
  2
APPID
  5
9
330
0
100
AcDbSymbolTable
 70
     1
  0
APPID
  5
12
330
9
100
AcDbSymbolTableRecord
100
AcDbRegAppTableRecord
  2
ACAD
 70
     0
  0
ENDTAB
  0
TABLE
  2
DIMSTYLE
  5
A
330
0
100
AcDbSymbolTable
 70
     2
100
AcDbDimStyleTable
  0
DIMSTYLE
105
27
330
A
100
AcDbSymbolTableRecord
100
AcDbDimStyleTableRecord
  2
Standard
 70
     0
278
     0
340
11
  0
DIMSTYLE
105
2D7
330
A
100
AcDbSymbolTableRecord
100
AcDbDimStyleTableRecord
  2
ISO-25
 70
     0
 41
2.5
 42
0.625
 43
3.75
 44
1.25
 73
     0
 74
     0
 77
     1
 78
     8
140
2.5
141
2.5
143
0.0393700787
147
0.625
171
     3
172
     1
271
     2
272
     2
274
     3
278
    44
283
     0
284
     8
340
11
  0
ENDTAB
  0
TABLE
  2
BLOCK_RECORD
  5
1
330
0
100
AcDbSymbolTable
 70
     2
  0
BLOCK_RECORD
  5
1F
330
1
100
AcDbSymbolTableRecord
100
AcDbBlockTableRecord
  2
*Model_Space
340
22
  0
BLOCK_RECORD
  5
73
330
1
100
AcDbSymbolTableRecord
100
AcDbBlockTableRecord
  2
*Paper_Space
340
74
  0
BLOCK_RECORD
  5
23
330
1
100
AcDbSymbolTableRecord
100
AcDbBlockTableRecord
  2
*Paper_Space0
340
26
  0
BLOCK_RECORD
  5
222
330
1
100
AcDbSymbolTableRecord
100
AcDbBlockTableRecord
  2
SW_CENTERMARKSYMBOL_0
340
0
  0
ENDTAB
  0
ENDSEC
  0
SECTION
  2
BLOCKS
  0
BLOCK
  5
20
330
1F
100
AcDbEntity
  8
0
100
AcDbBlockBegin
  2
*Model_Space
 70
     0
 10
0.0
 20
0.0
 30
0.0
  3
*Model_Space
  1

  0
ENDBLK
  5
21
330
1F
100
AcDbEntity
  8
0
100
AcDbBlockEnd
  0
BLOCK
  5
75
330
73
100
AcDbEntity
 67
     1
  8
0
100
AcDbBlockBegin
  2
*Paper_Space
 70
     0
 10
0.0
 20
0.0
 30
0.0
  3
*Paper_Space
  1

  0
ENDBLK
  5
76
330
73
100
AcDbEntity
 67
     1
  8
0
100
AcDbBlockEnd
  0
BLOCK
  5
2DA
330
23
100
AcDbEntity
  8
0
100
AcDbBlockBegin
  2
*Paper_Space0
 70
     0
 10
0.0
 20
0.0
 30
0.0
  3
*Paper_Space0
  1

  0
ENDBLK
  5
2DB
330
23
100
AcDbEntity
  8
0
100
AcDbBlockEnd
  0
BLOCK
  5
2DC
330
222
100
AcDbEntity
  8
0
100
AcDbBlockBegin
  2
SW_CENTERMARKSYMBOL_0
 70
     0
 10
0.0
 20
0.0
 30
0.0
  3
SW_CENTERMARKSYMBOL_0
  1

  0
LINE
  5
225
330
222
100
AcDbEntity
  8
0
  6
Continuous
 62
     0
370
     0
100
AcDbLine
 10
0.0
 20
0.0
 30
0.0
 11
0.0
 21
2.5
 31
0.0
  0
LINE
  5
226
330
222
100
AcDbEntity
  8
0
  6
Continuous
 62
     0
370
     0
100
AcDbLine
 10
0.0
 20
0.0
 30
0.0
 11
-2.5
 21
0.0
 31
0.0
  0
LINE
  5
227
330
222
100
AcDbEntity
  8
0
  6
Continuous
 62
     0
370
     0
100
AcDbLine
 10
0.0
 20
0.0
 30
0.0
 11
0.0
 21
-2.5
 31
0.0
  0
LINE
  5
228
330
222
100
AcDbEntity
  8
0
  6
Continuous
 62
     0
370
     0
100
AcDbLine
 10
0.0
 20
0.0
 30
0.0
 11
2.5
 21
0.0
 31
0.0
  0
LINE
  5
229
330
222
100
AcDbEntity
  8
0
  6
Continuous
 62
     0
370
     0
100
AcDbLine
 10
0.0
 20
5.0
 30
0.0
 11
0.0
 21
24.4999998926
 31
0.0
  0
LINE
  5
22A
330
222
100
AcDbEntity
  8
0
  6
Continuous
 62
     0
370
     0
100
AcDbLine
 10
-5.0
 20
0.0
 30
0.0
 11
-24.4999998926
 21
0.0
 31
0.0
  0
LINE
  5
22B
330
222
100
AcDbEntity
  8
0
  6
Continuous
 62
     0
370
     0
100
AcDbLine
 10
0.0
 20
-5.0
 30
0.0
 11
0.0
 21
-24.4999998926
 31
0.0
  0
LINE
  5
22C
330
222
100
AcDbEntity
  8
0
  6
Continuous
 62
     0
370
     0
100
AcDbLine
 10
5.0
 20
0.0
 30
0.0
 11
24.4999998926
 21
0.0
 31
0.0
  0
ENDBLK
  5
2DD
330
222
100
AcDbEntity
  8
0
100
AcDbBlockEnd
  0
ENDSEC
  0
SECTION
  2
ENTITIES
  0
SPLINE
  5
63
330
1F
100
AcDbEntity
  8
0
  6
Continuous
 62
     7
370
    15
100
AcDbSpline
210
0.0
220
0.0
230
1.0
 70
     8
 71
     3
 72
    13
 73
     9
 74
     0
 42
0.00000001
 43
0.00000001
 40
0.0
 40
0.0
 40
0.0
 40
0.0
 40
0.1236550404262656
 40
0.509735094509425
 40
0.8234960123699292
 40
0.9196658011483155
 40
0.985831301986892
 40
1.0
 40
1.0
 40
1.0
 40
1.0
 10
84.51351294317091
 20
150.7778546552314
 30
0.0
 10
84.45431205351015
 20
150.8193559287268
 30
0.0
 10
84.2102720937781
 20
150.990433917093
 30
0.0
 10
83.93903065125401
 20
151.1848750603149
 30
0.0
 10
83.79197798293583
 20
151.2894232519674
 30
0.0
 10
83.78978266668847
 20
151.2907694782546
 30
0.0
 10
83.7829674412428
 20
151.2959854618537
 30
0.0
 10
83.82965918202159
 20
151.2621306214818
 30
0.0
 10
83.83789429464186
 20
151.2561595778121
 30
0.0
  0
SPLINE
  5
64
330
1F
100
AcDbEntity
  8
0
  6
Continuous
 62
     7
370
    15
100
AcDbSpline
210
0.0
220
0.0
230
1.0
 70
     8
 71
     3
 72
    11
 73
     7
 74
     0
 42
0.00000001
 43
0.00000001
 40
0.0
 40
0.0
 40
0.0
 40
0.0
 40
0.2229880631073817
 40
0.5244864966788083
 40
0.82594218132733
 40
1.0
 40
1.0
 40
1.0
 40
1.0
 10
189.8276484946236
 20
69.50344953342811
 30
0.0
 10
191.8676756289415
 20
68.79840829227663
 30
0.0
 10
196.6659893588242
 20
67.14009257154892
 30
0.0
 10
204.3527050396782
 20
64.92634693401108
 30
0.0
 10
211.6396117827005
 20
63.04403025913376
 30
0.0
 10
216.1508458012179
 20
62.12736733971401
 30
0.0
 10
217.8021460215077
 20
61.79183039471047
 30
0.0
  0
SPLINE
  5
65
330
1F
100
AcDbEntity
  8
0
  6
Continuous
 62
     7
370
    15
100
AcDbSpline
210
0.0
220
0.0
230
1.0
 70
     8
 71
     3
 72
    11
 73
     7
 74
     0
 42
0.00000001
 43
0.00000001
 40
0.0
 40
0.0
 40
0.0
 40
0.0
 40
0.1736187149445011
 40
0.4752364734981192
 40
0.7768971634310639
 40
1.0
 40
1.0
 40
1.0
 40
1.0
 10
310.354550872229
 20
61.7953917722358
 30
0.0
 10
312.0006910032526
 20
62.12991946009301
 30
0.0
 10
316.5065752393008
 20
63.04560276483114
 30
0.0
 10
323.7880086416932
 20
64.92666177002836
 30
0.0
 10
331.4742034494328
 20
67.14025622357424
 30
0.0
 10
336.2721738684971
 20
68.798463780861
 30
0.0
 10
338.3120275477394
 20
69.50344953342811
 30
0.0
  0
ARC
  5
66
330
1F
100
AcDbEntity
  8
0
  6
Continuous
 62
     7
370
    15
100
AcDbCircle
 10
331.7943457191
 20
88.3763847435
 30
0.0
 40
19.99999999999999
100
AcDbArc
 50
289.0534482358
 51
324.9129528021
  0
SPLINE
  5
67
330
1F
100
AcDbEntity
  8
0
  6
Continuous
 62
     7
370
    15
100
AcDbSpline
210
0.0
220
0.0
230
1.0
 70
    24
 71
     1
 72
     4
 73
     2
 74
     0
 42
0.00000001
 43
0.00000001
 40
0.0
 40
0.0
 40
1.0
 40
1.0
 10
179.9983135799393
 20
76.85469898983375
 30
0.0
 10
179.9925617317185
 20
76.86273071571723
 30
0.0
  0
SPLINE
  5
68
330
1F
100
AcDbEntity
  8
0
  6
Continuous
 62
     7
370
    15
100
AcDbSpline
210
0.0
220
0.0
230
1.0
 70
     8
 71
     3
 72
    21
 73
    17
 74
     0
 42
0.00000001
 43
0.00000001
 40
0.0
 40
0.0
 40
0.0
 40
0.0
 40
0.0597856271142142
 40
0.189094152466117
 40
0.2937076804141859
 40
0.322795810698269
 40
0.3327864634190258
 40
0.3432904048798462
 40
0.3695426089102986
 40
0.4337767164849171
 40
0.5122205218988702
 40
0.5924864868832256
 40
0.726109253358548
 40
0.8470520712486965
 40
0.9524978419921944
 40
1.0
 40
1.0
 40
1.0
 40
1.0
 10
179.9923829177841
 20
76.86298403545753
 30
0.0
 10
179.9918083164982
 20
76.8637860161387
 30
0.0
 10
179.989990927463
 20
76.86632257658836
 30
0.0
 10
180.0104797983364
 20
76.83750925377609
 30
0.0
 10
180.0212021707952
 20
76.82279182472163
 30
0.0
 10
180.0865277257153
 20
76.73132793605146
 30
0.0
 10
180.1832171809279
 20
76.5987966981078
 30
0.0
 10
180.3355214686193
 20
76.39306869165348
 30
0.0
 10
180.7375712150425
 20
75.8686091348574
 30
0.0
 10
181.4356131268374
 20
75.03805399752743
 30
0.0
 10
182.4395428231203
 20
73.99702904499327
 30
0.0
 10
183.853796051458
 20
72.74198943708019
 30
0.0
 10
185.617647473479
 20
71.47205283194181
 30
0.0
 10
187.6701914766849
 20
70.36793855524866
 30
0.0
 10
189.3024911741413
 20
69.6633551485085
 30
0.0
 10
190.2566744382089
 20
69.40082270522039
 30
0.0
 10
190.5530221203789
 20
69.31928608223335
 30
0.0
  0
SPLINE
  5
69
330
1F
100
AcDbEntity
  8
0
  6
Continuous
 62
     7
370
    15
100
AcDbSpline
210
0.0
220
0.0
230
1.0
 70
    24
 71
     1
 72
     4
 73
     2
 74
     0
 42
0.00000001
 43
0.00000001
 40
0.0
 40
0.0
 40
1.0
 40
1.0
 10
223.5738500396237
 20
30.80368850036995
 30
0.0
 10
223.8746895829663
 20
26.50146994396584
 30
0.0
  0
SPLINE
  5
6A
330
1F
100
AcDbEntity
  8
0
  6
Continuous
 62
     7
370
    15
100
AcDbSpline
210
0.0
220
0.0
230
1.0
 70
    24
 71
     1
 72
     4
 73
     2
 74
     0
 42
0.00000001
 43
0.00000001
 40
0.0
 40
0.0
 40
1.0
 40
1.0
 10
304.2649864593968
 20
26.50146994396584
 30
0.0
 10
304.5658260027394
 20
30.80368850036995
 30
0.0
  0
ARC
  5
2DE
330
1F
100
AcDbEntity
  8
0
  6
Continuous
 62
     7
370
    15
100
AcDbCircle
 10
301.2722927628
 20
26.7107346992
 30
0.0
 40
3.000000000000004
100
AcDbArc
 50
270.0
 51
356.0
  0
ARC
  5
2DF
330
1F
100
AcDbEntity
  8
0
  6
Continuous
 62
     7
370
    15
100
AcDbCircle
 10
226.8673832796
 20
26.7107346992
 30
0.0
 40
3.000000000000004
100
AcDbArc
 50
184.0
 51
270.0
  0
SPLINE
  5
6D
330
1F
100
AcDbEntity
  8
0
  6
Continuous
 62
     7
370
    15
100
AcDbSpline
210
0.0
220
0.0
230
1.0
 70
     8
 71
     3
 72
    10
 73
     6
 74
     0
 42
0.00000001
 43
0.00000001
 40
0.0
 40
0.0
 40
0.0
 40
0.0
 40
0.1096237389317343
 40
0.4642326183109824
 40
1.0
 40
1.0
 40
1.0
 40
1.0
 10
444.3056113461479
 20
151.2589609961166
 30
0.0
 10
444.3114594385422
 20
151.2631954255198
 30
0.0
 10
444.3362248339827
 20
151.281127310238
 30
0.0
 10
444.3496362979529
 20
151.2906828589472
 30
0.0
 10
444.3482923217977
 20
151.2897356283058
 30
0.0
 10
444.3474836091027
 20
151.2891656498565
 30
0.0
  0
LINE
  5
6E
330
1F
100
AcDbEntity
  8
0
  6
Continuous
 62
     7
370
    15
100
AcDbLine
 10
478.9698399047
 20
209.7107345949
 30
0.0
 11
49.1698361377
 21
209.7107345949
 31
0.0
  0
LINE
  5
2E0
330
1F
100
AcDbEntity
  8
0
  6
Continuous
 62
     7
370
    15
100
AcDbLine
 10
504.9698329905
 20
220.7107346517
 30
0.0
 11
504.9698329905
 21
212.7107350866
 31
0.0
  0
LINE
  5
2E1
330
1F
100
AcDbEntity
  8
0
  6
Continuous
 62
     7
370
    15
100
AcDbLine
 10
49.1698361377
 20
209.7107345949
 30
0.0
 11
26.1698342303
 21
209.7107345949
 31
0.0
  0
ARC
  5
77
330
1F
100
AcDbEntity
  8
0
  6
Continuous
 62
     7
370
    15
100
AcDbCircle
 10
26.1698380212
 20
212.7107346992
 30
0.0
 40
3.000000000000004
100
AcDbArc
 50
180.0
 51
270.0
  0
ARC
  5
7A
330
1F
100
AcDbEntity
  8
0
  6
Continuous
 62
     7
370
    15
100
AcDbCircle
 10
26.1698380212
 20
220.7107346992
 30
0.0
 40
3.000000000000004
100
AcDbArc
 50
90.0
 51
180.0
  0
LINE
  5
7B
330
1F
100
AcDbEntity
  8
0
  6
Continuous
 62
     7
370
    15
100
AcDbLine
 10
26.1698342303
 20
223.7107347942
 30
0.0
 11
49.1698361377
 21
223.7107347942
 31
0.0
  0
LINE
  5
7D
330
1F
100
AcDbEntity
  8
0
  6
Continuous
 62
     7
370
    15
100
AcDbLine
 10
478.9698399047
 20
223.7107347942
 30
0.0
 11
501.969841812
 21
223.7107347942
 31
0.0
  0
ARC
  5
7E
330
1F
100
AcDbEntity
  8
0
  6
Continuous
 62
     7
370
    15
100
AcDbCircle
 10
501.9698380212
 20
220.7107346992
 30
0.0
 40
3.0
100
AcDbArc
 50
0.0
 51
90.0
  0
LINE
  5
80
330
1F
100
AcDbEntity
  8
0
  6
Continuous
 62
     7
370
    15
100
AcDbLine
 10
501.969841812
 20
209.7107345949
 30
0.0
 11
478.9698399047
 21
209.7107345949
 31
0.0
  0
ARC
  5
81
330
1F
100
AcDbEntity
  8
0
  6
Continuous
 62
     7
370
    15
100
AcDbCircle
 10
501.9698380212
 20
212.7107346992
 30
0.0
 40
3.0
100
AcDbArc
 50
270.0
 51
0.0
  0
LINE
  5
84
330
1F
100
AcDbEntity
  8
0
  6
Continuous
 62
     7
370
    15
100
AcDbLine
 10
23.1698430518
 20
212.7107350866
 30
0.0
 11
23.1698430518
 21
220.7107346517
 31
0.0
  0
LINE
  5
85
330
1F
100
AcDbEntity
  8
0
  6
Continuous
 62
     7
370
    15
100
AcDbLine
 10
49.1698361377
 20
223.7107347942
 30
0.0
 11
478.9698399047
 21
223.7107347942
 31
0.0
  0
ARC
  5
86
330
1F
100
AcDbEntity
  8
0
  6
Continuous
 62
     7
370
    15
100
AcDbCircle
 10
485.3611440835
 20
204.7107346992
 30
0.0
 40
5.000000000000009
100
AcDbArc
 50
90.0
 51
127.7209458942
  0
LINE
  5
88
330
1F
100
AcDbEntity
  8
0
  6
Continuous
 62
     7
370
    15
100
AcDbLine
 10
459.14825568
 20
209.7107345949
 30
0.0
 11
459.14825568
 21
207.0390383492
 31
0.0
  0
ARC
  5
8A
330
1F
100
AcDbEntity
  8
0
  6
Continuous
 62
     7
370
    15
100
AcDbCircle
 10
42.7785319589
 20
204.7107346992
 30
0.0
 40
5.000000000000057
100
AcDbArc
 50
52.2790541058
 51
90.0
  0
LINE
  5
8B
330
1F
100
AcDbEntity
  8
0
  6
Continuous
 62
     7
370
    15
100
AcDbLine
 10
68.9914203624
 20
209.7107345949
 30
0.0
 11
68.9914203624
 21
207.0390383492
 31
0.0
  0
SPLINE
  5
8E
330
1F
100
AcDbEntity
  8
0
  6
Continuous
 62
     7
370
    15
100
AcDbSpline
210
0.0
220
0.0
230
1.0
 70
     8
 71
     3
 72
    18
 73
    14
 74
     0
 42
0.00000001
 43
0.00000001
 40
0.0
 40
0.0
 40
0.0
 40
0.0
 40
0.249999999999999
 40
0.249999999999999
 40
0.3124999999999984
 40
0.3124999999999984
 40
0.3749999999999978
 40
0.3749999999999978
 40
0.499999999999998
 40
0.499999999999998
 40
0.749999999999999
 40
0.749999999999999
 40
1.0
 40
1.0
 40
1.0
 40
1.0
 10
459.1482529139024
 20
207.0390380567902
 30
0.0
 10
456.5585968913306
 20
204.1942526147766
 30
0.0
 10
454.1964320531558
 20
201.2176965395925
 30
0.0
 10
451.5102560049109
 20
197.3481147280828
 30
0.0
 10
450.9858125973317
 20
196.5657993840079
 30
0.0
 10
449.966309373794
 20
194.9909287345735
 30
0.0
 10
449.4719107126065
 20
194.1994718404427
 30
0.0
 10
448.0333742610809
 20
191.8136074606736
 30
0.0
 10
447.1338442098037
 20
190.2077239142066
 30
0.0
 10
444.6046281447478
 20
185.3480055394421
 30
0.0
 10
443.1437087444647
 20
182.0523043841046
 30
0.0
 10
440.6412873191679
 20
175.3637614172824
 30
0.0
 10
439.5999235942515
 20
171.9708647537776
 30
0.0
 10
438.7619588196574
 20
168.5337067749487
 30
0.0
  0
SPLINE
  5
8F
330
1F
100
AcDbEntity
  8
0
  6
Continuous
 62
     7
370
    15
100
AcDbSpline
210
0.0
220
0.0
230
1.0
 70
     8
 71
     3
 72
    18
 73
    14
 74
     0
 42
0.00000001
 43
0.00000001
 40
0.0
 40
0.0
 40
0.0
 40
0.0
 40
0.2500000000000007
 40
0.2500000000000007
 40
0.5000000000000013
 40
0.5000000000000013
 40
0.5625000000000009
 40
0.5625000000000009
 40
0.6250000000000006
 40
0.6250000000000006
 40
0.7499999999999998
 40
0.7499999999999998
 40
1.0
 40
1.0
 40
1.0
 40
1.0
 10
460.0905292059512
 20
174.7687121897806
 30
0.0
 10
460.8692733818198
 20
177.8481336510987
 30
0.0
 10
461.8901531939545
 20
180.8967625066755
 30
0.0
 10
464.4563313037562
 20
186.9138976659805
 30
0.0
 10
466.0009910947496
 20
189.8826175988765
 30
0.0
 10
468.3097840873089
 20
193.5242449391071
 30
0.0
 10
468.7915914536223
 20
194.2505086657893
 30
0.0
 10
469.790101215016
 20
195.6881537563798
 30
0.0
 10
470.3058096118736
 20
196.3982462473886
 30
0.0
 10
471.9029185497691
 20
198.5015293084499
 30
0.0
 10
473.034217665802
 20
199.8677801914728
 30
0.0
 10
476.6356108485131
 20
203.8504932196987
 30
0.0
 10
479.3111030198679
 20
206.3523107916647
 30
0.0
 10
482.3020628298962
 20
208.6657343052851
 30
0.0
  0
SPLINE
  5
91
330
1F
100
AcDbEntity
  8
0
  6
Continuous
 62
     7
370
    15
100
AcDbSpline
210
0.0
220
0.0
230
1.0
 70
     8
 71
     3
 72
    18
 73
    14
 74
     0
 42
0.00000001
 43
0.00000001
 40
0.0
 40
0.0
 40
0.0
 40
0.0
 40
0.2500000000000012
 40
0.2500000000000012
 40
0.5000000000000024
 40
0.5000000000000024
 40
0.5625000000000029
 40
0.5625000000000029
 40
0.6250000000000033
 40
0.6250000000000033
 40
0.7500000000000021
 40
0.7500000000000021
 40
1.0
 40
1.0
 40
1.0
 40
1.0
 10
68.04914683641181
 20
174.7687121897805
 30
0.0
 10
67.27040266054301
 20
177.8481336510989
 30
0.0
 10
66.24952284840829
 20
180.8967625066761
 30
0.0
 10
63.68334473860621
 20
186.9138976659817
 30
0.0
 10
62.13868494761255
 20
189.882617598878
 30
0.0
 10
59.82989195505298
 20
193.524244939109
 30
0.0
 10
59.34808458873941
 20
194.2505086657912
 30
0.0
 10
58.34957482734549
 20
195.6881537563818
 30
0.0
 10
57.83386643048794
 20
196.3982462473907
 30
0.0
 10
56.23675749259227
 20
198.5015293084521
 30
0.0
 10
55.105458376559
 20
199.8677801914751
 30
0.0
 10
51.5040651938472
 20
203.8504932197013
 30
0.0
 10
48.82857302249208
 20
206.3523107916675
 30
0.0
 10
45.83761321246321
 20
208.6657343052879
 30
0.0
  0
SPLINE
  5
2E2
330
1F
100
AcDbEntity
  8
0
  6
Continuous
 62
     7
370
    15
100
AcDbSpline
210
0.0
220
0.0
230
1.0
 70
     8
 71
     3
 72
    18
 73
    14
 74
     0
 42
0.00000001
 43
0.00000001
 40
0.0
 40
0.0
 40
0.0
 40
0.0
 40
0.2499999999999997
 40
0.2499999999999997
 40
0.3124999999999992
 40
0.3124999999999992
 40
0.3749999999999987
 40
0.3749999999999987
 40
0.4999999999999991
 40
0.4999999999999991
 40
0.7499999999999996
 40
0.7499999999999996
 40
1.0
 40
1.0
 40
1.0
 40
1.0
 10
68.99142312846054
 20
207.0390380567902
 30
0.0
 10
71.5810791510324
 20
204.1942526147766
 30
0.0
 10
73.94324398920715
 20
201.2176965395926
 30
0.0
 10
76.6294200374521
 20
197.3481147280829
 30
0.0
 10
77.15386344503128
 20
196.5657993840079
 30
0.0
 10
78.17336666856892
 20
194.9909287345735
 30
0.0
 10
78.66776532975645
 20
194.1994718404427
 30
0.0
 10
80.10630178128208
 20
191.8136074606736
 30
0.0
 10
81.00583183255927
 20
190.2077239142066
 30
0.0
 10
83.5350478976152
 20
185.3480055394421
 30
0.0
 10
84.99596729789829
 20
182.0523043841046
 30
0.0
 10
87.49838872319509
 20
175.3637614172823
 30
0.0
 10
88.53975244811151
 20
171.9708647537776
 30
0.0
 10
89.37771722270557
 20
168.5337067749487
 30
0.0
  0
SPLINE
  5
2E3
330
1F
100
AcDbEntity
  8
0
  6
Continuous
 62
     7
370
    15
100
AcDbSpline
210
0.0
220
0.0
230
1.0
 70
     8
 71
     3
 72
    18
 73
    14
 74
     0
 42
0.00000001
 43
0.00000001
 40
0.0
 40
0.0
 40
0.0
 40
0.0
 40
0.2500000000000019
 40
0.2500000000000019
 40
0.5000000000000038
 40
0.5000000000000038
 40
0.6250000000000043
 40
0.6250000000000043
 40
0.6875000000000041
 40
0.6875000000000041
 40
0.7500000000000038
 40
0.7500000000000038
 40
1.0
 40
1.0
 40
1.0
 40
1.0
 10
438.7619588196574
 20
168.5337067749488
 30
0.0
 10
438.4430302122362
 20
167.2255276713514
 30
0.0
 10
438.0027585759015
 20
165.9511054987884
 30
0.0
 10
436.8664832856327
 20
163.4721910940623
 30
0.0
 10
436.179450153451
 20
162.2879789769522
 30
0.0
 10
434.9630812445167
 20
160.6067915257864
 30
0.0
 10
434.5262274851069
 20
160.0619195625033
 30
0.0
 10
433.8198345619361
 20
159.2696633553911
 30
0.0
 10
433.5756617197598
 20
159.0096751194514
 30
0.0
 10
433.0745509644485
 20
158.5035278127341
 30
0.0
 10
432.8170475902911
 20
158.2567065522947
 30
0.0
 10
431.494119566257
 20
157.0543667674098
 30
0.0
 10
430.3242077253143
 20
156.1926084091455
 30
0.0
 10
429.0216979328502
 20
155.4484130077632
 30
0.0
  0
SPLINE
  5
94
330
1F
100
AcDbEntity
  8
0
  6
Continuous
 62
     7
370
    15
100
AcDbSpline
210
0.0
220
0.0
230
1.0
 70
     8
 71
     3
 72
    10
 73
     6
 74
     0
 42
0.00000001
 43
0.00000001
 40
0.0
 40
0.0
 40
0.0
 40
0.0
 40
0.5
 40
0.5
 40
1.0
 40
1.0
 40
1.0
 40
1.0
 10
429.0216979328503
 20
155.4484130077632
 30
0.0
 10
427.7730938942062
 20
154.7350169249989
 30
0.0
 10
426.6412634218618
 20
153.9102146353861
 30
0.0
 10
424.5815851589425
 20
152.0682176699181
 30
0.0
 10
423.6745960273052
 20
151.0691717475828
 30
0.0
 10
422.8771863664343
 20
150.0044820127336
 30
0.0
  0
SPLINE
  5
96
330
1F
100
AcDbEntity
  8
0
  6
Continuous
 62
     7
370
    15
100
AcDbSpline
210
0.0
220
0.0
230
1.0
 70
     8
 71
     3
 72
    10
 73
     6
 74
     0
 42
0.00000001
 43
0.00000001
 40
0.0
 40
0.0
 40
0.0
 40
0.0
 40
0.5
 40
0.5
 40
1.0
 40
1.0
 40
1.0
 40
1.0
 10
99.11797810951276
 20
155.4484130077632
 30
0.0
 10
100.3665821481568
 20
154.7350169249989
 30
0.0
 10
101.4984126205012
 20
153.9102146353861
 30
0.0
 10
103.5580908834205
 20
152.0682176699181
 30
0.0
 10
104.4650800150578
 20
151.0691717475828
 30
0.0
 10
105.2624896759287
 20
150.0044820127336
 30
0.0
  0
SPLINE
  5
2E4
330
1F
100
AcDbEntity
  8
0
  6
Continuous
 62
     7
370
    15
100
AcDbSpline
210
0.0
220
0.0
230
1.0
 70
     8
 71
     3
 72
    18
 73
    14
 74
     0
 42
0.00000001
 43
0.00000001
 40
0.0
 40
0.0
 40
0.0
 40
0.0
 40
0.2500000000000019
 40
0.2500000000000019
 40
0.5000000000000038
 40
0.5000000000000038
 40
0.6250000000000043
 40
0.6250000000000043
 40
0.6875000000000041
 40
0.6875000000000041
 40
0.7500000000000038
 40
0.7500000000000038
 40
1.0
 40
1.0
 40
1.0
 40
1.0
 10
89.37771722270557
 20
168.5337067749488
 30
0.0
 10
89.6966458301268
 20
167.2255276713514
 30
0.0
 10
90.1369174664616
 20
165.9511054987884
 30
0.0
 10
91.27319275673035
 20
163.4721910940623
 30
0.0
 10
91.960225888912
 20
162.2879789769522
 30
0.0
 10
93.17659479784632
 20
160.6067915257864
 30
0.0
 10
93.61344855725618
 20
160.0619195625033
 30
0.0
 10
94.31984148042687
 20
159.2696633553911
 30
0.0
 10
94.5640143226032
 20
159.0096751194514
 30
0.0
 10
95.0651250779145
 20
158.5035278127341
 30
0.0
 10
95.32262845207198
 20
158.2567065522947
 30
0.0
 10
96.64555647610595
 20
157.0543667674098
 30
0.0
 10
97.81546831704868
 20
156.1926084091455
 30
0.0
 10
99.11797810951278
 20
155.4484130077632
 30
0.0
  0
ARC
  5
2E5
330
1F
100
AcDbEntity
  8
0
  6
Continuous
 62
     7
370
    15
100
AcDbCircle
 10
81.1340876391
 20
167.7083621596
 30
0.0
 40
21.76526096141469
100
AcDbArc
 50
296.5712991603
 51
325.7170286206
  0
SPLINE
  5
99
330
1F
100
AcDbEntity
  8
0
  6
Continuous
 62
     7
370
    15
100
AcDbSpline
210
0.0
220
0.0
230
1.0
 70
     8
 71
     3
 72
    10
 73
     6
 74
     0
 42
0.00000001
 43
0.00000001
 40
0.0
 40
0.0
 40
0.0
 40
0.0
 40
0.5
 40
0.5
 40
1.0
 40
1.0
 40
1.0
 40
1.0
 10
86.12725714433472
 20
149.6902732789388
 30
0.0
 10
86.75383698572777
 20
149.2892668175772
 30
0.0
 10
87.46625978707733
 20
148.9724744719592
 30
0.0
 10
89.04918445714533
 20
148.4923247580773
 30
0.0
 10
89.91985332620119
 20
148.3291292669429
 30
0.0
 10
90.86993471803326
 20
148.2419815278859
 30
0.0
  0
SPLINE
  5
9A
330
1F
100
AcDbEntity
  8
0
  6
Continuous
 62
     7
370
    15
100
AcDbSpline
210
0.0
220
0.0
230
1.0
 70
     8
 71
     3
 72
    20
 73
    16
 74
     0
 42
0.00000001
 43
0.00000001
 40
0.0
 40
0.0
 40
0.0
 40
0.0
 40
0.2499999999999984
 40
0.2499999999999984
 40
0.3749999999999981
 40
0.3749999999999981
 40
0.4999999999999978
 40
0.4999999999999978
 40
0.6249999999999974
 40
0.6249999999999974
 40
0.6874999999999981
 40
0.6874999999999981
 40
0.7499999999999989
 40
0.7499999999999989
 40
1.0
 40
1.0
 40
1.0
 40
1.0
 10
86.12725714433617
 20
149.6902732789383
 30
0.0
 10
83.8677460364933
 20
151.1363436659923
 30
0.0
 10
81.77615965806496
 20
152.7772843646932
 30
0.0
 10
78.88368160011171
 20
155.5236947964993
 30
0.0
 10
77.95814994248352
 20
156.4905498893855
 30
0.0
 10
76.22104005866856
 20
158.4859301486012
 30
0.0
 10
75.4055116496149
 20
159.517661005637
 30
0.0
 10
73.87753539585373
 20
161.6474197413098
 30
0.0
 10
73.16509442961846
 20
162.7454518464731
 30
0.0
 10
72.17363560338299
 20
164.4422390427256
 30
0.0
 10
71.85603766500556
 20
165.0161381893599
 30
0.0
 10
71.24685785269274
 20
166.1807108172232
 30
0.0
 10
70.95476158106456
 20
166.7725436152747
 30
0.0
 10
69.56851494893898
 20
169.7562908639964
 30
0.0
 10
68.6929589790593
 20
172.2228582488319
 30
0.0
 10
68.04914683641181
 20
174.7687121897805
 30
0.0
  0
SPLINE
  5
9B
330
1F
100
AcDbEntity
  8
0
  6
Continuous
 62
     7
370
    15
100
AcDbSpline
210
0.0
220
0.0
230
1.0
 70
     8
 71
     3
 72
    20
 73
    16
 74
     0
 42
0.00000001
 43
0.00000001
 40
0.0
 40
0.0
 40
0.0
 40
0.0
 40
0.2499999999999973
 40
0.2499999999999973
 40
0.3749999999999964
 40
0.3749999999999964
 40
0.4999999999999956
 40
0.4999999999999956
 40
0.6249999999999947
 40
0.6249999999999947
 40
0.6874999999999951
 40
0.6874999999999951
 40
0.7499999999999956
 40
0.7499999999999956
 40
1.0
 40
1.0
 40
1.0
 40
1.0
 10
442.0124188980269
 20
149.6902732789383
 30
0.0
 10
444.2719300058696
 20
151.1363436659923
 30
0.0
 10
446.3635163842981
 20
152.7772843646932
 30
0.0
 10
449.2559944422513
 20
155.5236947964993
 30
0.0
 10
450.1815260998795
 20
156.4905498893855
 30
0.0
 10
451.9186359836944
 20
158.4859301486012
 30
0.0
 10
452.7341643927481
 20
159.517661005637
 30
0.0
 10
454.2621406465093
 20
161.6474197413098
 30
0.0
 10
454.9745816127445
 20
162.7454518464731
 30
0.0
 10
455.96604043898
 20
164.4422390427256
 30
0.0
 10
456.2836383773575
 20
165.0161381893599
 30
0.0
 10
456.8928181896703
 20
166.1807108172232
 30
0.0
 10
457.1849144612984
 20
166.7725436152747
 30
0.0
 10
458.571161093424
 20
169.7562908639964
 30
0.0
 10
459.4467170633037
 20
172.2228582488319
 30
0.0
 10
460.0905292059512
 20
174.7687121897805
 30
0.0
  0
SPLINE
  5
9C
330
1F
100
AcDbEntity
  8
0
  6
Continuous
 62
     7
370
    15
100
AcDbSpline
210
0.0
220
0.0
230
1.0
 70
     8
 71
     3
 72
    12
 73
     8
 74
     0
 42
0.00000001
 43
0.00000001
 40
0.0
 40
0.0
 40
0.0
 40
0.0
 40
0.2499999999999998
 40
0.2499999999999998
 40
0.4999999999999996
 40
0.4999999999999996
 40
1.0
 40
1.0
 40
1.0
 40
1.0
 10
437.2697413243297
 20
148.2419815278859
 30
0.0
 10
437.7442795755412
 20
148.2855093098682
 30
0.0
 10
438.2006264447867
 20
148.3483348427326
 30
0.0
 10
439.0718355942864
 20
148.5119008627959
 30
0.0
 10
439.4875556832462
 20
148.6127106486914
 30
0.0
 10
440.6746747693161
 20
148.972968208685
 30
0.0
 10
441.3865702701726
 20
149.2897347888304
 30
0.0
 10
442.0124188980247
 20
149.690273278937
 30
0.0
  0
ARC
  5
9D
330
1F
100
AcDbEntity
  8
0
  6
Continuous
 62
     7
370
    15
100
AcDbCircle
 10
447.0055884032
 20
167.7083621596
 30
0.0
 40
21.76526096141465
100
AcDbArc
 50
214.2829713794
 51
243.4287008397
  0
SPLINE
  5
A2
330
1F
100
AcDbEntity
  8
0
  6
Continuous
 62
     7
370
    15
100
AcDbSpline
210
0.0
220
0.0
230
1.0
 70
     8
 71
     3
 72
    14
 73
    10
 74
     0
 42
0.00000001
 43
0.00000001
 40
0.0
 40
0.0
 40
0.0
 40
0.0
 40
0.1250000000000019
 40
0.1250000000000019
 40
0.2500000000000038
 40
0.2500000000000038
 40
0.5000000000000019
 40
0.5000000000000019
 40
1.0
 40
1.0
 40
1.0
 40
1.0
 10
422.8771863664343
 20
150.0044820127336
 30
0.0
 10
422.5956094782348
 20
149.608815570328
 30
0.0
 10
422.3295882974955
 20
149.2069368822081
 30
0.0
 10
421.8270078667563
 20
148.3916427148578
 30
0.0
 10
421.5908098438233
 20
147.978671064609
 30
0.0
 10
420.9296553023598
 20
146.7342572813777
 30
0.0
 10
420.5497174226896
 20
145.8939048387598
 30
0.0
 10
419.5722274012431
 20
143.3462753730573
 30
0.0
 10
419.1349904816111
 20
141.6128875444394
 30
0.0
 10
418.8927316139297
 20
139.8514487735235
 30
0.0
  0
ARC
  5
A4
330
1F
100
AcDbEntity
  8
0
  6
Continuous
 62
     7
370
    15
100
AcDbCircle
 10
422.5902263723
 20
166.3284794647
 30
0.0
 40
26.7339563236143
100
AcDbArc
 50
262.0501211714
 51
300.8631954845
  0
SPLINE
  5
A5
330
1F
100
AcDbEntity
  8
0
  6
Continuous
 62
     7
370
    15
100
AcDbSpline
210
0.0
220
0.0
230
1.0
 70
     8
 71
     3
 72
    30
 73
    26
 74
     0
 42
0.00000001
 43
0.00000001
 40
0.0
 40
0.0
 40
0.0
 40
0.0
 40
0.1249999999999989
 40
0.1249999999999989
 40
0.2499999999999983
 40
0.2499999999999983
 40
0.3124999999999978
 40
0.3124999999999978
 40
0.3749999999999973
 40
0.3749999999999973
 40
0.4999999999999969
 40
0.4999999999999969
 40
0.5624999999999963
 40
0.5624999999999963
 40
0.5937499999999966
 40
0.5937499999999966
 40
0.6249999999999967
 40
0.6249999999999967
 40
0.7499999999999979
 40
0.7499999999999979
 40
0.874999999999999
 40
0.874999999999999
 40
0.9374999999999996
 40
0.9374999999999996
 40
1.0
 40
1.0
 40
1.0
 40
1.0
 10
130.002176754039
 20
116.9578879155556
 30
0.0
 10
134.2001433520918
 20
116.2212346546595
 30
0.0
 10
138.2317032716589
 20
115.2245953481595
 30
0.0
 10
145.9968103901488
 20
112.7885673653252
 30
0.0
 10
149.7300183736126
 20
111.3486411479398
 30
0.0
 10
155.1169602052069
 20
108.8961817502983
 30
0.0
 10
156.8827046552494
 20
108.0263673878
 30
0.0
 10
160.287147762918
 20
106.2260188046794
 30
0.0
 10
161.9322734722367
 20
105.2930029758869
 30
0.0
 10
166.7088281443715
 20
102.4098996996087
 30
0.0
 10
169.6819720217429
 20
100.376134449605
 30
0.0
 10
173.8611255452435
 20
97.2060072496063
 30
0.0
 10
175.2072612561736
 20
96.12927443387267
 30
0.0
 10
177.159533226379
 20
94.48939113646833
 30
0.0
 10
177.7982617296357
 20
93.93931667809792
 30
0.0
 10
179.0464370677335
 20
92.83862766368252
 30
0.0
 10
179.6568313893238
 20
92.28722292949448
 30
0.0
 10
182.6435421517761
 20
89.52680455575621
 30
0.0
 10
184.8249209233666
 20
87.30800567134219
 30
0.0
 10
188.8384371006472
 20
82.89108110690343
 30
0.0
 10
190.6702953849963
 20
80.69282420886613
 30
0.0
 10
193.1935912777802
 20
77.43616270405252
 30
0.0
 10
193.9971742114518
 20
76.35734839634766
 30
0.0
 10
195.5346205800735
 20
74.21696510836372
 30
0.0
 10
196.2687547692802
 20
73.15489271030303
 30
0.0
 10
196.967389823233
 20
72.10795286169473
 30
0.0
  0
SPLINE
  5
A6
330
1F
100
AcDbEntity
  8
0
  6
Continuous
 62
     7
370
    15
100
AcDbSpline
210
0.0
220
0.0
230
1.0
 70
     8
 71
     3
 72
    32
 73
    28
 74
     0
 42
0.00000001
 43
0.00000001
 40
0.0
 40
0.0
 40
0.0
 40
0.0
 40
0.0625000000000015
 40
0.0625000000000015
 40
0.1250000000000031
 40
0.1250000000000031
 40
0.250000000000004
 40
0.250000000000004
 40
0.3750000000000049
 40
0.3750000000000049
 40
0.4375000000000049
 40
0.4375000000000049
 40
0.500000000000005
 40
0.500000000000005
 40
0.6250000000000061
 40
0.6250000000000061
 40
0.6562500000000056
 40
0.6562500000000056
 40
0.687500000000005
 40
0.687500000000005
 40
0.7500000000000046
 40
0.7500000000000046
 40
0.8750000000000032
 40
0.8750000000000032
 40
0.9375000000000017
 40
0.9375000000000017
 40
1.0
 40
1.0
 40
1.0
 40
1.0
 10
109.2469444284333
 20
139.8514487735235
 30
0.0
 10
109.3354128685873
 20
139.2082040412199
 30
0.0
 10
109.4450089823875
 20
138.5684275063448
 30
0.0
 10
109.7045628445018
 20
137.3039282237642
 30
0.0
 10
109.8545289683847
 20
136.678702117117
 30
0.0
 10
110.3643928825542
 20
134.8236479886229
 30
0.0
 10
110.7839006107341
 20
133.6143616807517
 30
0.0
 10
111.787096624689
 20
131.2502028735657
 30
0.0
 10
112.3706293187689
 20
130.0953011875453
 30
0.0
 10
113.3825728415067
 20
128.4056608480084
 30
0.0
 10
113.7421770591897
 20
127.8509235677183
 30
0.0
 10
114.5007721216168
 20
126.7695422654849
 30
0.0
 10
114.9006662499391
 20
126.2413349092074
 30
0.0
 10
116.1653856004484
 20
124.6951622682088
 30
0.0
 10
117.0944258937553
 20
123.7152456523042
 30
0.0
 10
118.3837073793861
 20
122.5620977710352
 30
0.0
 10
118.6480276910582
 20
122.3350872894294
 30
0.0
 10
119.1904176812836
 20
121.8886573994668
 30
0.0
 10
119.4690829770938
 20
121.6688134808326
 30
0.0
 10
120.3200395450598
 20
121.0265650309745
 30
0.0
 10
120.9085340399887
 20
120.6201824848462
 30
0.0
 10
122.7427582714953
 20
119.4702847330209
 30
0.0
 10
124.0559377471011
 20
118.7947909482082
 30
0.0
 10
126.1993868995945
 20
117.9505103033909
 30
0.0
 10
126.9357640336637
 20
117.7007865731921
 30
0.0
 10
128.4406491221716
 20
117.2743178893669
 30
0.0
 10
129.2113510653863
 20
117.0966608926003
 30
0.0
 10
130.002176754039
 20
116.9578879155556
 30
0.0
  0
SPLINE
  5
A7
330
1F
100
AcDbEntity
  8
0
  6
Continuous
 62
     7
370
    15
100
AcDbSpline
210
0.0
220
0.0
230
1.0
 70
     8
 71
     3
 72
    14
 73
    10
 74
     0
 42
0.00000001
 43
0.00000001
 40
0.0
 40
0.0
 40
0.0
 40
0.0
 40
0.1250000000000019
 40
0.1250000000000019
 40
0.2500000000000038
 40
0.2500000000000038
 40
0.5000000000000019
 40
0.5000000000000019
 40
1.0
 40
1.0
 40
1.0
 40
1.0
 10
105.2624896759287
 20
150.0044820127336
 30
0.0
 10
105.5440665641282
 20
149.608815570328
 30
0.0
 10
105.8100877448675
 20
149.2069368822081
 30
0.0
 10
106.3126681756067
 20
148.3916427148578
 30
0.0
 10
106.5488661985398
 20
147.978671064609
 30
0.0
 10
107.2100207400032
 20
146.7342572813777
 30
0.0
 10
107.5899586196734
 20
145.8939048387598
 30
0.0
 10
108.5674486411199
 20
143.3462753730573
 30
0.0
 10
109.0046855607519
 20
141.6128875444394
 30
0.0
 10
109.2469444284333
 20
139.8514487735235
 30
0.0
  0
SPLINE
  5
A8
330
1F
100
AcDbEntity
  8
0
  6
Continuous
 62
     7
370
    15
100
AcDbSpline
210
0.0
220
0.0
230
1.0
 70
     8
 71
     3
 72
    32
 73
    28
 74
     0
 42
0.00000001
 43
0.00000001
 40
0.0
 40
0.0
 40
0.0
 40
0.0
 40
0.0625000000000015
 40
0.0625000000000015
 40
0.1250000000000031
 40
0.1250000000000031
 40
0.250000000000004
 40
0.250000000000004
 40
0.3750000000000049
 40
0.3750000000000049
 40
0.4375000000000049
 40
0.4375000000000049
 40
0.500000000000005
 40
0.500000000000005
 40
0.6250000000000061
 40
0.6250000000000061
 40
0.6562500000000056
 40
0.6562500000000056
 40
0.687500000000005
 40
0.687500000000005
 40
0.7500000000000046
 40
0.7500000000000046
 40
0.8750000000000032
 40
0.8750000000000032
 40
0.9375000000000017
 40
0.9375000000000017
 40
1.0
 40
1.0
 40
1.0
 40
1.0
 10
418.8927316139297
 20
139.8514487735235
 30
0.0
 10
418.8042631737757
 20
139.2082040412199
 30
0.0
 10
418.6946670599755
 20
138.5684275063448
 30
0.0
 10
418.4351131978612
 20
137.3039282237642
 30
0.0
 10
418.2851470739783
 20
136.678702117117
 30
0.0
 10
417.7752831598089
 20
134.8236479886229
 30
0.0
 10
417.355775431629
 20
133.6143616807517
 30
0.0
 10
416.352579417674
 20
131.2502028735657
 30
0.0
 10
415.7690467235941
 20
130.0953011875453
 30
0.0
 10
414.7571032008563
 20
128.4056608480084
 30
0.0
 10
414.3974989831733
 20
127.8509235677183
 30
0.0
 10
413.6389039207462
 20
126.7695422654849
 30
0.0
 10
413.2390097924239
 20
126.2413349092074
 30
0.0
 10
411.9742904419146
 20
124.6951622682088
 30
0.0
 10
411.0452501486077
 20
123.7152456523042
 30
0.0
 10
409.7559686629768
 20
122.5620977710352
 30
0.0
 10
409.4916483513048
 20
122.3350872894294
 30
0.0
 10
408.9492583610794
 20
121.8886573994668
 30
0.0
 10
408.6705930652692
 20
121.6688134808326
 30
0.0
 10
407.8196364973032
 20
121.0265650309745
 30
0.0
 10
407.2311420023743
 20
120.6201824848462
 30
0.0
 10
405.3969177708677
 20
119.4702847330209
 30
0.0
 10
404.0837382952619
 20
118.7947909482082
 30
0.0
 10
401.9402891427686
 20
117.9505103033909
 30
0.0
 10
401.2039120086993
 20
117.7007865731921
 30
0.0
 10
399.6990269201914
 20
117.2743178893669
 30
0.0
 10
398.9283249769767
 20
117.0966608926003
 30
0.0
 10
398.137499288324
 20
116.9578879155556
 30
0.0
  0
SPLINE
  5
A9
330
1F
100
AcDbEntity
  8
0
  6
Continuous
 62
     7
370
    15
100
AcDbSpline
210
0.0
220
0.0
230
1.0
 70
     8
 71
     3
 72
    30
 73
    26
 74
     0
 42
0.00000001
 43
0.00000001
 40
0.0
 40
0.0
 40
0.0
 40
0.0
 40
0.1250000000000004
 40
0.1250000000000004
 40
0.2500000000000012
 40
0.2500000000000012
 40
0.3125000000000015
 40
0.3125000000000015
 40
0.3750000000000018
 40
0.3750000000000018
 40
0.5000000000000018
 40
0.5000000000000018
 40
0.5625000000000017
 40
0.5625000000000017
 40
0.5937500000000017
 40
0.5937500000000017
 40
0.6250000000000017
 40
0.6250000000000017
 40
0.7500000000000009
 40
0.7500000000000009
 40
0.8750000000000002
 40
0.8750000000000002
 40
0.9375000000000001
 40
0.9375000000000001
 40
1.0
 40
1.0
 40
1.0
 40
1.0
 10
398.137499288324
 20
116.9578879155556
 30
0.0
 10
393.9395326902712
 20
116.2212346546596
 30
0.0
 10
389.9079727707041
 20
115.2245953481594
 30
0.0
 10
382.1428656522142
 20
112.7885673653253
 30
0.0
 10
378.4096576687505
 20
111.3486411479398
 30
0.0
 10
373.0227158371561
 20
108.8961817502983
 30
0.0
 10
371.2569713871137
 20
108.0263673878
 30
0.0
 10
367.852528279445
 20
106.2260188046794
 30
0.0
 10
366.2074025701264
 20
105.2930029758869
 30
0.0
 10
361.4308478979914
 20
102.4098996996087
 30
0.0
 10
358.4577040206202
 20
100.376134449605
 30
0.0
 10
354.2785504971195
 20
97.20600724960624
 30
0.0
 10
352.9324147861894
 20
96.1292744338727
 30
0.0
 10
350.980142815984
 20
94.48939113646841
 30
0.0
 10
350.3414143127272
 20
93.93931667809795
 30
0.0
 10
349.0932389746295
 20
92.83862766368246
 30
0.0
 10
348.4828446530393
 20
92.28722292949448
 30
0.0
 10
345.4961338905869
 20
89.52680455575619
 30
0.0
 10
343.3147551189964
 20
87.30800567134219
 30
0.0
 10
339.3012389417158
 20
82.89108110690334
 30
0.0
 10
337.4693806573667
 20
80.69282420886618
 30
0.0
 10
334.9460847645827
 20
77.43616270405252
 30
0.0
 10
334.1425018309112
 20
76.35734839634766
 30
0.0
 10
332.6050554622895
 20
74.21696510836372
 30
0.0
 10
331.8709212730828
 20
73.15489271030313
 30
0.0
 10
331.1722862191301
 20
72.10795286169476
 30
0.0
  0
SPLINE
  5
AA
330
1F
100
AcDbEntity
  8
0
  6
Continuous
 62
     7
370
    15
100
AcDbSpline
210
0.0
220
0.0
230
1.0
 70
     8
 71
     3
 72
    22
 73
    18
 74
     0
 42
0.00000001
 43
0.00000001
 40
0.0
 40
0.0
 40
0.0
 40
0.0
 40
0.5000000000000003
 40
0.5000000000000003
 40
0.7500000000000004
 40
0.7500000000000004
 40
0.8750000000000006
 40
0.8750000000000006
 40
0.9375000000000008
 40
0.9687500000000009
 40
0.9765625000000009
 40
0.9765625000000009
 40
0.9804687500000006
 40
0.9804687500000006
 40
0.9843750000000002
 40
0.9843750000000002
 40
1.0
 40
1.0
 40
1.0
 40
1.0
 10
264.0698380211815
 20
71.82128721347534
 30
0.0
 10
275.2551057318644
 20
71.82128721347526
 30
0.0
 10
286.44028488407
 20
71.83833763295793
 30
0.0
 10
303.2179695149514
 20
71.88013526032354
 30
0.0
 10
308.8105066594845
 20
71.89658528915234
 30
0.0
 10
317.1992889644295
 20
71.92311329113944
 30
0.0
 10
319.9955491026367
 20
71.9322647947203
 30
0.0
 10
324.1899241543955
 20
71.94623069207772
 30
0.0
 10
326.2871081195907
 20
71.95327382722023
 30
0.0
 10
328.5590540274747
 20
71.96096159443559
 30
0.0
 10
329.4328790088928
 20
71.96392474557271
 30
0.0
 10
329.6950264838288
 20
71.96481402686382
 30
0.0
 10
329.7824645477041
 20
71.96418017733532
 30
0.0
 10
329.956914379177
 20
71.97004854999743
 30
0.0
 10
330.0439932661138
 20
71.97542734394723
 30
0.0
 10
330.4790021006305
 20
72.00878146982203
 30
0.0
 10
330.8258286626915
 20
72.05524537671475
 30
0.0
 10
331.1722862191301
 20
72.10795286169467
 30
0.0
  0
SPLINE
  5
AB
330
1F
100
AcDbEntity
  8
0
  6
Continuous
 62
     7
370
    15
100
AcDbSpline
210
0.0
220
0.0
230
1.0
 70
     8
 71
     3
 72
    21
 73
    17
 74
     0
 42
0.00000001
 43
0.00000001
 40
0.0
 40
0.0
 40
0.0
 40
0.0
 40
0.0156250000000003
 40
0.0156250000000003
 40
0.0195312500000009
 40
0.0195312500000009
 40
0.0234375000000014
 40
0.0234375000000014
 40
0.031250000000002
 40
0.0625000000000024
 40
0.1250000000000022
 40
0.2500000000000018
 40
0.2500000000000018
 40
0.5000000000000011
 40
0.5000000000000011
 40
1.0
 40
1.0
 40
1.0
 40
1.0
 10
196.967389823233
 20
72.10795286169476
 30
0.0
 10
197.3138473796714
 20
72.05524537671488
 30
0.0
 10
197.6606739417325
 20
72.00878146982205
 30
0.0
 10
198.0956827762492
 20
71.97542734394732
 30
0.0
 10
198.182761663186
 20
71.97004854999719
 30
0.0
 10
198.3572114946588
 20
71.96418017733518
 30
0.0
 10
198.4446495585342
 20
71.96481402686373
 30
0.0
 10
198.7067970334701
 20
71.9639247455726
 30
0.0
 10
199.5806220148882
 20
71.96096159443564
 30
0.0
 10
201.8525679227722
 20
71.95327382722031
 30
0.0
 10
206.7459968706227
 20
71.93684054651071
 30
0.0
 10
210.9403870779336
 20
71.92311329113944
 30
0.0
 10
219.3291693828785
 20
71.89658528915193
 30
0.0
 10
224.9217065274116
 20
71.88013526032337
 30
0.0
 10
241.699391158293
 20
71.83833763295803
 30
0.0
 10
252.8845703104986
 20
71.82128721347537
 30
0.0
 10
264.0698380211815
 20
71.82128721347546
 30
0.0
  0
ARC
  5
AC
330
1F
100
AcDbEntity
  8
0
  6
Continuous
 62
     7
370
    15
100
AcDbCircle
 10
105.54944967
 20
166.3284794647
 30
0.0
 40
26.73395632361429
100
AcDbArc
 50
239.1368045155
 51
277.9498788287
  0
SPLINE
  5
AF
330
1F
100
AcDbEntity
  8
0
  6
Continuous
 62
     7
370
    15
100
AcDbSpline
210
0.0
220
0.0
230
1.0
 70
     8
 71
     3
 72
    32
 73
    28
 74
     0
 42
0.00000001
 43
0.00000001
 40
0.0
 40
0.0
 40
0.0
 40
0.0
 40
0.1249999999999975
 40
0.1249999999999975
 40
0.1874999999999971
 40
0.1874999999999971
 40
0.2499999999999968
 40
0.2499999999999968
 40
0.3749999999999957
 40
0.3749999999999957
 40
0.4062499999999962
 40
0.4062499999999962
 40
0.4374999999999967
 40
0.4374999999999967
 40
0.4999999999999974
 40
0.4999999999999974
 40
0.624999999999998
 40
0.624999999999998
 40
0.6874999999999982
 40
0.6874999999999982
 40
0.7187499999999982
 40
0.7187499999999982
 40
0.7499999999999982
 40
0.7499999999999982
 40
0.8749999999999991
 40
0.8749999999999991
 40
1.0
 40
1.0
 40
1.0
 40
1.0
 10
126.5106348389538
 20
110.3064214526406
 30
0.0
 10
124.1820022917377
 20
110.6807345733657
 30
0.0
 10
121.9070975790093
 20
111.225178675289
 30
0.0
 10
118.5723679788498
 20
112.2891262778543
 30
0.0
 10
117.4731358422364
 20
112.6857987234882
 30
0.0
 10
115.3288717450851
 20
113.5499823107188
 30
0.0
 10
114.2800689280029
 20
114.0185773944975
 30
0.0
 10
111.2011209414973
 20
115.530463553445
 30
0.0
 10
109.2380815866926
 20
116.6792853015347
 30
0.0
 10
106.8936520495801
 20
118.2893383417543
 30
0.0
 10
106.4294048773016
 20
118.6207572396861
 30
0.0
 10
105.5180382250977
 20
119.2966073008178
 30
0.0
 10
105.0705355052454
 20
119.6412478878639
 30
0.0
 10
103.7519176639259
 20
120.6948570514228
 30
0.0
 10
102.9046568443692
 20
121.4234842301983
 30
0.0
 10
100.4545388975038
 20
123.6854893027663
 30
0.0
 10
98.9428719586023
 20
125.2946055198651
 30
0.0
 10
96.85238998146001
 20
127.8574778282961
 30
0.0
 10
96.185188144262
 20
128.7367338773128
 30
0.0
 10
95.22920710043078
 20
130.0936417336327
 30
0.0
 10
94.91757265257158
 20
130.5530327389676
 30
0.0
 10
94.31390618235456
 20
131.4775844350135
 30
0.0
 10
94.02137319915602
 20
131.9434026580961
 30
0.0
 10
92.60420343144776
 20
134.2899067899882
 30
0.0
 10
91.61532067167103
 20
136.2225787330997
 30
0.0
 10
89.91399740536077
 20
140.1955119506336
 30
0.0
 10
89.20161201153518
 20
142.2357874110391
 30
0.0
 10
88.62948544715915
 20
144.3312182117533
 30
0.0
  0
SPLINE
  5
B0
330
1F
100
AcDbEntity
  8
0
  6
Continuous
 62
     7
370
    15
100
AcDbSpline
210
0.0
220
0.0
230
1.0
 70
     8
 71
     3
 72
    14
 73
    10
 74
     0
 42
0.00000001
 43
0.00000001
 40
0.0
 40
0.0
 40
0.0
 40
0.0
 40
0.25
 40
0.25
 40
0.5
 40
0.5
 40
0.75
 40
0.75
 40
1.0
 40
1.0
 40
1.0
 40
1.0
 10
90.28216934446506
 20
143.9117845186206
 30
0.0
 10
89.96834214823532
 20
144.0759283626014
 30
0.0
 10
89.69444928962969
 20
144.2145166084896
 30
0.0
 10
89.24765729457535
 20
144.420115655593
 30
0.0
 10
89.07153061607303
 20
144.4889200967038
 30
0.0
 10
88.80487660412312
 20
144.5582232547386
 30
0.0
 10
88.71437571117002
 20
144.5587309194032
 30
0.0
 10
88.61331698632289
 20
144.4925957893261
 30
0.0
 10
88.60352182827438
 20
144.4263107491336
 30
0.0
 10
88.62948544715915
 20
144.3312182117533
 30
0.0
  0
SPLINE
  5
B1
330
1F
100
AcDbEntity
  8
0
  6
Continuous
 62
     7
370
    15
100
AcDbSpline
210
0.0
220
0.0
230
1.0
 70
     8
 71
     3
 72
     8
 73
     4
 74
     0
 42
0.00000001
 43
0.00000001
 40
0.0
 40
0.0
 40
0.0
 40
0.0
 40
1.0
 40
1.0
 40
1.0
 40
1.0
 10
91.83519472130932
 20
143.3801935739686
 30
0.0
 10
91.26499743078384
 20
143.492063776431
 30
0.0
 10
90.74613957920543
 20
143.6691100189659
 30
0.0
 10
90.28216934445032
 20
143.9117845186277
 30
0.0
  0
SPLINE
  5
B3
330
1F
100
AcDbEntity
  8
0
  6
Continuous
 62
     7
370
    15
100
AcDbSpline
210
0.0
220
0.0
230
1.0
 70
     8
 71
     3
 72
     8
 73
     4
 74
     0
 42
0.00000001
 43
0.00000001
 40
0.0
 40
0.0
 40
0.0
 40
0.0
 40
1.0
 40
1.0
 40
1.0
 40
1.0
 10
437.8575066978962
 20
143.9117845186196
 30
0.0
 10
437.3935364631411
 20
143.669110018958
 30
0.0
 10
436.8746786115777
 20
143.4920637764307
 30
0.0
 10
436.3044813210523
 20
143.3801935739685
 30
0.0
  0
SPLINE
  5
B4
330
1F
100
AcDbEntity
  8
0
  6
Continuous
 62
     7
370
    15
100
AcDbSpline
210
0.0
220
0.0
230
1.0
 70
     8
 71
     3
 72
    16
 73
    12
 74
     0
 42
0.00000001
 43
0.00000001
 40
0.0
 40
0.0
 40
0.0
 40
0.0
 40
0.2499999999999985
 40
0.2499999999999985
 40
0.499999999999997
 40
0.499999999999997
 40
0.7499999999999956
 40
0.7499999999999956
 40
0.8749999999999978
 40
0.8749999999999978
 40
1.0
 40
1.0
 40
1.0
 40
1.0
 10
439.5101905952039
 20
144.3312182117533
 30
0.0
 10
439.5361295546526
 20
144.4262204332055
 30
0.0
 10
439.5263853564334
 20
144.4924656317826
 30
0.0
 10
439.4255601674959
 20
144.5586735027361
 30
0.0
 10
439.3351972711228
 20
144.558292617499
 30
0.0
 10
439.0683398346691
 20
144.4890045815288
 30
0.0
 10
438.8918751175731
 20
144.4200878543028
 30
0.0
 10
438.5554071485598
 20
144.2651987367247
 30
0.0
 10
438.4305263862963
 20
144.204619259887
 30
0.0
 10
438.1596588694128
 20
144.0687349796138
 30
0.0
 10
438.0137505214898
 20
143.9935061224546
 30
0.0
 10
437.8575066978967
 20
143.91178451862
 30
0.0
  0
SPLINE
  5
B5
330
1F
100
AcDbEntity
  8
0
  6
Continuous
 62
     7
370
    15
100
AcDbSpline
210
0.0
220
0.0
230
1.0
 70
     8
 71
     3
 72
    32
 73
    28
 74
     0
 42
0.00000001
 43
0.00000001
 40
0.0
 40
0.0
 40
0.0
 40
0.0
 40
0.1249999999999996
 40
0.1249999999999996
 40
0.1874999999999986
 40
0.1874999999999986
 40
0.2499999999999976
 40
0.2499999999999976
 40
0.3749999999999952
 40
0.3749999999999952
 40
0.4062499999999953
 40
0.4062499999999953
 40
0.4374999999999955
 40
0.4374999999999955
 40
0.4999999999999961
 40
0.4999999999999961
 40
0.6249999999999961
 40
0.6249999999999961
 40
0.6874999999999966
 40
0.6874999999999966
 40
0.7187499999999968
 40
0.7187499999999968
 40
0.7499999999999971
 40
0.7499999999999971
 40
0.8749999999999986
 40
0.8749999999999986
 40
1.0
 40
1.0
 40
1.0
 40
1.0
 10
401.6290412034093
 20
110.3064214526406
 30
0.0
 10
403.9576737506253
 20
110.6807345733657
 30
0.0
 10
406.2325784633538
 20
111.225178675289
 30
0.0
 10
409.5673080635132
 20
112.2891262778544
 30
0.0
 10
410.6665402001267
 20
112.6857987234882
 30
0.0
 10
412.810804297278
 20
113.5499823107187
 30
0.0
 10
413.8596071143601
 20
114.0185773944975
 30
0.0
 10
416.9385551008658
 20
115.530463553445
 30
0.0
 10
418.9015944556704
 20
116.6792853015347
 30
0.0
 10
421.2460239927829
 20
118.2893383417543
 30
0.0
 10
421.7102711650614
 20
118.6207572396861
 30
0.0
 10
422.6216378172654
 20
119.2966073008177
 30
0.0
 10
423.0691405371176
 20
119.6412478878639
 30
0.0
 10
424.3877583784371
 20
120.6948570514228
 30
0.0
 10
425.2350191979937
 20
121.4234842301983
 30
0.0
 10
427.6851371448593
 20
123.6854893027663
 30
0.0
 10
429.1968040837607
 20
125.2946055198651
 30
0.0
 10
431.2872860609031
 20
127.8574778282961
 30
0.0
 10
431.9544878981011
 20
128.7367338773128
 30
0.0
 10
432.9104689419323
 20
130.0936417336327
 30
0.0
 10
433.2221033897915
 20
130.5530327389676
 30
0.0
 10
433.8257698600085
 20
131.4775844350135
 30
0.0
 10
434.1183028432069
 20
131.9434026580961
 30
0.0
 10
435.5354726109152
 20
134.2899067899883
 30
0.0
 10
436.524355370692
 20
136.2225787330997
 30
0.0
 10
438.2256786370022
 20
140.1955119506337
 30
0.0
 10
438.9380640308277
 20
142.2357874110392
 30
0.0
 10
439.5101905952039
 20
144.3312182117533
 30
0.0
  0
ARC
  5
B8
330
1F
100
AcDbEntity
  8
0
  6
Continuous
 62
     7
370
    15
100
AcDbCircle
 10
76.3779433686
 20
140.9861148205
 30
0.0
 40
12.70000000000122
100
AcDbArc
 50
15.2715439215
 51
53.6918603923
  0
SPLINE
  5
B9
330
1F
100
AcDbEntity
  8
0
  6
Continuous
 62
     7
370
    15
100
AcDbSpline
210
0.0
220
0.0
230
1.0
 70
     8
 71
     3
 72
     9
 73
     5
 74
     0
 42
0.00000001
 43
0.00000001
 40
0.0
 40
0.0
 40
0.0
 40
0.0
 40
0.4303849024370183
 40
1.0
 40
1.0
 40
1.0
 40
1.0
 10
83.89796087541426
 20
151.2203371863021
 30
0.0
 10
83.91421947316913
 20
151.208033831284
 30
0.0
 10
83.9519963507101
 20
151.1794469664836
 30
0.0
 10
84.30944363656695
 20
150.9231562584675
 30
0.0
 10
84.51305100717393
 20
150.7771692018165
 30
0.0
  0
ARC
  5
BA
330
1F
100
AcDbEntity
  8
0
  6
Continuous
 62
     7
370
    15
100
AcDbCircle
 10
451.7617326737
 20
140.9861148205
 30
0.0
 40
12.69999999999999
100
AcDbArc
 50
126.3081396077
 51
164.7284560784
  0
SPLINE
  5
BB
330
1F
100
AcDbEntity
  8
0
  6
Continuous
 62
     7
370
    15
100
AcDbSpline
210
0.0
220
0.0
230
1.0
 70
     8
 71
     3
 72
     9
 73
     5
 74
     0
 42
0.00000001
 43
0.00000001
 40
0.0
 40
0.0
 40
0.0
 40
0.0
 40
0.5401209247230719
 40
0.9999999999999999
 40
0.9999999999999999
 40
0.9999999999999999
 40
0.9999999999999999
 10
443.6943061093315
 20
150.8253744582786
 30
0.0
 10
443.8689346572696
 20
150.9507551798299
 30
0.0
 10
444.1922484559852
 20
151.1828897182493
 30
0.0
 10
444.2261325713214
 20
151.2085407935246
 30
0.0
 10
444.2417151669487
 20
151.2203371863021
 30
0.0
  0
SPLINE
  5
BC
330
1F
100
AcDbEntity
  8
0
  6
Continuous
 62
     7
370
    15
100
AcDbSpline
210
0.0
220
0.0
230
1.0
 70
     8
 71
     3
 72
    20
 73
    16
 74
     0
 42
0.00000001
 43
0.00000001
 40
0.0
 40
0.0
 40
0.0
 40
0.0
 40
0.2499999999999971
 40
0.2499999999999971
 40
0.3124999999999969
 40
0.3124999999999969
 40
0.3749999999999968
 40
0.3749999999999968
 40
0.4999999999999976
 40
0.4999999999999976
 40
0.6249999999999983
 40
0.6249999999999983
 40
0.7499999999999991
 40
0.7499999999999991
 40
1.0
 40
1.0
 40
1.0
 40
1.0
 10
179.5955593102413
 20
77.42170865073543
 30
0.0
 10
180.3860840003645
 20
76.31660181485971
 30
0.0
 10
181.3718580691873
 20
75.3592326345045
 30
0.0
 10
182.8512662422643
 20
74.34659783637328
 30
0.0
 10
183.1602182245452
 20
74.15319469942762
 30
0.0
 10
183.7977577838263
 20
73.78897486745271
 30
0.0
 10
184.1269630597204
 20
73.61768201870716
 30
0.0
 10
185.1460721436398
 20
73.13616210235718
 30
0.0
 10
185.8692859653734
 20
72.85799346902098
 30
0.0
 10
187.3782956401124
 20
72.39647812419952
 30
0.0
 10
188.1669803753498
 20
72.21164070358037
 30
0.0
 10
189.8117526722254
 20
71.9351596510313
 30
0.0
 10
190.6615913103651
 20
71.84472492942724
 30
0.0
 10
193.278862159391
 20
71.71606410270263
 30
0.0
 10
195.1096361346451
 20
71.82182804839084
 30
0.0
 10
196.9673898232309
 20
72.10795286169815
 30
0.0
  0
SPLINE
  5
BD
330
1F
100
AcDbEntity
  8
0
  6
Continuous
 62
     7
370
    15
100
AcDbSpline
210
0.0
220
0.0
230
1.0
 70
     8
 71
     3
 72
    32
 73
    28
 74
     0
 42
0.00000001
 43
0.00000001
 40
0.0
 40
0.0
 40
0.0
 40
0.0
 40
0.0625000000000006
 40
0.0625000000000006
 40
0.1250000000000012
 40
0.1250000000000012
 40
0.2500000000000017
 40
0.2500000000000017
 40
0.3750000000000021
 40
0.3750000000000021
 40
0.4375000000000021
 40
0.4375000000000021
 40
0.4687500000000017
 40
0.4687500000000017
 40
0.5000000000000013
 40
0.5000000000000013
 40
0.6250000000000007
 40
0.6250000000000007
 40
0.6875000000000004
 40
0.6875000000000004
 40
0.7187500000000001
 40
0.7187500000000001
 40
0.7499999999999997
 40
0.7499999999999997
 40
0.8749999999999999
 40
0.8749999999999999
 40
1.0
 40
1.0
 40
1.0
 40
1.0
 10
179.5955593102414
 20
77.4217086507354
 30
0.0
 10
179.0783528858427
 20
78.14473269072163
 30
0.0
 10
178.533981338293
 20
78.88060789679389
 30
0.0
 10
177.3884049603128
 20
80.37264299225043
 30
0.0
 10
176.7884038213549
 20
81.12727264988303
 30
0.0
 10
174.8995241538723
 20
83.4137072212124
 30
0.0
 10
173.522155060466
 20
84.96822643861805
 30
0.0
 10
170.4848469542535
 20
88.11677482905831
 30
0.0
 10
168.8251664901233
 20
89.71090834803728
 30
0.0
 10
166.0777335613514
 20
92.11118337738873
 30
0.0
 10
165.118796303993
 20
92.91272717006566
 30
0.0
 10
163.6081915113771
 20
94.11391779885113
 30
0.0
 10
163.0920720318366
 20
94.51449606416227
 30
0.0
 10
162.0413562068791
 20
95.30941058674046
 30
0.0
 10
161.5060429194747
 20
95.70433658266649
 30
0.0
 10
158.7781271647351
 20
97.66447533077984
 30
0.0
 10
156.4321598210178
 20
99.18669253034348
 30
0.0
 10
152.6303701274643
 20
101.3608464540828
 30
0.0
 10
151.315840112144
 20
102.0672794923032
 30
0.0
 10
149.2668119882881
 20
103.0933278468786
 30
0.0
 10
148.5709161025744
 20
103.4297341323163
 30
0.0
 10
147.1520886155244
 20
104.0901604274783
 30
0.0
 10
146.4283576743537
 20
104.4144553134818
 30
0.0
 10
142.7766567624887
 20
105.9860521495147
 30
0.0
 10
139.7229894971343
 20
107.0973613705504
 30
0.0
 10
133.3355118308906
 20
108.9766512425876
 30
0.0
 10
130.0021335140667
 20
109.745184873408
 30
0.0
 10
126.5106348389537
 20
110.3064214526406
 30
0.0
  0
SPLINE
  5
BE
330
1F
100
AcDbEntity
  8
0
  6
Continuous
 62
     7
370
    15
100
AcDbSpline
210
0.0
220
0.0
230
1.0
 70
     8
 71
     3
 72
    32
 73
    28
 74
     0
 42
0.00000001
 43
0.00000001
 40
0.0
 40
0.0
 40
0.0
 40
0.0
 40
0.0625000000000007
 40
0.0625000000000007
 40
0.1250000000000014
 40
0.1250000000000014
 40
0.250000000000002
 40
0.250000000000002
 40
0.3750000000000026
 40
0.3750000000000026
 40
0.4375000000000026
 40
0.4375000000000026
 40
0.4687500000000023
 40
0.4687500000000023
 40
0.500000000000002
 40
0.500000000000002
 40
0.6250000000000016
 40
0.6250000000000016
 40
0.6875000000000011
 40
0.6875000000000011
 40
0.7187500000000007
 40
0.7187500000000007
 40
0.7500000000000002
 40
0.7500000000000002
 40
0.8750000000000001
 40
0.8750000000000001
 40
1.0
 40
1.0
 40
1.0
 40
1.0
 10
348.5441167321217
 20
77.4217086507354
 30
0.0
 10
349.0613231565203
 20
78.14473269072163
 30
0.0
 10
349.6056947040701
 20
78.88060789679389
 30
0.0
 10
350.7512710820503
 20
80.37264299225035
 30
0.0
 10
351.3512722210082
 20
81.127272649883
 30
0.0
 10
353.2401518884907
 20
83.41370722121243
 30
0.0
 10
354.617520981897
 20
84.96822643861805
 30
0.0
 10
357.6548290881095
 20
88.11677482905831
 30
0.0
 10
359.3145095522398
 20
89.71090834803726
 30
0.0
 10
362.0619424810116
 20
92.11118337738876
 30
0.0
 10
363.02087973837
 20
92.9127271700657
 30
0.0
 10
364.5314845309859
 20
94.1139177988511
 30
0.0
 10
365.0476040105264
 20
94.51449606416224
 30
0.0
 10
366.0983198354838
 20
95.30941058674048
 30
0.0
 10
366.6336331228883
 20
95.70433658266649
 30
0.0
 10
369.361548877628
 20
97.66447533077987
 30
0.0
 10
371.7075162213452
 20
99.18669253034344
 30
0.0
 10
375.5093059148986
 20
101.3608464540828
 30
0.0
 10
376.8238359302189
 20
102.0672794923033
 30
0.0
 10
378.872864054075
 20
103.0933278468786
 30
0.0
 10
379.5687599397887
 20
103.4297341323163
 30
0.0
 10
380.9875874268387
 20
104.0901604274783
 30
0.0
 10
381.7113183680093
 20
104.4144553134818
 30
0.0
 10
385.3630192798743
 20
105.9860521495148
 30
0.0
 10
388.4166865452287
 20
107.0973613705504
 30
0.0
 10
394.8041642114725
 20
108.9766512425876
 30
0.0
 10
398.1375425282963
 20
109.745184873408
 30
0.0
 10
401.6290412034093
 20
110.3064214526406
 30
0.0
  0
SPLINE
  5
BF
330
1F
100
AcDbEntity
  8
0
  6
Continuous
 62
     7
370
    15
100
AcDbSpline
210
0.0
220
0.0
230
1.0
 70
     8
 71
     3
 72
    20
 73
    16
 74
     0
 42
0.00000001
 43
0.00000001
 40
0.0
 40
0.0
 40
0.0
 40
0.0
 40
0.2499999999999992
 40
0.2499999999999992
 40
0.3749999999999992
 40
0.3749999999999992
 40
0.4999999999999992
 40
0.4999999999999992
 40
0.6249999999999992
 40
0.6249999999999992
 40
0.6874999999999999
 40
0.6874999999999999
 40
0.7500000000000006
 40
0.7500000000000006
 40
1.0
 40
1.0
 40
1.0
 40
1.0
 10
331.1722862191301
 20
72.10795286169473
 30
0.0
 10
333.0300399077158
 20
71.82182804838747
 30
0.0
 10
334.8608138829721
 20
71.7160641027026
 30
0.0
 10
337.4780847319983
 20
71.84472492942719
 30
0.0
 10
338.327923370138
 20
71.93515965103136
 30
0.0
 10
339.9726956670137
 20
72.21164070358049
 30
0.0
 10
340.7613804022509
 20
72.39647812419959
 30
0.0
 10
342.2703900769898
 20
72.85799346902095
 30
0.0
 10
342.9936038987234
 20
73.13616210235712
 30
0.0
 10
344.0127129826427
 20
73.61768201870728
 30
0.0
 10
344.3419182585368
 20
73.7889748674528
 30
0.0
 10
344.9794578178178
 20
74.1531946994277
 30
0.0
 10
345.2884098000983
 20
74.34659783637287
 30
0.0
 10
346.7678179731753
 20
75.35923263450407
 30
0.0
 10
347.7535920419985
 20
76.3166018148598
 30
0.0
 10
348.5441167321217
 20
77.4217086507354
 30
0.0
  0
SPLINE
  5
CB
330
1F
100
AcDbEntity
  8
0
  6
Continuous
 62
     7
370
    15
100
AcDbSpline
210
0.0
220
0.0
230
1.0
 70
     8
 71
     3
 72
     9
 73
     5
 74
     0
 42
0.00000001
 43
0.00000001
 40
0.0
 40
0.0
 40
0.0
 40
0.0
 40
0.5810991629974381
 40
1.0
 40
1.0
 40
1.0
 40
1.0
 10
190.5665672759041
 20
69.36586711212531
 30
0.0
 10
190.5202173730305
 20
69.37145147919908
 30
0.0
 10
190.4404549059252
 20
69.38106148628455
 30
0.0
 10
190.3706199487811
 20
69.3914092524226
 30
0.0
 10
190.3413660267815
 20
69.39574394031898
 30
0.0
  0
SPLINE
  5
CC
330
1F
100
AcDbEntity
  8
0
  6
Continuous
 62
     7
370
    15
100
AcDbSpline
210
0.0
220
0.0
230
1.0
 70
    24
 71
     1
 72
     4
 73
     2
 74
     0
 42
0.00000001
 43
0.00000001
 40
0.0
 40
0.0
 40
1.0
 40
1.0
 10
189.8194305042252
 20
69.47910103603736
 30
0.0
 10
189.8204959372505
 20
69.47890732094184
 30
0.0
  0
SPLINE
  5
CF
330
1F
100
AcDbEntity
  8
0
  6
Continuous
 62
     7
370
    15
100
AcDbSpline
210
0.0
220
0.0
230
1.0
 70
    24
 71
     1
 72
     4
 73
     2
 74
     0
 42
0.00000001
 43
0.00000001
 40
0.0
 40
0.0
 40
1.0
 40
1.0
 10
217.7523686925396
 20
61.75897333427803
 30
0.0
 10
217.794348988913
 20
61.75465199753182
 30
0.0
  0
SPLINE
  5
D0
330
1F
100
AcDbEntity
  8
0
  6
Continuous
 62
     7
370
    15
100
AcDbSpline
210
0.0
220
0.0
230
1.0
 70
    24
 71
     1
 72
     4
 73
     2
 74
     0
 42
0.00000001
 43
0.00000001
 40
0.0
 40
0.0
 40
1.0
 40
1.0
 10
310.3627539614662
 20
61.75629112526314
 30
0.0
 10
310.3873073498234
 20
61.75897333427803
 30
0.0
  0
SPLINE
  5
D2
330
1F
100
AcDbEntity
  8
0
  6
Continuous
 62
     7
370
    15
100
AcDbSpline
210
0.0
220
0.0
230
1.0
 70
    24
 71
     1
 72
     4
 73
     2
 74
     0
 42
0.00000001
 43
0.00000001
 40
0.0
 40
0.0
 40
1.0
 40
1.0
 10
338.3192248085961
 20
69.47890732094184
 30
0.0
 10
338.3202455381378
 20
69.47910103603736
 30
0.0
  0
SPLINE
  5
D3
330
1F
100
AcDbEntity
  8
0
  6
Continuous
 62
     7
370
    15
100
AcDbSpline
210
0.0
220
0.0
230
1.0
 70
     8
 71
     3
 72
    12
 73
     8
 74
     0
 42
0.00000001
 43
0.00000001
 40
0.0
 40
0.0
 40
0.0
 40
0.0
 40
0.0975672826554154
 40
0.1952879431946462
 40
0.6944110478134956
 40
0.8748971832744972
 40
1.0
 40
1.0
 40
1.0
 40
1.0
 10
348.5441184977516
 20
77.42170307442085
 30
0.0
 10
348.4392932328943
 20
77.27478192139755
 30
0.0
 10
348.2294779155905
 20
76.98070865211282
 30
0.0
 10
348.3036738772131
 20
77.08072337306028
 30
0.0
 10
348.1725699976948
 20
76.89842175723071
 30
0.0
 10
348.1573483547454
 20
76.87625718632155
 30
0.0
 10
348.1609875744209
 20
76.88145112983823
 30
0.0
 10
348.1624774078354
 20
76.88357744022743
 30
0.0
  0
SPLINE
  5
D4
330
1F
100
AcDbEntity
  8
0
  6
Continuous
 62
     7
370
    15
100
AcDbSpline
210
0.0
220
0.0
230
1.0
 70
     8
 71
     3
 72
    15
 73
    11
 74
     0
 42
0.00000001
 43
0.00000001
 40
0.0
 40
0.0
 40
0.0
 40
0.0
 40
0.2500000000000007
 40
0.3750000000000011
 40
0.3750000000000011
 40
0.5000000000000014
 40
0.5000000000000014
 40
0.7500000000000007
 40
0.7500000000000007
 40
1.0
 40
1.0
 40
1.0
 40
1.0
 10
179.8834437903942
 20
77.01664600716
 30
0.0
 10
179.8801307808383
 20
77.02133789643504
 30
0.0
 10
179.875120191021
 20
77.0284323120107
 30
0.0
 10
179.8700667034987
 20
77.03558500286624
 30
0.0
 10
179.8666901012191
 20
77.04036368573551
 30
0.0
 10
179.8654665729965
 20
77.04209618731358
 30
0.0
 10
179.8471547101047
 20
77.06800117132477
 30
0.0
 10
179.820073015462
 20
77.10632214815156
 30
0.0
 10
179.7339159305664
 20
77.22775145139633
 30
0.0
 10
179.674785663635
 20
77.31095488705063
 30
0.0
 10
179.5955593102413
 20
77.4217086507354
 30
0.0
  0
ARC
  5
D7
330
1F
100
AcDbEntity
  8
0
  6
Continuous
 62
     7
370
    15
100
AcDbCircle
 10
311.4002715802
 20
56.8626390526
 30
0.0
 40
5.000018592920124
100
AcDbArc
 50
101.6885786396
 51
175.9998363916
  0
ARC
  5
D9
330
1F
100
AcDbEntity
  8
0
  6
Continuous
 62
     7
370
    15
100
AcDbCircle
 10
216.7394044622
 20
56.8626390526
 30
0.0
 40
5.000018592920071
100
AcDbArc
 50
4.0001636084
 51
78.3114213604
  0
LINE
  5
DA
330
1F
100
AcDbEntity
  8
0
  6
Continuous
 62
     7
370
    15
100
AcDbLine
 10
221.7272422651
 20
57.2114369611
 30
0.0
 11
223.5738500396
 21
30.8036885004
 31
0.0
  0
LINE
  5
DB
330
1F
100
AcDbEntity
  8
0
  6
Continuous
 62
     7
370
    15
100
AcDbLine
 10
306.4124337772
 20
57.2114369611
 30
0.0
 11
304.5658260027
 21
30.8036885004
 31
0.0
  0
LINE
  5
DC
330
1F
100
AcDbEntity
  8
0
  6
Continuous
 62
     7
370
    15
100
AcDbLine
 10
301.2722931246
 20
23.7107357721
 30
0.0
 11
226.8673829178
 21
23.7107357721
 31
0.0
  0
SPLINE
  5
DD
330
1F
100
AcDbEntity
  8
0
  6
Continuous
 62
     7
370
    15
100
AcDbSpline
210
0.0
220
0.0
230
1.0
 70
     8
 71
     3
 72
    10
 73
     6
 74
     0
 42
0.00000001
 43
0.00000001
 40
0.0
 40
0.0
 40
0.0
 40
0.0
 40
0.0000093084030247
 40
0.8709494296099525
 40
1.0
 40
1.0
 40
1.0
 40
1.0
 10
190.7212189773545
 20
69.34814963146583
 30
0.0
 10
190.7212189773578
 20
69.34814963146547
 30
0.0
 10
190.7212192877628
 20
69.34814959801615
 30
0.0
 10
190.6210610803084
 20
69.35896909495672
 30
0.0
 10
190.5727959734529
 20
69.36507866171158
 30
0.0
 10
190.5665672759041
 20
69.36586711212531
 30
0.0
  0
LWPOLYLINE
  5
DE
330
1F
100
AcDbEntity
  8
0
  6
Continuous
 62
     7
370
    15
100
AcDbPolyline
 90
       15
 70
   128
 43
0.0
 10
217.7943489889
 20
61.7546519975
 10
218.3679356615
 20
61.695628498
 10
220.2700502614
 20
61.5251145105
 10
223.3108296434
 20
61.2993172149
 10
225.2456336657
 20
61.1793628673
 10
227.4321741799
 20
61.0617629032
 10
229.8909887115
 20
60.9574249725
 10
232.4585630933
 20
60.9499892931
 10
235.2774343828
 20
61.0499313812
 10
241.5911010841
 20
61.270662282
 10
248.4864700029
 20
61.4800533991
 10
255.9637125025
 20
61.6389146785
 10
264.0697780212
 20
61.7016783695
 10
264.0698380212
 20
61.7016783695
 10
264.0698380212
 20
61.7016783695
  0
SPLINE
  5
DF
330
1F
100
AcDbEntity
  8
0
  6
Continuous
 62
     7
370
    15
100
AcDbSpline
210
0.0
220
0.0
230
1.0
 70
     8
 71
     3
 72
    20
 73
    16
 74
     0
 42
0.00000001
 43
0.00000001
 40
0.0
 40
0.0
 40
0.0
 40
0.0
 40
0.0000008280766733
 40
0.1066161690858703
 40
0.2161132206979707
 40
0.3223421843238882
 40
0.4284691299195978
 40
0.4783916552901812
 40
0.5287436335393075
 40
0.5797373268644536
 40
0.6312921423740036
 40
0.7346820394147936
 40
0.8383934009721798
 40
0.9447925245012014
 40
1.0
 40
1.0
 40
1.0
 40
1.0
 10
264.0698380211815
 20
61.70167836948769
 30
0.0
 10
264.0698580211807
 20
61.7016783694881
 30
0.0
 10
266.6448892518812
 20
61.70167842120587
 30
0.0
 10
271.8740664151157
 20
61.66115439350816
 30
0.0
 10
279.4638686830582
 20
61.49808835408528
 30
0.0
 10
286.634016909383
 20
61.26853413731141
 30
0.0
 10
291.98294738902
 20
61.09431865398525
 30
0.0
 10
295.8270407158715
 20
60.92272797727009
 30
0.0
 10
298.4069249714053
 20
60.94493621579612
 30
0.0
 10
300.7645843298245
 20
61.0637809257656
 30
0.0
 10
303.6231653373682
 20
61.21475475791048
 30
0.0
 10
306.5857605708846
 20
61.41562253322193
 30
0.0
 10
309.0442896226967
 20
61.62257391371818
 30
0.0
 10
310.2090751404097
 20
61.73838178047446
 30
0.0
 10
310.3236226469209
 20
61.75173085990311
 30
0.0
 10
310.3627539614662
 20
61.75629112526311
 30
0.0
  0
LWPOLYLINE
  5
E0
330
1F
100
AcDbEntity
  8
0
  6
Continuous
 62
     7
370
    15
100
AcDbPolyline
 90
        8
 70
   128
 43
0.0
 10
338.3202455381
 20
69.479101036
 10
338.3447430471
 20
69.483630989
 10
337.9930234889
 20
69.423728321
 10
337.7088061909
 20
69.382869337
 10
337.553558443
 20
69.3634233217
 10
337.418457065
 20
69.3481496315
 10
337.418457065
 20
69.3481496315
 10
337.418457065
 20
69.3481496315
  0
SPLINE
  5
E2
330
1F
100
AcDbEntity
  8
0
  6
Continuous
 62
     7
370
    15
100
AcDbSpline
210
0.0
220
0.0
230
1.0
 70
     8
 71
     3
 72
    17
 73
    13
 74
     0
 42
0.00000001
 43
0.00000001
 40
0.0
 40
0.0
 40
0.0
 40
0.0
 40
0.0805147622364844
 40
0.2113533618754879
 40
0.3266997923709995
 40
0.4501502842810336
 40
0.553497254713508
 40
0.6646461522697185
 40
0.7700308726427948
 40
0.875595943790371
 40
0.9764947984218731
 40
1.0
 40
1.0
 40
1.0
 40
1.0
 10
239.0776533076987
 20
667.6570232830468
 30
0.0
 10
239.0756061085506
 20
667.6811179500025
 30
0.0
 10
239.0702321571118
 20
667.7443670824958
 30
0.0
 10
239.124465248785
 20
667.9075428020957
 30
0.0
 10
239.3266359846371
 20
668.2272686196417
 30
0.0
 10
239.7878319078074
 20
668.6685175124999
 30
0.0
 10
240.4986123204497
 20
669.1295228343764
 30
0.0
 10
241.4393115143079
 20
669.553866562818
 30
0.0
 10
242.596391442445
 20
669.9103069667583
 30
0.0
 10
243.8879684707669
 20
670.1336947825264
 30
0.0
 10
244.9096143885252
 20
670.2355807832103
 30
0.0
 10
245.4638881982371
 20
670.2159405701714
 30
0.0
 10
245.5686140248999
 20
670.2122297010842
 30
0.0
  0
SPLINE
  5
E3
330
1F
100
AcDbEntity
  8
0
  6
Continuous
 62
     7
370
    15
100
AcDbSpline
210
0.0
220
0.0
230
1.0
 70
     8
 71
     3
 72
    17
 73
    13
 74
     0
 42
0.00000001
 43
0.00000001
 40
0.0
 40
0.0
 40
0.0
 40
0.0
 40
0.0407431441467861
 40
0.141572096413188
 40
0.2428936791191264
 40
0.3449957817490666
 40
0.4487645391916955
 40
0.557813672631945
 40
0.6685822367738274
 40
0.7888186785924972
 40
0.9161263509730591
 40
1.0
 40
1.0
 40
1.0
 40
1.0
 10
282.5703393111452
 20
670.2079232654992
 30
0.0
 10
282.7524125814941
 20
670.2119136422089
 30
0.0
 10
283.3850710354229
 20
670.2257791896063
 30
0.0
 10
284.4557950029345
 20
670.1083886751389
 30
0.0
 10
285.6922439386736
 20
669.8695428726376
 30
0.0
 10
286.7820789336529
 20
669.5224650761252
 30
0.0
 10
287.6847014233853
 20
669.1040986446918
 30
0.0
 10
288.3634596946064
 20
668.6587476868918
 30
0.0
 10
288.8091601912889
 20
668.2303163079224
 30
0.0
 10
289.0150757935368
 20
667.9095071450023
 30
0.0
 10
289.0692542278593
 20
667.7470813905434
 30
0.0
 10
289.0633251552218
 20
667.6825702780849
 30
0.0
 10
289.0609703401551
 20
667.6569487772408
 30
0.0
  0
SPLINE
  5
E4
330
1F
100
AcDbEntity
  8
0
  6
Continuous
 62
     7
370
    15
100
AcDbSpline
210
0.0
220
0.0
230
1.0
 70
    24
 71
     1
 72
     4
 73
     2
 74
     0
 42
0.00000001
 43
0.00000001
 40
0.0
 40
0.0
 40
1.0
 40
1.0
 10
245.5698377827629
 20
670.224359246296
 30
0.0
 10
282.5698382596001
 20
670.224359246296
 30
0.0
  0
SPLINE
  5
E5
330
1F
100
AcDbEntity
  8
0
  6
Continuous
 62
     7
370
    15
100
AcDbSpline
210
0.0
220
0.0
230
1.0
 70
     8
 71
     3
 72
    12
 73
     8
 74
     0
 42
0.00000001
 43
0.00000001
 40
0.0
 40
0.0
 40
0.0
 40
0.0
 40
0.25
 40
0.25
 40
0.5
 40
0.5
 40
1.0
 40
1.0
 40
1.0
 40
1.0
 10
53.20106011132353
 20
694.3736876640183
 30
0.0
 10
54.22835023337638
 20
694.3736876640181
 30
0.0
 10
55.25541703172767
 20
694.3786152478752
 30
0.0
 10
57.30942551047721
 20
694.3912311131862
 30
0.0
 10
58.33636600692257
 20
694.3989455182783
 30
0.0
 10
61.4172958046782
 20
694.4196989342742
 30
0.0
 10
63.47142978044784
 20
694.4295457379685
 30
0.0
 10
65.52601002455344
 20
694.4295457379685
 30
0.0
  0
SPLINE
  5
E9
330
1F
100
AcDbEntity
  8
0
  6
Continuous
 62
     7
370
    15
100
AcDbSpline
210
0.0
220
0.0
230
1.0
 70
     8
 71
     3
 72
    32
 73
    28
 74
     0
 42
0.00000001
 43
0.00000001
 40
0.0
 40
0.0
 40
0.0
 40
0.0
 40
0.2500000000000037
 40
0.2500000000000037
 40
0.3750000000000054
 40
0.3750000000000054
 40
0.5000000000000071
 40
0.5000000000000071
 40
0.6250000000000089
 40
0.6250000000000089
 40
0.68750000000001
 40
0.68750000000001
 40
0.7500000000000113
 40
0.7500000000000113
 40
0.8125000000000125
 40
0.8125000000000125
 40
0.8437500000000104
 40
0.8437500000000104
 40
0.8750000000000083
 40
0.8750000000000083
 40
0.9062500000000062
 40
0.9062500000000062
 40
0.9375000000000042
 40
0.9375000000000042
 40
0.9687500000000021
 40
0.9687500000000021
 40
1.0
 40
1.0
 40
1.0
 40
1.0
 10
65.52601002455339
 20
682.9231742236619
 30
0.0
 10
63.92994851854575
 20
683.2284207301171
 30
0.0
 10
62.31336735426618
 20
683.4426827292754
 30
0.0
 10
59.88087436683878
 20
683.6102415103384
 30
0.0
 10
59.06803330430272
 20
683.6404378428942
 30
0.0
 10
57.43780796328937
 20
683.641829163685
 30
0.0
 10
56.62035290036377
 20
683.6133039053265
 30
0.0
 10
54.98016118250917
 20
683.4804109806955
 30
0.0
 10
54.16504270785904
 20
683.3773929785631
 30
0.0
 10
52.95394649141844
 20
683.1405275585131
 30
0.0
 10
52.55220462341412
 20
683.0476740922355
 30
0.0
 10
51.75425358825012
 20
682.8233791000648
 30
0.0
 10
51.3552716183188
 20
682.6911400172016
 30
0.0
 10
50.58166324070282
 20
682.3722585041412
 30
0.0
 10
50.20722718253087
 20
682.1870643596698
 30
0.0
 10
49.67875623808532
 20
681.8403997509198
 30
0.0
 10
49.50794901297245
 20
681.7129573773218
 30
0.0
 10
49.18446950404257
 20
681.4236466563182
 30
0.0
 10
49.0365808726616
 20
681.2659755801035
 30
0.0
 10
48.7788305274669
 20
680.9148848100313
 30
0.0
 10
48.67026329543256
 20
680.7211446829014
 30
0.0
 10
48.51495331008287
 20
680.3129814815184
 30
0.0
 10
48.46697568595037
 20
680.0944033513416
 30
0.0
 10
48.43434309516903
 20
679.6545809657891
 30
0.0
 10
48.44845118756147
 20
679.43948696419
 30
0.0
 10
48.51977729925261
 20
679.0161948400837
 30
0.0
 10
48.57760109040885
 20
678.8070959987475
 30
0.0
 10
48.64992340397839
 20
678.6046722902796
 30
0.0
  0
SPLINE
  5
ED
330
1F
100
AcDbEntity
  8
0
  6
Continuous
 62
     7
370
    15
100
AcDbSpline
210
0.0
220
0.0
230
1.0
 70
     8
 71
     3
 72
    32
 73
    28
 74
     0
 42
0.00000001
 43
0.00000001
 40
0.0
 40
0.0
 40
0.0
 40
0.0
 40
0.2499999999999974
 40
0.2499999999999974
 40
0.3749999999999981
 40
0.3749999999999981
 40
0.4999999999999987
 40
0.4999999999999987
 40
0.6249999999999992
 40
0.6249999999999992
 40
0.6875
 40
0.6875
 40
0.7500000000000007
 40
0.7500000000000007
 40
0.8125000000000013
 40
0.8125000000000013
 40
0.8437500000000011
 40
0.8437500000000011
 40
0.8750000000000009
 40
0.8750000000000009
 40
0.9062500000000008
 40
0.9062500000000008
 40
0.9375000000000006
 40
0.9375000000000006
 40
0.9687500000000003
 40
0.9687500000000003
 40
1.0
 40
1.0
 40
1.0
 40
1.0
 10
462.6136660178209
 20
307.610516650516
 30
0.0
 10
464.2097275238277
 20
307.305270144061
 30
0.0
 10
465.8263086881088
 20
307.091008144907
 30
0.0
 10
468.2588016755343
 20
306.9234493638447
 30
0.0
 10
469.0716427380698
 20
306.8932530312891
 30
0.0
 10
470.7018680790821
 20
306.8918617104987
 30
0.0
 10
471.5193231420072
 20
306.9203869688574
 30
0.0
 10
473.1595148598606
 20
307.0532798934884
 30
0.0
 10
473.9746333345101
 20
307.1562978956213
 30
0.0
 10
475.1857295509498
 20
307.3931633156715
 30
0.0
 10
475.5874714189538
 20
307.486016781949
 30
0.0
 10
476.3854224541172
 20
307.7103117741199
 30
0.0
 10
476.7844044240481
 20
307.8425508569833
 30
0.0
 10
477.5580128016634
 20
308.1614323700439
 30
0.0
 10
477.932448859835
 20
308.346626514515
 30
0.0
 10
478.4609198042801
 20
308.6932911232653
 30
0.0
 10
478.6317270293927
 20
308.8207334968633
 30
0.0
 10
478.9552065383222
 20
309.1100442178669
 30
0.0
 10
479.1030951697028
 20
309.2677152940817
 30
0.0
 10
479.3608455148972
 20
309.6188060641539
 30
0.0
 10
479.4694127469312
 20
309.8125461912837
 30
0.0
 10
479.6247227322804
 20
310.2207093926665
 30
0.0
 10
479.6727003564129
 20
310.4392875228432
 30
0.0
 10
479.7053329471939
 20
310.8791099083952
 30
0.0
 10
479.6912248548014
 20
311.0942039099941
 30
0.0
 10
479.6198987431102
 20
311.5174960341001
 30
0.0
 10
479.5620749519541
 20
311.726594875436
 30
0.0
 10
479.4897526383847
 20
311.9290185839038
 30
0.0
  0
SPLINE
  5
F5
330
1F
100
AcDbEntity
  8
0
  6
Continuous
 62
     7
370
    15
100
AcDbSpline
210
0.0
220
0.0
230
1.0
 70
     8
 71
     3
 72
    12
 73
     8
 74
     0
 42
0.00000001
 43
0.00000001
 40
0.0
 40
0.0
 40
0.0
 40
0.0
 40
0.4999999999999967
 40
0.4999999999999967
 40
0.7499999999999983
 40
0.7499999999999983
 40
1.0
 40
1.0
 40
1.0
 40
1.0
 10
462.6136660178096
 20
694.4295457379685
 30
0.0
 10
464.6682462619118
 20
694.4295457379685
 30
0.0
 10
466.722380237678
 20
694.419698934274
 30
0.0
 10
469.8033100354286
 20
694.3989455182784
 30
0.0
 10
470.8302505318722
 20
694.3912311131863
 30
0.0
 10
472.8842590106185
 20
694.3786152478754
 30
0.0
 10
473.9113258089682
 20
694.3736876640182
 30
0.0
 10
474.9386159310193
 20
694.3736876640183
 30
0.0
  0
SPLINE
  5
FA
330
1F
100
AcDbEntity
  8
0
  6
Continuous
 62
     7
370
    15
100
AcDbSpline
210
0.0
220
0.0
230
1.0
 70
     8
 71
     3
 72
    34
 73
    30
 74
     0
 42
0.00000001
 43
0.00000001
 40
0.0
 40
0.0
 40
0.0
 40
0.0
 40
0.0312500000000002
 40
0.0312500000000002
 40
0.0625000000000004
 40
0.0625000000000004
 40
0.0781250000000025
 40
0.0781250000000025
 40
0.0937500000000045
 40
0.0937500000000045
 40
0.1250000000000036
 40
0.1250000000000036
 40
0.1562500000000026
 40
0.1562500000000026
 40
0.1875000000000017
 40
0.1875000000000017
 40
0.2500000000000031
 40
0.2500000000000031
 40
0.3125000000000044
 40
0.3125000000000044
 40
0.3750000000000058
 40
0.3750000000000058
 40
0.5000000000000048
 40
0.5000000000000048
 40
0.6250000000000037
 40
0.6250000000000037
 40
0.7500000000000024
 40
0.7500000000000024
 40
1.0
 40
1.0
 40
1.0
 40
1.0
 10
479.4897526383846
 20
678.6046722902796
 30
0.0
 10
479.5619897805622
 20
678.8068576116142
 30
0.0
 10
479.6193151422758
 20
679.0134249221913
 30
0.0
 10
479.6912569785821
 20
679.4389893899399
 30
0.0
 10
479.7049902083972
 20
679.6588236807448
 30
0.0
 10
479.6810641945132
 20
679.9818634139427
 30
0.0
 10
479.6658222568608
 20
680.0890958471219
 30
0.0
 10
479.6193441916381
 20
680.3025705961697
 30
0.0
 10
479.5877254198474
 20
680.4094126117794
 30
0.0
 10
479.4718533175697
 20
680.7162690770236
 30
0.0
 10
479.3653545936728
 20
680.9077008369469
 30
0.0
 10
479.107446068627
 20
681.2610559588298
 30
0.0
 10
478.9603725595669
 20
681.4182495930654
 30
0.0
 10
478.6409399022278
 20
681.7054602462377
 30
0.0
 10
478.4676146587064
 20
681.8356973440167
 30
0.0
 10
477.9342862437761
 20
682.1864674467822
 30
0.0
 10
477.5566724441468
 20
682.3730544605189
 30
0.0
 10
476.7771009252768
 20
682.6939043443087
 30
0.0
 10
476.3785764794844
 20
682.8255389844595
 30
0.0
 10
475.5803752513679
 20
683.0494290335112
 30
0.0
 10
475.1786666265695
 20
683.1420736042351
 30
0.0
 10
473.9680197479354
 20
683.3783528230005
 30
0.0
 10
473.1536611390643
 20
683.4810337160924
 30
0.0
 10
471.5156192573541
 20
683.6134546850767
 30
0.0
 10
470.6934324220319
 20
683.6420494757941
 30
0.0
 10
469.0613040696808
 20
683.6401988752896
 30
0.0
 10
468.248576956056
 20
683.6097328136864
 30
0.0
 10
465.8191461479186
 20
683.4417947568878
 30
0.0
 10
464.2110860463666
 20
683.2286805473404
 30
0.0
 10
462.6136660178079
 20
682.9231742236661
 30
0.0
  0
SPLINE
  5
FE
330
1F
100
AcDbEntity
  8
0
  6
Continuous
 62
     7
370
    15
100
AcDbSpline
210
0.0
220
0.0
230
1.0
 70
     8
 71
     3
 72
    34
 73
    30
 74
     0
 42
0.00000001
 43
0.00000001
 40
0.0
 40
0.0
 40
0.0
 40
0.0
 40
0.0312500000000007
 40
0.0312500000000007
 40
0.0625000000000014
 40
0.0625000000000014
 40
0.093750000000002
 40
0.093750000000002
 40
0.1250000000000027
 40
0.1250000000000027
 40
0.1562500000000034
 40
0.1562500000000034
 40
0.1875000000000041
 40
0.1875000000000041
 40
0.2187500000000048
 40
0.2187500000000048
 40
0.2500000000000054
 40
0.2500000000000054
 40
0.3125000000000053
 40
0.3125000000000053
 40
0.3750000000000052
 40
0.3750000000000052
 40
0.5000000000000042
 40
0.5000000000000042
 40
0.6250000000000031
 40
0.6250000000000031
 40
0.7500000000000021
 40
0.7500000000000021
 40
1.0
 40
1.0
 40
1.0
 40
1.0
 10
48.64992340397848
 20
311.9290185839038
 30
0.0
 10
48.57777882736444
 20
311.7270923453298
 30
0.0
 10
48.52029918135766
 20
311.5197023380563
 30
0.0
 10
48.44864075566529
 20
311.0962109598607
 30
0.0
 10
48.43460310318132
 20
310.8761251199024
 30
0.0
 10
48.46665292934493
 20
310.4431190526507
 30
0.0
 10
48.51305672921299
 20
310.2270788089792
 30
0.0
 10
48.66860604114662
 20
309.8155476444456
 30
0.0
 10
48.77648628840403
 20
309.6230571184756
 30
0.0
 10
49.02977611719195
 20
309.27596384779
 30
0.0
 10
49.17746254529953
 20
309.1172489314112
 30
0.0
 10
49.49773287553813
 20
308.8289816247192
 30
0.0
 10
49.66820037665412
 20
308.7007758756555
 30
0.0
 10
50.02354607527684
 20
308.4665844420625
 30
0.0
 10
50.20930223663625
 20
308.3603658426379
 30
0.0
 10
50.58476559603567
 20
308.1681731912942
 30
0.0
 10
50.77520494263105
 20
308.0816772945882
 30
0.0
 10
51.35255015171344
 20
307.843627092558
 30
0.0
 10
51.745380070264
 20
307.7131484762488
 30
0.0
 10
52.54123517983169
 20
307.4887661397584
 30
0.0
 10
52.94463652017381
 20
307.3951398566622
 30
0.0
 10
54.16455153956795
 20
307.1560861818592
 30
0.0
 10
54.97972279430313
 20
307.0534499963898
 30
0.0
 10
56.61215012603438
 20
306.9209177075961
 30
0.0
 10
57.4294480112228
 20
306.8919870677329
 30
0.0
 10
59.06559084990662
 20
306.893119326535
 30
0.0
 10
59.88287355092633
 20
306.9235149399758
 30
0.0
 10
62.31948327997161
 20
307.0915741513215
 30
0.0
 10
63.92935578860079
 20
307.3051567845565
 30
0.0
 10
65.52601002454206
 20
307.6105166505162
 30
0.0
  0
SPLINE
  5
103
330
1F
100
AcDbEntity
  8
0
  6
Continuous
 62
     7
370
    15
100
AcDbSpline
210
0.0
220
0.0
230
1.0
 70
     8
 71
     3
 72
    12
 73
     8
 74
     0
 42
0.00000001
 43
0.00000001
 40
0.0
 40
0.0
 40
0.0
 40
0.0
 40
0.5
 40
0.5
 40
0.75
 40
0.75
 40
1.0
 40
1.0
 40
1.0
 40
1.0
 10
65.52601002454206
 20
296.1041451362149
 30
0.0
 10
63.47142978044174
 20
296.1041451362149
 30
0.0
 10
61.41729580467744
 20
296.1139919399095
 30
0.0
 10
58.33636600692965
 20
296.134745355905
 30
0.0
 10
57.30942551048704
 20
296.1424597609971
 30
0.0
 10
55.2554170317427
 20
296.1550756263082
 30
0.0
 10
54.22835023339395
 20
296.1600032101653
 30
0.0
 10
53.20106011134384
 20
296.1600032101652
 30
0.0
  0
ARC
  5
105
330
1F
100
AcDbEntity
  8
0
  6
Continuous
 62
     7
370
    15
100
AcDbCircle
 10
49.1698380212
 20
684.7668454371
 30
0.0
 40
26.0
100
AcDbArc
 50
90.0
 51
180.0
  0
LINE
  5
109
330
1F
100
AcDbEntity
  8
0
  6
Continuous
 62
     7
370
    15
100
AcDbLine
 10
49.1698361377
 20
710.7668425761
 30
0.0
 11
478.9698399047
 21
710.7668425761
 31
0.0
  0
ARC
  5
10D
330
1F
100
AcDbEntity
  8
0
  6
Continuous
 62
     7
370
    15
100
AcDbCircle
 10
478.9698380212
 20
684.7668454371
 30
0.0
 40
26.0
100
AcDbArc
 50
0.0
 51
90.0
  0
LINE
  5
11D
330
1F
100
AcDbEntity
  8
0
  6
Continuous
 62
     7
370
    15
100
AcDbLine
 10
478.9698399047
 20
701.1600043498
 30
0.0
 11
49.1698361377
 21
701.1600043498
 31
0.0
  0
ARC
  5
120
330
1F
100
AcDbEntity
  8
0
  6
Continuous
 62
     7
370
    15
100
AcDbCircle
 10
478.9698380212
 20
684.7668454371
 30
0.0
 40
16.39315777307331
100
AcDbArc
 50
0.0
 51
90.0
  0
ARC
  5
121
330
1F
100
AcDbEntity
  8
0
  6
Continuous
 62
     7
370
    15
100
AcDbCircle
 10
49.1698380212
 20
684.7668454371
 30
0.0
 40
16.39315777307334
100
AcDbArc
 50
90.0
 51
180.0
  0
ARC
  5
123
330
1F
100
AcDbEntity
  8
0
  6
Continuous
 62
     7
370
    15
100
AcDbCircle
 10
478.9698380212
 20
684.7668454371
 30
0.0
 40
9.606842226926574
100
AcDbArc
 50
0.0
 51
90.0
  0
LINE
  5
127
330
1F
100
AcDbEntity
  8
0
  6
Continuous
 62
     7
370
    15
100
AcDbLine
 10
474.9386138658
 20
694.3736877165
 30
0.0
 11
478.9698399047
 21
694.3736877165
 31
0.0
  0
ARC
  5
133
330
1F
100
AcDbEntity
  8
0
  6
Continuous
 62
     7
370
    15
100
AcDbCircle
 10
49.1698380212
 20
684.7668454371
 30
0.0
 40
9.606842226926574
100
AcDbArc
 50
90.0
 51
180.0
  0
LINE
  5
136
330
1F
100
AcDbEntity
  8
0
  6
Continuous
 62
     7
370
    15
100
AcDbLine
 10
49.1698361377
 20
694.3736877165
 30
0.0
 11
53.2010621766
 21
694.3736877165
 31
0.0
  0
LINE
  5
137
330
1F
100
AcDbEntity
  8
0
  6
Continuous
 62
     7
370
    15
100
AcDbLine
 10
488.576678131
 20
684.7668494902
 30
0.0
 11
488.576678131
 21
305.766841384
 31
0.0
  0
LINE
  5
139
330
1F
100
AcDbEntity
  8
0
  6
Continuous
 62
     7
370
    15
100
AcDbLine
 10
23.1698430518
 20
305.766841384
 30
0.0
 11
23.1698430518
 21
684.7668494902
 31
0.0
  0
LINE
  5
13C
330
1F
100
AcDbEntity
  8
0
  6
Continuous
 62
     7
370
    15
100
AcDbLine
 10
495.3629947642
 20
305.766841384
 30
0.0
 11
495.3629947642
 21
684.7668494902
 31
0.0
  0
LINE
  5
13D
330
1F
100
AcDbEntity
  8
0
  6
Continuous
 62
     7
370
    15
100
AcDbLine
 10
32.7766812781
 20
684.7668494902
 30
0.0
 11
32.7766812781
 21
305.766841384
 31
0.0
  0
LINE
  5
13F
330
1F
100
AcDbEntity
  8
0
  6
Continuous
 62
     7
370
    15
100
AcDbLine
 10
504.9698329905
 20
684.7668494902
 30
0.0
 11
504.9698329905
 21
305.766841384
 31
0.0
  0
LINE
  5
141
330
1F
100
AcDbEntity
  8
0
  6
Continuous
 62
     7
370
    15
100
AcDbLine
 10
479.4897563199
 20
311.9290228806
 30
0.0
 11
479.4897563199
 21
678.6046679936
 31
0.0
  0
LINE
  5
143
330
1F
100
AcDbEntity
  8
0
  6
Continuous
 62
     7
370
    15
100
AcDbLine
 10
39.5629979114
 20
305.766841384
 30
0.0
 11
39.5629979114
 21
684.7668494902
 31
0.0
  0
LINE
  5
144
330
1F
100
AcDbEntity
  8
0
  6
Continuous
 62
     7
370
    15
100
AcDbLine
 10
48.6499197225
 20
678.6046679936
 30
0.0
 11
48.6499197225
 21
311.9290228806
 31
0.0
  0
ARC
  5
145
330
1F
100
AcDbEntity
  8
0
  6
Continuous
 62
     7
370
    15
100
AcDbCircle
 10
478.9698380212
 20
305.7668454371
 30
0.0
 40
9.606842226926574
100
AcDbArc
 50
270.0
 51
0.0
  0
ARC
  5
147
330
1F
100
AcDbEntity
  8
0
  6
Continuous
 62
     7
370
    15
100
AcDbCircle
 10
49.1698380212
 20
305.7668454371
 30
0.0
 40
26.00000000000006
100
AcDbArc
 50
180.0
 51
270.0
  0
ARC
  5
149
330
1F
100
AcDbEntity
  8
0
  6
Continuous
 62
     7
370
    15
100
AcDbCircle
 10
478.9698380212
 20
305.7668454371
 30
0.0
 40
26.00000000000006
100
AcDbArc
 50
270.0
 51
0.0
  0
ARC
  5
14B
330
1F
100
AcDbEntity
  8
0
  6
Continuous
 62
     7
370
    15
100
AcDbCircle
 10
49.1698380212
 20
305.7668454371
 30
0.0
 40
16.39315777307337
100
AcDbArc
 50
180.0
 51
270.0
  0
ARC
  5
14E
330
1F
100
AcDbEntity
  8
0
  6
Continuous
 62
     7
370
    15
100
AcDbCircle
 10
478.9698380212
 20
305.7668454371
 30
0.0
 40
16.39315777307343
100
AcDbArc
 50
270.0
 51
0.0
  0
ARC
  5
150
330
1F
100
AcDbEntity
  8
0
  6
Continuous
 62
     7
370
    15
100
AcDbCircle
 10
49.1698380212
 20
305.7668454371
 30
0.0
 40
9.606842226926574
100
AcDbArc
 50
180.0
 51
270.0
  0
LINE
  5
152
330
1F
100
AcDbEntity
  8
0
  6
Continuous
 62
     7
370
    15
100
AcDbLine
 10
53.2010621766
 20
296.1600031577
 30
0.0
 11
49.1698361377
 21
296.1600031577
 31
0.0
  0
LINE
  5
153
330
1F
100
AcDbEntity
  8
0
  6
Continuous
 62
     7
370
    15
100
AcDbLine
 10
49.1698361377
 20
289.3736865244
 30
0.0
 11
478.9698399047
 21
289.3736865244
 31
0.0
  0
LINE
  5
154
330
1F
100
AcDbEntity
  8
0
  6
Continuous
 62
     7
370
    15
100
AcDbLine
 10
478.9698399047
 20
279.7668482981
 30
0.0
 11
49.1698361377
 21
279.7668482981
 31
0.0
  0
LINE
  5
155
330
1F
100
AcDbEntity
  8
0
  6
Continuous
 62
     7
370
    15
100
AcDbLine
 10
65.5260063151
 20
694.4295521698
 30
0.0
 11
462.6136697272
 21
694.4295521698
 31
0.0
  0
LINE
  5
158
330
1F
100
AcDbEntity
  8
0
  6
Continuous
 62
     7
370
    15
100
AcDbLine
 10
478.9698380212
 20
296.1600032101734
 30
0.0
 11
65.5260063151
 21
296.1041387043
 31
0.0
  0
LINE
  5
159
330
1F
100
AcDbEntity
  8
0
  6
Continuous
 62
     7
370
    15
100
AcDbLine
 10
65.5260063151
 20
307.610517355
 30
0.0
 11
462.6136697272
 21
307.610517355
 31
0.0
  0
LINE
  5
15A
330
1F
100
AcDbEntity
  8
0
  6
Continuous
 62
     7
370
    15
100
AcDbLine
 10
462.6136697272
 20
682.9231735192
 30
0.0
 11
65.5260063151
 21
682.9231735192
 31
0.0
  0
LINE
  5
15B
330
1F
100
AcDbEntity
  8
0
  6
Continuous
 62
     7
370
    15
100
AcDbLine
 10
478.9698399047
 20
695.4933311663
 30
0.0
 11
49.1698361377
 21
695.4933311663
 31
0.0
  0
LINE
  5
15E
330
1F
100
AcDbEntity
  8
0
  6
Continuous
 62
     7
370
    15
100
AcDbLine
 10
49.1698361377
 20
295.0403597079
 30
0.0
 11
478.9698399047
 21
295.0403597079
 31
0.0
  0
ARC
  5
162
330
1F
100
AcDbEntity
  8
0
  6
Continuous
 62
     7
370
    15
100
AcDbCircle
 10
478.9698380212
 20
684.7668454371
 30
0.0
 40
15.2735088935932
100
AcDbArc
 50
0.0
 51
90.0
  0
LINE
  5
164
330
1F
100
AcDbEntity
  8
0
  6
Continuous
 62
     7
370
    15
100
AcDbLine
 10
49.1698361377
 20
700.0403609
 30
0.0
 11
478.9698399047
 21
700.0403609
 31
0.0
  0
ARC
  5
166
330
1F
100
AcDbEntity
  8
0
  6
Continuous
 62
     7
370
    15
100
AcDbCircle
 10
49.1698380212
 20
684.7668454371
 30
0.0
 40
15.27350889359322
100
AcDbArc
 50
90.0
 51
180.0
  0
ARC
  5
168
330
1F
100
AcDbEntity
  8
0
  6
Continuous
 62
     7
370
    15
100
AcDbCircle
 10
478.9698380212
 20
684.7668454371
 30
0.0
 40
10.72649110640668
100
AcDbArc
 50
0.0
 51
90.0
  0
ARC
  5
16A
330
1F
100
AcDbEntity
  8
0
  6
Continuous
 62
     7
370
    15
100
AcDbCircle
 10
49.1698380212
 20
684.7668454371
 30
0.0
 40
10.72649110640668
100
AcDbArc
 50
90.0
 51
180.0
  0
LINE
  5
16D
330
1F
100
AcDbEntity
  8
0
  6
Continuous
 62
     7
370
    15
100
AcDbLine
 10
494.2433513144
 20
684.7668494902
 30
0.0
 11
494.2433513144
 21
305.766841384
 31
0.0
  0
LINE
  5
16E
330
1F
100
AcDbEntity
  8
0
  6
Continuous
 62
     7
370
    15
100
AcDbLine
 10
489.696336482
 20
305.766841384
 30
0.0
 11
489.696336482
 21
684.7668494902
 31
0.0
  0
LINE
  5
170
330
1F
100
AcDbEntity
  8
0
  6
Continuous
 62
     7
370
    15
100
AcDbLine
 10
33.8963247279
 20
305.766841384
 30
0.0
 11
33.8963247279
 21
684.7668494902
 31
0.0
  0
LINE
  5
172
330
1F
100
AcDbEntity
  8
0
  6
Continuous
 62
     7
370
    15
100
AcDbLine
 10
38.4433395604
 20
684.7668494902
 30
0.0
 11
38.4433395604
 21
305.766841384
 31
0.0
  0
ARC
  5
174
330
1F
100
AcDbEntity
  8
0
  6
Continuous
 62
     7
370
    15
100
AcDbCircle
 10
478.9698380212
 20
305.7668454371
 30
0.0
 40
10.72649110640674
100
AcDbArc
 50
270.0
 51
0.0
  0
ARC
  5
175
330
1F
100
AcDbEntity
  8
0
  6
Continuous
 62
     7
370
    15
100
AcDbCircle
 10
49.1698380212
 20
305.7668454371
 30
0.0
 40
15.27350889359326
100
AcDbArc
 50
180.0
 51
270.0
  0
ARC
  5
178
330
1F
100
AcDbEntity
  8
0
  6
Continuous
 62
     7
370
    15
100
AcDbCircle
 10
478.9698380212
 20
305.7668454371
 30
0.0
 40
15.27350889359326
100
AcDbArc
 50
270.0
 51
0.0
  0
ARC
  5
179
330
1F
100
AcDbEntity
  8
0
  6
Continuous
 62
     7
370
    15
100
AcDbCircle
 10
49.1698380212
 20
305.7668454371
 30
0.0
 40
10.72649110640668
100
AcDbArc
 50
180.0
 51
270.0
  0
LINE
  5
17A
330
1F
100
AcDbEntity
  8
0
  6
Continuous
 62
     7
370
    15
100
AcDbLine
 10
478.9698399047
 20
290.4933299742
 30
0.0
 11
49.1698361377
 21
290.4933299742
 31
0.0
  0
ARC
  5
17B
330
1F
100
AcDbEntity
  8
0
  6
Continuous
 62
     7
370
    15
100
AcDbCircle
 10
437.8779094721
 20
648.6481539456
 30
0.0
 40
10.8262595186749
100
AcDbArc
 50
12.2725554962
 51
85.3161154992
  0
SPLINE
  5
17C
330
1F
100
AcDbEntity
  8
0
  6
Continuous
 62
     7
370
    15
100
AcDbSpline
210
0.0
220
0.0
230
1.0
 70
     8
 71
     3
 72
    16
 73
    12
 74
     0
 42
0.00000001
 43
0.00000001
 40
0.0
 40
0.0
 40
0.0
 40
0.0
 40
0.2500000000000004
 40
0.2500000000000004
 40
0.5000000000000008
 40
0.5000000000000008
 40
0.6250000000000006
 40
0.6250000000000006
 40
0.7500000000000002
 40
0.7500000000000002
 40
1.0
 40
1.0
 40
1.0
 40
1.0
 10
438.7619588196574
 20
659.4382519551898
 30
0.0
 10
439.6954110585471
 20
661.7756134298112
 30
0.0
 10
440.8803337672961
 20
664.020076347867
 30
0.0
 10
443.7696962457082
 20
668.3309146368582
 30
0.0
 10
445.4738952978825
 20
670.3973061188027
 30
0.0
 10
448.4528880881915
 20
673.3652060626371
 30
0.0
 10
449.5165700588695
 20
674.3325166399687
 30
0.0
 10
451.7943915966831
 20
676.2228843879673
 30
0.0
 10
452.9973210287907
 20
677.1364739718243
 30
0.0
 10
456.7913564820662
 20
679.7789157510216
 30
0.0
 10
459.5702961617341
 20
681.4128479478909
 30
0.0
 10
462.6136660178095
 20
682.9231742236619
 30
0.0
  0
SPLINE
  5
17D
330
1F
100
AcDbEntity
  8
0
  6
Continuous
 62
     7
370
    15
100
AcDbSpline
210
0.0
220
0.0
230
1.0
 70
     8
 71
     3
 72
    22
 73
    18
 74
     0
 42
0.00000001
 43
0.00000001
 40
0.0
 40
0.0
 40
0.0
 40
0.0
 40
0.0624999999999994
 40
0.0624999999999994
 40
0.1249999999999987
 40
0.1249999999999987
 40
0.2499999999999984
 40
0.2499999999999984
 40
0.4999999999999979
 40
0.4999999999999979
 40
0.5624999999999981
 40
0.5624999999999981
 40
0.6249999999999983
 40
0.6249999999999983
 40
0.749999999999999
 40
0.749999999999999
 40
1.0
 40
1.0
 40
1.0
 40
1.0
 10
479.4897526383847
 20
678.6046722902796
 30
0.0
 10
478.4533187374685
 20
678.2195375079849
 30
0.0
 10
477.4385664938193
 20
677.8191748892996
 30
0.0
 10
475.4652960206924
 20
676.99410085993
 30
0.0
 10
474.5047775872094
 20
676.5686692221443
 30
0.0
 10
471.6984870835263
 20
675.254143429797
 30
0.0
 10
469.9278040845941
 20
674.3268958513789
 30
0.0
 10
464.8990429879343
 20
671.3928976592059
 30
0.0
 10
461.9222869547568
 20
669.2348859837766
 30
0.0
 10
458.650150340374
 20
666.2693445866735
 30
0.0
 10
458.021205015321
 20
665.6652420927174
 30
0.0
 10
456.8192057226253
 20
664.4419041641623
 30
0.0
 10
456.245009085213
 20
663.8216402695721
 30
0.0
 10
454.5997143348722
 20
661.9352147233454
 30
0.0
 10
453.6057583896869
 20
660.6434464790145
 30
0.0
 10
450.9140555014465
 20
656.6657953346097
 30
0.0
 10
449.5047071987633
 20
653.8779300824232
 30
0.0
 10
448.4567635407
 20
650.9494038277164
 30
0.0
  0
ARC
  5
17E
330
1F
100
AcDbEntity
  8
0
  6
Continuous
 62
     7
370
    15
100
AcDbCircle
 10
90.2617665702
 20
648.6481539456
 30
0.0
 40
10.82625951867489
100
AcDbArc
 50
94.6838845008
 51
167.7274445038
  0
SPLINE
  5
17F
330
1F
100
AcDbEntity
  8
0
  6
Continuous
 62
     7
370
    15
100
AcDbSpline
210
0.0
220
0.0
230
1.0
 70
     8
 71
     3
 72
    22
 73
    18
 74
     0
 42
0.00000001
 43
0.00000001
 40
0.0
 40
0.0
 40
0.0
 40
0.0
 40
0.0625000000000004
 40
0.0625000000000004
 40
0.1250000000000009
 40
0.1250000000000009
 40
0.2500000000000008
 40
0.2500000000000008
 40
0.5000000000000006
 40
0.5000000000000006
 40
0.5625000000000006
 40
0.5625000000000006
 40
0.6250000000000006
 40
0.6250000000000006
 40
0.7500000000000006
 40
0.7500000000000006
 40
1.0
 40
1.0
 40
1.0
 40
1.0
 10
48.64992340397842
 20
678.6046722902796
 30
0.0
 10
49.68635730489457
 20
678.2195375079848
 30
0.0
 10
50.70110954854371
 20
677.8191748892995
 30
0.0
 10
52.67438002167057
 20
676.9941008599297
 30
0.0
 10
53.63489845515371
 20
676.5686692221444
 30
0.0
 10
56.4411889588367
 20
675.2541434297971
 30
0.0
 10
58.211871957769
 20
674.3268958513788
 30
0.0
 10
63.24063305442878
 20
671.3928976592059
 30
0.0
 10
66.21738908760616
 20
669.2348859837766
 30
0.0
 10
69.48952570198911
 20
666.2693445866734
 30
0.0
 10
70.11847102704196
 20
665.6652420927173
 30
0.0
 10
71.32047031973777
 20
664.4419041641622
 30
0.0
 10
71.89466695714994
 20
663.8216402695722
 30
0.0
 10
73.53996170749075
 20
661.9352147233454
 30
0.0
 10
74.53391765267617
 20
660.6434464790145
 30
0.0
 10
77.22562054091642
 20
656.6657953346097
 30
0.0
 10
78.6349688435997
 20
653.8779300824233
 30
0.0
 10
79.68291250166298
 20
650.9494038277164
 30
0.0
  0
SPLINE
  5
180
330
1F
100
AcDbEntity
  8
0
  6
Continuous
 62
     7
370
    15
100
AcDbSpline
210
0.0
220
0.0
230
1.0
 70
     8
 71
     3
 72
    16
 73
    12
 74
     0
 42
0.00000001
 43
0.00000001
 40
0.0
 40
0.0
 40
0.0
 40
0.0
 40
0.2499999999999996
 40
0.2499999999999996
 40
0.4999999999999991
 40
0.4999999999999991
 40
0.6249999999999993
 40
0.6249999999999993
 40
0.7499999999999996
 40
0.7499999999999996
 40
1.0
 40
1.0
 40
1.0
 40
1.0
 10
89.37771722270563
 20
659.4382519551898
 30
0.0
 10
88.44426498381594
 20
661.7756134298112
 30
0.0
 10
87.2593422750669
 20
664.0200763478668
 30
0.0
 10
84.36997979665468
 20
668.3309146368582
 30
0.0
 10
82.66578074448047
 20
670.3973061188027
 30
0.0
 10
79.68678795417142
 20
673.3652060626372
 30
0.0
 10
78.62310598349353
 20
674.3325166399687
 30
0.0
 10
76.34528444567998
 20
676.2228843879674
 30
0.0
 10
75.1423550135722
 20
677.1364739718244
 30
0.0
 10
71.3483195602966
 20
679.7789157510216
 30
0.0
 10
68.56937988062894
 20
681.4128479478908
 30
0.0
 10
65.52601002455341
 20
682.9231742236619
 30
0.0
  0
ARC
  5
181
330
1F
100
AcDbEntity
  8
0
  6
Continuous
 62
     7
370
    15
100
AcDbCircle
 10
437.8779094721
 20
341.8855369286
 30
0.0
 40
10.82625951867498
100
AcDbArc
 50
274.6838845008
 51
347.7274445038
  0
SPLINE
  5
182
330
1F
100
AcDbEntity
  8
0
  6
Continuous
 62
     7
370
    15
100
AcDbSpline
210
0.0
220
0.0
230
1.0
 70
     8
 71
     3
 72
    22
 73
    18
 74
     0
 42
0.00000001
 43
0.00000001
 40
0.0
 40
0.0
 40
0.0
 40
0.0
 40
0.2499999999999988
 40
0.2499999999999988
 40
0.3749999999999984
 40
0.3749999999999984
 40
0.4374999999999985
 40
0.4374999999999985
 40
0.4999999999999987
 40
0.4999999999999987
 40
0.7499999999999988
 40
0.7499999999999988
 40
0.8749999999999988
 40
0.8749999999999988
 40
0.9374999999999994
 40
0.9374999999999994
 40
1.0
 40
1.0
 40
1.0
 40
1.0
 10
448.4567635407
 20
339.5842870464674
 30
0.0
 10
449.5026632878624
 20
336.6614725938118
 30
0.0
 10
450.9085693515973
 20
333.8787729729779
 30
0.0
 10
453.5927583969745
 20
329.9080820674862
 30
0.0
 10
454.5838145422898
 20
328.6185018385893
 30
0.0
 10
456.2240939988354
 20
326.7351566132944
 30
0.0
 10
456.7965075978178
 20
326.1158858166401
 30
0.0
 10
457.9947011234148
 20
324.8944652934258
 30
0.0
 10
458.6214405506811
 20
324.2914488672072
 30
0.0
 10
461.8841194469796
 20
321.3291886776949
 30
0.0
 10
464.8579272100712
 20
319.1676710692418
 30
0.0
 10
469.8974288957006
 20
316.2230944529002
 30
0.0
 10
471.6742367928224
 20
315.2914231466233
 30
0.0
 10
474.4949418677187
 20
313.9693737372645
 30
0.0
 10
475.4628578908079
 20
313.5405889651038
 30
0.0
 10
477.4435419978292
 20
312.7124561203447
 30
0.0
 10
478.4560379714173
 20
312.3131429095029
 30
0.0
 10
479.4897526383846
 20
311.9290185839038
 30
0.0
  0
SPLINE
  5
183
330
1F
100
AcDbEntity
  8
0
  6
Continuous
 62
     7
370
    15
100
AcDbSpline
210
0.0
220
0.0
230
1.0
 70
     8
 71
     3
 72
    16
 73
    12
 74
     0
 42
0.00000001
 43
0.00000001
 40
0.0
 40
0.0
 40
0.0
 40
0.0
 40
0.2499999999999992
 40
0.2499999999999992
 40
0.3749999999999996
 40
0.3749999999999996
 40
0.4999999999999999
 40
0.4999999999999999
 40
0.75
 40
0.75
 40
1.0
 40
1.0
 40
1.0
 40
1.0
 10
462.6136660178209
 20
307.610516650516
 30
0.0
 10
459.5702961617438
 20
309.1208429262873
 30
0.0
 10
456.7913564820747
 20
310.7547751231567
 30
0.0
 10
452.9973210287972
 20
313.3972169023544
 30
0.0
 10
451.794391596689
 20
314.3108064862116
 30
0.0
 10
449.5165700588742
 20
316.2011742342106
 30
0.0
 10
448.4528880881957
 20
317.1684848115426
 30
0.0
 10
445.4738952978852
 20
320.1363847553779
 30
0.0
 10
443.7696962457103
 20
322.2027762373228
 30
0.0
 10
440.8803337672969
 20
326.5136145263155
 30
0.0
 10
439.6954110585474
 20
328.758077444372
 30
0.0
 10
438.7619588196574
 20
331.0954389189942
 30
0.0
  0
ARC
  5
184
330
1F
100
AcDbEntity
  8
0
  6
Continuous
 62
     7
370
    15
100
AcDbCircle
 10
90.2617665702
 20
341.8855369286
 30
0.0
 40
10.82625951867497
100
AcDbArc
 50
192.2725554962
 51
265.3161154992
  0
SPLINE
  5
185
330
1F
100
AcDbEntity
  8
0
  6
Continuous
 62
     7
370
    15
100
AcDbSpline
210
0.0
220
0.0
230
1.0
 70
     8
 71
     3
 72
    16
 73
    12
 74
     0
 42
0.00000001
 43
0.00000001
 40
0.0
 40
0.0
 40
0.0
 40
0.0
 40
0.2499999999999993
 40
0.2499999999999993
 40
0.3749999999999997
 40
0.3749999999999997
 40
0.5000000000000001
 40
0.5000000000000001
 40
0.75
 40
0.75
 40
1.0
 40
1.0
 40
1.0
 40
1.0
 10
65.52601002454203
 20
307.610516650516
 30
0.0
 10
68.56937988061915
 20
309.1208429262873
 30
0.0
 10
71.34831956028842
 20
310.7547751231567
 30
0.0
 10
75.1423550135658
 20
313.3972169023544
 30
0.0
 10
76.34528444567404
 20
314.3108064862116
 30
0.0
 10
78.6231059834889
 20
316.2011742342106
 30
0.0
 10
79.68678795416729
 20
317.1684848115427
 30
0.0
 10
82.66578074447773
 20
320.1363847553779
 30
0.0
 10
84.36997979665276
 20
322.2027762373228
 30
0.0
 10
87.25934227506619
 20
326.5136145263155
 30
0.0
 10
88.4442649838156
 20
328.758077444372
 30
0.0
 10
89.37771722270563
 20
331.0954389189942
 30
0.0
  0
SPLINE
  5
186
330
1F
100
AcDbEntity
  8
0
  6
Continuous
 62
     7
370
    15
100
AcDbSpline
210
0.0
220
0.0
230
1.0
 70
     8
 71
     3
 72
    22
 73
    18
 74
     0
 42
0.00000001
 43
0.00000001
 40
0.0
 40
0.0
 40
0.0
 40
0.0
 40
0.2499999999999998
 40
0.2499999999999998
 40
0.3749999999999996
 40
0.3749999999999996
 40
0.4374999999999998
 40
0.4374999999999998
 40
0.5
 40
0.5
 40
0.7500000000000004
 40
0.7500000000000004
 40
0.8750000000000007
 40
0.8750000000000007
 40
0.9375000000000002
 40
0.9375000000000002
 40
1.0
 40
1.0
 40
1.0
 40
1.0
 10
79.68291250166298
 20
339.5842870464674
 30
0.0
 10
78.63701275450069
 20
336.6614725938118
 30
0.0
 10
77.23110669076566
 20
333.8787729729777
 30
0.0
 10
74.54691764538846
 20
329.9080820674861
 30
0.0
 10
73.55586150007323
 20
328.6185018385893
 30
0.0
 10
71.91558204352776
 20
326.7351566132944
 30
0.0
 10
71.34316844454538
 20
326.1158858166399
 30
0.0
 10
70.14497491894831
 20
324.8944652934258
 30
0.0
 10
69.51823549168196
 20
324.2914488672072
 30
0.0
 10
66.25555659538333
 20
321.329188677695
 30
0.0
 10
63.28174883229193
 20
319.1676710692417
 30
0.0
 10
58.24224714666237
 20
316.2230944529002
 30
0.0
 10
56.46543924954056
 20
315.2914231466233
 30
0.0
 10
53.64473417464438
 20
313.9693737372645
 30
0.0
 10
52.67681815155517
 20
313.5405889651038
 30
0.0
 10
50.69613404453369
 20
312.7124561203446
 30
0.0
 10
49.68363807094553
 20
312.3131429095027
 30
0.0
 10
48.64992340397848
 20
311.9290185839039
 30
0.0
  0
LINE
  5
187
330
1F
100
AcDbEntity
  8
0
  6
Continuous
 62
     7
370
    15
100
AcDbLine
 10
448.4567619304
 20
650.9494092188
 30
0.0
 11
448.4567619304
 21
339.5842816554
 31
0.0
  0
LINE
  5
188
330
1F
100
AcDbEntity
  8
0
  6
Continuous
 62
     7
370
    15
100
AcDbLine
 10
79.682914112
 20
650.9494092188
 30
0.0
 11
79.682914112
 21
339.5842816554
 31
0.0
  0
SPLINE
  5
1A9
330
1F
100
AcDbEntity
  8
0
  6
Continuous
 62
     7
370
    15
100
AcDbSpline
210
0.0
220
0.0
230
1.0
 70
     8
 71
     3
 72
    18
 73
    14
 74
     0
 42
0.00000001
 43
0.00000001
 40
0.0
 40
0.0
 40
0.0
 40
0.0
 40
0.2500000000000001
 40
0.2500000000000001
 40
0.5000000000000001
 40
0.5000000000000001
 40
0.6250000000000023
 40
0.6250000000000023
 40
0.6875000000000021
 40
0.6875000000000021
 40
0.750000000000002
 40
0.750000000000002
 40
1.0
 40
1.0
 40
1.0
 40
1.0
 10
89.3777172227056
 20
331.0954389189941
 30
0.0
 10
89.6983625699268
 20
331.8983338614316
 30
0.0
 10
90.14137147026024
 20
332.6864772146686
 30
0.0
 10
91.2839877835189
 20
334.2299123310552
 30
0.0
 10
91.974056424528
 20
334.9719144979141
 30
0.0
 10
93.19350943302423
 20
336.0309562176485
 30
0.0
 10
93.63112961508321
 20
336.3751585029011
 30
0.0
 10
94.3380182801728
 20
336.8768461958766
 30
0.0
 10
94.58215999401403
 20
337.0416306553304
 30
0.0
 10
95.08287316748978
 20
337.3627735913618
 30
0.0
 10
95.34002283850052
 20
337.5195574211878
 30
0.0
 10
96.66029086567495
 20
338.2840814650008
 30
0.0
 10
97.82535204655154
 20
338.8345799444026
 30
0.0
 10
99.11797810951278
 20
339.3113653775591
 30
0.0
  0
SPLINE
  5
1AA
330
1F
100
AcDbEntity
  8
0
  6
Continuous
 62
     7
370
    15
100
AcDbSpline
210
0.0
220
0.0
230
1.0
 70
     8
 71
     3
 72
    10
 73
     6
 74
     0
 42
0.00000001
 43
0.00000001
 40
0.0
 40
0.0
 40
0.0
 40
0.0
 40
0.4999999999999993
 40
0.4999999999999993
 40
1.0
 40
1.0
 40
1.0
 40
1.0
 10
99.11797810951278
 20
339.3113653775591
 30
0.0
 10
100.3613123631325
 20
339.769969515025
 30
0.0
 10
101.4916642544267
 20
340.303043205614
 30
0.0
 10
103.5523885256215
 20
341.5042819287607
 30
0.0
 10
104.4620111626761
 20
342.1606970159751
 30
0.0
 10
105.2624896759287
 20
342.866845437092
 30
0.0
  0
SPLINE
  5
1AC
330
1F
100
AcDbEntity
  8
0
  6
Continuous
 62
     7
370
    15
100
AcDbSpline
210
0.0
220
0.0
230
1.0
 70
     8
 71
     3
 72
    10
 73
     6
 74
     0
 42
0.00000001
 43
0.00000001
 40
0.0
 40
0.0
 40
0.0
 40
0.0
 40
0.4999999999999993
 40
0.4999999999999993
 40
1.0
 40
1.0
 40
1.0
 40
1.0
 10
429.0216979328502
 20
339.3113653775591
 30
0.0
 10
427.7783636792305
 20
339.769969515025
 30
0.0
 10
426.6480117879363
 20
340.303043205614
 30
0.0
 10
424.5872875167415
 20
341.5042819287607
 30
0.0
 10
423.677664879687
 20
342.1606970159751
 30
0.0
 10
422.8771863664343
 20
342.866845437092
 30
0.0
  0
SPLINE
  5
1AD
330
1F
100
AcDbEntity
  8
0
  6
Continuous
 62
     7
370
    15
100
AcDbSpline
210
0.0
220
0.0
230
1.0
 70
     8
 71
     3
 72
    18
 73
    14
 74
     0
 42
0.00000001
 43
0.00000001
 40
0.0
 40
0.0
 40
0.0
 40
0.0
 40
0.2500000000000001
 40
0.2500000000000001
 40
0.5000000000000001
 40
0.5000000000000001
 40
0.6250000000000023
 40
0.6250000000000023
 40
0.6875000000000021
 40
0.6875000000000021
 40
0.750000000000002
 40
0.750000000000002
 40
1.0
 40
1.0
 40
1.0
 40
1.0
 10
438.7619588196574
 20
331.0954389189941
 30
0.0
 10
438.4413134724362
 20
331.8983338614316
 30
0.0
 10
437.9983045721028
 20
332.6864772146686
 30
0.0
 10
436.8556882588441
 20
334.2299123310552
 30
0.0
 10
436.165619617835
 20
334.9719144979141
 30
0.0
 10
434.9461666093388
 20
336.0309562176485
 30
0.0
 10
434.5085464272798
 20
336.3751585029011
 30
0.0
 10
433.8016577621902
 20
336.8768461958766
 30
0.0
 10
433.557516048349
 20
337.0416306553304
 30
0.0
 10
433.0568028748733
 20
337.3627735913618
 30
0.0
 10
432.7996532038625
 20
337.5195574211878
 30
0.0
 10
431.479385176688
 20
338.2840814650008
 30
0.0
 10
430.3143239958115
 20
338.8345799444026
 30
0.0
 10
429.0216979328502
 20
339.3113653775591
 30
0.0
  0
SPLINE
  5
1AE
330
1F
100
AcDbEntity
  8
0
  6
Continuous
 62
     7
370
    15
100
AcDbSpline
210
0.0
220
0.0
230
1.0
 70
     8
 71
     3
 72
    20
 73
    16
 74
     0
 42
0.00000001
 43
0.00000001
 40
0.0
 40
0.0
 40
0.0
 40
0.0
 40
0.1250000000000031
 40
0.1250000000000031
 40
0.2500000000000062
 40
0.2500000000000062
 40
0.5000000000000105
 40
0.5000000000000105
 40
0.5625000000000099
 40
0.5625000000000099
 40
0.6250000000000092
 40
0.6250000000000092
 40
0.7500000000000056
 40
0.7500000000000056
 40
1.0
 40
1.0
 40
1.0
 40
1.0
 10
429.0216979328501
 20
651.2223254966249
 30
0.0
 10
429.6712978986122
 20
651.4619305997006
 30
0.0
 10
430.2943881915837
 20
651.7229852553055
 30
0.0
 10
431.4693103566979
 20
652.2737823951143
 30
0.0
 10
432.0241481874951
 20
652.5645334098302
 30
0.0
 10
433.5991968387053
 20
653.478204738789
 30
0.0
 10
434.5308582729864
 20
654.1421105769343
 30
0.0
 10
435.5575427734889
 20
655.0336749204964
 30
0.0
 10
435.7561162902707
 20
655.2153639235445
 30
0.0
 10
436.1352427756143
 20
655.5808475325692
 30
0.0
 10
436.3163631933725
 20
655.765107614399
 30
0.0
 10
436.8353477424843
 20
656.3222027578555
 30
0.0
 10
437.1489022677776
 20
656.6993386154362
 30
0.0
 10
437.9971077718604
 20
657.8466308784465
 30
0.0
 10
438.4401712770475
 20
658.6324969590861
 30
0.0
 10
438.7619588196574
 20
659.4382519551897
 30
0.0
  0
SPLINE
  5
1AF
330
1F
100
AcDbEntity
  8
0
  6
Continuous
 62
     7
370
    15
100
AcDbSpline
210
0.0
220
0.0
230
1.0
 70
     8
 71
     3
 72
    10
 73
     6
 74
     0
 42
0.00000001
 43
0.00000001
 40
0.0
 40
0.0
 40
0.0
 40
0.0
 40
0.5000000000000008
 40
0.5000000000000008
 40
1.0
 40
1.0
 40
1.0
 40
1.0
 10
422.8771863664344
 20
647.6668454370922
 30
0.0
 10
423.677664879687
 20
648.372993858209
 30
0.0
 10
424.5872875167415
 20
649.0294089454233
 30
0.0
 10
426.6480117879363
 20
650.23064766857
 30
0.0
 10
427.7783636792305
 20
650.7637213591588
 30
0.0
 10
429.0216979328501
 20
651.2223254966248
 30
0.0
  0
SPLINE
  5
1B1
330
1F
100
AcDbEntity
  8
0
  6
Continuous
 62
     7
370
    15
100
AcDbSpline
210
0.0
220
0.0
230
1.0
 70
     8
 71
     3
 72
    10
 73
     6
 74
     0
 42
0.00000001
 43
0.00000001
 40
0.0
 40
0.0
 40
0.0
 40
0.0
 40
0.5000000000000008
 40
0.5000000000000008
 40
1.0
 40
1.0
 40
1.0
 40
1.0
 10
105.2624896759286
 20
647.6668454370922
 30
0.0
 10
104.4620111626759
 20
648.372993858209
 30
0.0
 10
103.5523885256215
 20
649.0294089454233
 30
0.0
 10
101.4916642544267
 20
650.23064766857
 30
0.0
 10
100.3613123631325
 20
650.7637213591588
 30
0.0
 10
99.11797810951283
 20
651.2223254966248
 30
0.0
  0
SPLINE
  5
1B2
330
1F
100
AcDbEntity
  8
0
  6
Continuous
 62
     7
370
    15
100
AcDbSpline
210
0.0
220
0.0
230
1.0
 70
     8
 71
     3
 72
    20
 73
    16
 74
     0
 42
0.00000001
 43
0.00000001
 40
0.0
 40
0.0
 40
0.0
 40
0.0
 40
0.1250000000000031
 40
0.1250000000000031
 40
0.2500000000000062
 40
0.2500000000000062
 40
0.5000000000000105
 40
0.5000000000000105
 40
0.5625000000000099
 40
0.5625000000000099
 40
0.6250000000000092
 40
0.6250000000000092
 40
0.7500000000000056
 40
0.7500000000000056
 40
1.0
 40
1.0
 40
1.0
 40
1.0
 10
99.11797810951283
 20
651.2223254966249
 30
0.0
 10
98.46837814375078
 20
651.4619305997006
 30
0.0
 10
97.84528785077929
 20
651.7229852553055
 30
0.0
 10
96.67036568566506
 20
652.2737823951143
 30
0.0
 10
96.11552785486788
 20
652.5645334098302
 30
0.0
 10
94.54047920365768
 20
653.478204738789
 30
0.0
 10
93.60881776937654
 20
654.1421105769343
 30
0.0
 10
92.58213326887407
 20
655.0336749204964
 30
0.0
 10
92.38355975209228
 20
655.2153639235445
 30
0.0
 10
92.00443326674865
 20
655.5808475325692
 30
0.0
 10
91.82331284899054
 20
655.765107614399
 30
0.0
 10
91.30432829987863
 20
656.3222027578555
 30
0.0
 10
90.99077377458542
 20
656.6993386154362
 30
0.0
 10
90.14256827050257
 20
657.8466308784465
 30
0.0
 10
89.6995047653155
 20
658.6324969590861
 30
0.0
 10
89.3777172227056
 20
659.4382519551897
 30
0.0
  0
SPLINE
  5
1B3
330
1F
100
AcDbEntity
  8
0
  6
Continuous
 62
     7
370
    15
100
AcDbSpline
210
0.0
220
0.0
230
1.0
 70
     8
 71
     3
 72
    50
 73
    46
 74
     0
 42
0.00000001
 43
0.00000001
 40
0.0
 40
0.0
 40
0.0
 40
0.0
 40
0.0625000000000003
 40
0.0625000000000003
 40
0.0937500000000004
 40
0.0937500000000004
 40
0.1250000000000004
 40
0.1250000000000004
 40
0.1562500000000005
 40
0.1562500000000005
 40
0.1875000000000006
 40
0.1875000000000006
 40
0.2500000000000007
 40
0.2500000000000007
 40
0.2812500000000008
 40
0.2812500000000008
 40
0.312500000000001
 40
0.312500000000001
 40
0.3750000000000013
 40
0.3750000000000013
 40
0.4375000000000017
 40
0.4375000000000017
 40
0.500000000000002
 40
0.500000000000002
 40
0.5625000000000023
 40
0.5625000000000023
 40
0.6250000000000027
 40
0.6250000000000027
 40
0.687500000000003
 40
0.687500000000003
 40
0.7500000000000033
 40
0.7500000000000033
 40
0.7812500000000029
 40
0.7812500000000029
 40
0.8125000000000024
 40
0.8125000000000024
 40
0.8437500000000019
 40
0.8437500000000019
 40
0.8750000000000014
 40
0.8750000000000014
 40
0.9375000000000006
 40
0.9375000000000006
 40
0.9687500000000002
 40
0.9687500000000002
 40
1.0
 40
1.0
 40
1.0
 40
1.0
 10
282.5698380211815
 20
670.6217891415578
 30
0.0
 10
283.2493220221358
 20
670.6217891415577
 30
0.0
 10
283.9143304805489
 20
670.5807015370725
 30
0.0
 10
284.8913626339023
 20
670.4608132503851
 30
0.0
 10
285.2149341071366
 20
670.4107929517438
 30
0.0
 10
285.8490152537428
 20
670.291832998794
 30
0.0
 10
286.1563304222885
 20
670.2235935645061
 30
0.0
 10
286.7526793257427
 20
670.0705856385607
 30
0.0
 10
287.0417082895401
 20
669.9858129180951
 30
0.0
 10
287.6019894088919
 20
669.8001206706907
 30
0.0
 10
287.8746128389285
 20
669.6985992069635
 30
0.0
 10
288.6544698266832
 20
669.3744796222721
 30
0.0
 10
289.1227889524907
 20
669.1337097184788
 30
0.0
 10
289.7549951351054
 20
668.7384405662076
 30
0.0
 10
289.9547415944019
 20
668.6002842963319
 30
0.0
 10
290.3261071804004
 20
668.31612012707
 30
0.0
 10
290.4976333404169
 20
668.1703560022344
 30
0.0
 10
290.9721611520161
 20
667.7225421564162
 30
0.0
 10
291.2354401852189
 20
667.410053433
 30
0.0
 10
291.6594661084775
 20
666.7576739324894
 30
0.0
 10
291.8154895264182
 20
666.4247164143718
 30
0.0
 10
292.0218571156276
 20
665.7497960848573
 30
0.0
 10
292.0725617043691
 20
665.4063992411832
 30
0.0
 10
292.0668897895439
 20
664.7122384243802
 30
0.0
 10
292.0108228560759
 20
664.3686770717538
 30
0.0
 10
291.7954236208128
 20
663.688469737453
 30
0.0
 10
291.6361317315293
 20
663.3518194842356
 30
0.0
 10
291.2066339472353
 20
662.6862315837383
 30
0.0
 10
290.9410522942468
 20
662.3650487825912
 30
0.0
 10
290.311768418779
 20
661.7525732768737
 30
0.0
 10
289.9475488346277
 20
661.4602538981424
 30
0.0
 10
289.3177539422758
 20
661.0456675323678
 30
0.0
 10
289.0932263107659
 20
660.9113348816915
 30
0.0
 10
288.6248819906004
 20
660.6574487077461
 30
0.0
 10
288.3799457059955
 20
660.5370875798808
 30
0.0
 10
287.8678573519913
 20
660.3100337896085
 30
0.0
 10
287.6007107892318
 20
660.2033375994016
 30
0.0
 10
287.0427645879902
 20
660.0045816124093
 30
0.0
 10
286.7499667737848
 20
659.9120415374654
 30
0.0
 10
285.8541839089611
 20
659.664274955261
 30
0.0
 10
285.2312490173007
 20
659.5369512198795
 30
0.0
 10
284.2561973580518
 20
659.4060886113438
 30
0.0
 10
283.9227982832348
 20
659.372471186932
 30
0.0
 10
283.2486956120507
 20
659.3275223808384
 30
0.0
 10
282.9100651682673
 20
659.3162200363148
 30
0.0
 10
282.5698380211815
 20
659.3162200363148
 30
0.0
  0
LINE
  5
1B4
330
1F
100
AcDbEntity
  8
0
  6
Continuous
 62
     7
370
    15
100
AcDbLine
 10
245.5698377828
 20
670.6217881165
 30
0.0
 11
282.5698382596
 21
670.6217881165
 31
0.0
  0
SPLINE
  5
1B5
330
1F
100
AcDbEntity
  8
0
  6
Continuous
 62
     7
370
    15
100
AcDbSpline
210
0.0
220
0.0
230
1.0
 70
     8
 71
     3
 72
    52
 73
    48
 74
     0
 42
0.00000001
 43
0.00000001
 40
0.0
 40
0.0
 40
0.0
 40
0.0
 40
0.0625000000000005
 40
0.0625000000000005
 40
0.0937500000000006
 40
0.0937500000000006
 40
0.1250000000000007
 40
0.1250000000000007
 40
0.1562500000000008
 40
0.1562500000000008
 40
0.1875000000000009
 40
0.1875000000000009
 40
0.2500000000000007
 40
0.2500000000000007
 40
0.2812499999999999
 40
0.2812499999999999
 40
0.312499999999999
 40
0.312499999999999
 40
0.3749999999999992
 40
0.3749999999999992
 40
0.4374999999999994
 40
0.4374999999999994
 40
0.4999999999999996
 40
0.4999999999999996
 40
0.5624999999999998
 40
0.5624999999999998
 40
0.6249999999999999
 40
0.6249999999999999
 40
0.6562499999999999
 40
0.6562499999999999
 40
0.6874999999999998
 40
0.6874999999999998
 40
0.75
 40
0.75
 40
0.7812500000000001
 40
0.7812500000000001
 40
0.8125000000000001
 40
0.8125000000000001
 40
0.8750000000000003
 40
0.8750000000000003
 40
0.9062500000000002
 40
0.9062500000000002
 40
0.9375000000000001
 40
0.9375000000000001
 40
0.9687500000000001
 40
0.9687500000000001
 40
1.0
 40
1.0
 40
1.0
 40
1.0
 10
245.5698380211815
 20
659.3162200363149
 30
0.0
 10
244.8898892058804
 20
659.3162200363149
 30
0.0
 10
244.2248752085219
 20
659.3609771120831
 30
0.0
 10
243.2483762025784
 20
659.490984913974
 30
0.0
 10
242.9247999515958
 20
659.5452312229817
 30
0.0
 10
242.2924113888929
 20
659.6736118368972
 30
0.0
 10
241.9860600307778
 20
659.7471109788682
 30
0.0
 10
241.3917677150714
 20
659.9114567888834
 30
0.0
 10
241.1038318861887
 20
660.0023083716475
 30
0.0
 10
240.5457756459988
 20
660.2007242057481
 30
0.0
 10
240.2743067374716
 20
660.308938895616
 30
0.0
 10
239.4995115010315
 20
660.6524489288545
 30
0.0
 10
239.0338194303477
 20
660.906356939008
 30
0.0
 10
238.4042498736278
 20
661.3205273565827
 30
0.0
 10
238.2052172429382
 20
661.4648625513471
 30
0.0
 10
237.8355293446215
 20
661.7601315393878
 30
0.0
 10
237.6644637783844
 20
661.9112017521063
 30
0.0
 10
237.1903293998283
 20
662.3740508918643
 30
0.0
 10
236.9259953378462
 20
662.6953837987485
 30
0.0
 10
236.4978853268562
 20
663.3624103501165
 30
0.0
 10
236.33924615074
 20
663.7001840345876
 30
0.0
 10
236.1258993783609
 20
664.3822545765819
 30
0.0
 10
236.0711051148665
 20
664.7274500032263
 30
0.0
 10
236.0686141751708
 20
665.4220279539003
 30
0.0
 10
236.1207336637703
 20
665.7638795765348
 30
0.0
 10
236.3294040946435
 20
666.4370473715537
 30
0.0
 10
236.4859056039332
 20
666.7683668131408
 30
0.0
 10
236.805426978976
 20
667.2570210398081
 30
0.0
 10
236.9255974789446
 20
667.4174469195808
 30
0.0
 10
237.1903063076724
 20
667.7293335628327
 30
0.0
 10
237.3352429675957
 20
667.8814235581286
 30
0.0
 10
237.8083521751514
 20
668.3260584324394
 30
0.0
 10
238.1743827474471
 20
668.607094730314
 30
0.0
 10
238.8084046873274
 20
669.0032929623665
 30
0.0
 10
239.0347397002023
 20
669.1312992989021
 30
0.0
 10
239.5057522470069
 20
669.3718816435776
 30
0.0
 10
239.7516817913685
 20
669.4853211849901
 30
0.0
 10
240.5212351314528
 20
669.8048851392882
 30
0.0
 10
241.0761981875459
 20
669.9905306395533
 30
0.0
 10
241.9799825474163
 20
670.2228842042138
 30
0.0
 10
242.290733813849
 20
670.2917841835554
 30
0.0
 10
242.9190440587763
 20
670.409785931605
 30
0.0
 10
243.2383797848404
 20
670.4593595667523
 30
0.0
 10
243.8875362321401
 20
670.5394770222385
 30
0.0
 10
244.2173551894117
 20
670.5700240235219
 30
0.0
 10
244.8879664182244
 20
670.6112344185495
 30
0.0
 10
245.2292766919721
 20
670.6217891415578
 30
0.0
 10
245.5698380211815
 20
670.6217891415578
 30
0.0
  0
LINE
  5
1B6
330
1F
100
AcDbEntity
  8
0
  6
Continuous
 62
     7
370
    15
100
AcDbLine
 10
282.5698382596
 20
659.3162175141
 30
0.0
 11
245.5698377828
 21
659.3162175141
 31
0.0
  0
SPLINE
  5
1B9
330
1F
100
AcDbEntity
  8
0
  6
Continuous
 62
     7
370
    15
100
AcDbSpline
210
0.0
220
0.0
230
1.0
 70
     8
 71
     3
 72
    20
 73
    16
 74
     0
 42
0.00000001
 43
0.00000001
 40
0.0
 40
0.0
 40
0.0
 40
0.0
 40
0.2499999999999984
 40
0.2499999999999984
 40
0.3749999999999968
 40
0.3749999999999968
 40
0.4374999999999973
 40
0.4374999999999973
 40
0.4999999999999978
 40
0.4999999999999978
 40
0.7499999999999984
 40
0.7499999999999984
 40
0.8749999999999992
 40
0.8749999999999992
 40
1.0
 40
1.0
 40
1.0
 40
1.0
 10
448.4567635407001
 20
650.9494038277164
 30
0.0
 10
447.9616188172006
 20
650.1366192818923
 30
0.0
 10
447.2778050222979
 20
649.3488380020416
 30
0.0
 10
445.9755470911046
 20
648.2055198444294
 30
0.0
 10
445.4950213626323
 20
647.8308616947364
 30
0.0
 10
444.70208818222
 20
647.2791929054466
 30
0.0
 10
444.4257292660773
 20
647.0970270358489
 30
0.0
 10
443.848185677171
 20
646.7363042169438
 30
0.0
 10
443.546382940383
 20
646.5574441407132
 30
0.0
 10
441.9907921645787
 20
645.6823058596393
 30
0.0
 10
440.5882643125108
 20
645.035732840916
 30
0.0
 10
438.2403649045042
 20
644.1516943306068
 30
0.0
 10
437.4162607355224
 20
643.8712810475977
 30
0.0
 10
435.6824893965911
 20
643.342371514754
 30
0.0
 10
434.780429056539
 20
643.0962661257007
 30
0.0
 10
433.8463722104892
 20
642.8704094767942
 30
0.0
  0
ARC
  5
1BA
330
1F
100
AcDbEntity
  8
0
  6
Continuous
 62
     7
370
    15
100
AcDbCircle
 10
417.0504468629
 20
638.7373663643
 30
0.0
 40
17.29696628814585
100
AcDbArc
 50
13.8243734718
 51
46.2033276283
  0
ARC
  5
1BB
330
1F
100
AcDbEntity
  8
0
  6
Continuous
 62
     7
370
    15
100
AcDbCircle
 10
111.0892291794
 20
638.7373663643
 30
0.0
 40
17.2969662881458
100
AcDbArc
 50
133.7966723717
 51
166.1756265282
  0
SPLINE
  5
1BC
330
1F
100
AcDbEntity
  8
0
  6
Continuous
 62
     7
370
    15
100
AcDbSpline
210
0.0
220
0.0
230
1.0
 70
     8
 71
     3
 72
    20
 73
    16
 74
     0
 42
0.00000001
 43
0.00000001
 40
0.0
 40
0.0
 40
0.0
 40
0.0
 40
0.2499999999999984
 40
0.2499999999999984
 40
0.3749999999999968
 40
0.3749999999999968
 40
0.4374999999999973
 40
0.4374999999999973
 40
0.4999999999999978
 40
0.4999999999999978
 40
0.7499999999999984
 40
0.7499999999999984
 40
0.8749999999999992
 40
0.8749999999999992
 40
1.0
 40
1.0
 40
1.0
 40
1.0
 10
79.68291250166295
 20
650.9494038277164
 30
0.0
 10
80.17805722516236
 20
650.1366192818923
 30
0.0
 10
80.8618710200651
 20
649.3488380020416
 30
0.0
 10
82.1641289512584
 20
648.2055198444294
 30
0.0
 10
82.64465467973073
 20
647.8308616947364
 30
0.0
 10
83.437587860143
 20
647.2791929054466
 30
0.0
 10
83.71394677628568
 20
647.0970270358489
 30
0.0
 10
84.29149036519196
 20
646.7363042169438
 30
0.0
 10
84.59329310198
 20
646.5574441407132
 30
0.0
 10
86.14888387778427
 20
645.6823058596393
 30
0.0
 10
87.55141172985226
 20
645.035732840916
 30
0.0
 10
89.89931113785882
 20
644.1516943306068
 30
0.0
 10
90.72341530684058
 20
643.8712810475977
 30
0.0
 10
92.45718664577193
 20
643.342371514754
 30
0.0
 10
93.35924698582404
 20
643.0962661257007
 30
0.0
 10
94.29330383187381
 20
642.8704094767942
 30
0.0
  0
SPLINE
  5
1BD
330
1F
100
AcDbEntity
  8
0
  6
Continuous
 62
     7
370
    15
100
AcDbSpline
210
0.0
220
0.0
230
1.0
 70
     8
 71
     3
 72
    20
 73
    16
 74
     0
 42
0.00000001
 43
0.00000001
 40
0.0
 40
0.0
 40
0.0
 40
0.0
 40
0.1249999999999995
 40
0.1249999999999995
 40
0.2499999999999991
 40
0.2499999999999991
 40
0.3124999999999988
 40
0.3124999999999988
 40
0.3749999999999986
 40
0.3749999999999986
 40
0.499999999999999
 40
0.499999999999999
 40
0.7499999999999994
 40
0.7499999999999994
 40
1.0
 40
1.0
 40
1.0
 40
1.0
 10
94.29330383187379
 20
347.6632813973897
 30
0.0
 10
93.36168505176248
 20
347.4380142772737
 30
0.0
 10
92.46528534558828
 20
347.1933931526727
 30
0.0
 10
90.75086732410855
 20
346.6711730966201
 30
0.0
 10
89.93093512549211
 20
346.3931086897421
 30
0.0
 10
88.75541450324853
 20
345.951667642309
 30
0.0
 10
88.3726569220884
 20
345.8004542803557
 30
0.0
 10
87.6252789521037
 20
345.4899735267747
 30
0.0
 10
87.25988096662051
 20
345.3303433341975
 30
0.0
 10
86.19684554575693
 20
344.8420755042322
 30
0.0
 10
85.53509872674871
 20
344.5055630295824
 30
0.0
 10
83.68350056686094
 20
343.4654444265206
 30
0.0
 10
82.62550614822372
 20
342.7311704560199
 30
0.0
 10
80.86244276747188
 20
341.1873893626114
 30
0.0
 10
80.17690789699336
 20
340.3951849596981
 30
0.0
 10
79.68291250166295
 20
339.5842870464675
 30
0.0
  0
LINE
  5
1BE
330
1F
100
AcDbEntity
  8
0
  6
Continuous
 62
     7
370
    15
100
AcDbLine
 10
94.2933089475
 20
642.870416852
 30
0.0
 11
94.2933089475
 21
347.6632740221
 31
0.0
  0
SPLINE
  5
1BF
330
1F
100
AcDbEntity
  8
0
  6
Continuous
 62
     7
370
    15
100
AcDbSpline
210
0.0
220
0.0
230
1.0
 70
     8
 71
     3
 72
    20
 73
    16
 74
     0
 42
0.00000001
 43
0.00000001
 40
0.0
 40
0.0
 40
0.0
 40
0.0
 40
0.1249999999999995
 40
0.1249999999999995
 40
0.2499999999999991
 40
0.2499999999999991
 40
0.3124999999999988
 40
0.3124999999999988
 40
0.3749999999999986
 40
0.3749999999999986
 40
0.499999999999999
 40
0.499999999999999
 40
0.7499999999999994
 40
0.7499999999999994
 40
1.0
 40
1.0
 40
1.0
 40
1.0
 10
433.8463722104892
 20
347.6632813973897
 30
0.0
 10
434.7779909906005
 20
347.4380142772737
 30
0.0
 10
435.6743906967747
 20
347.1933931526727
 30
0.0
 10
437.3888087182545
 20
346.6711730966201
 30
0.0
 10
438.2087409168709
 20
346.3931086897421
 30
0.0
 10
439.3842615391144
 20
345.951667642309
 30
0.0
 10
439.7670191202746
 20
345.8004542803557
 30
0.0
 10
440.5143970902593
 20
345.4899735267747
 30
0.0
 10
440.8797950757425
 20
345.3303433341975
 30
0.0
 10
441.9428304966061
 20
344.8420755042322
 30
0.0
 10
442.6045773156143
 20
344.5055630295824
 30
0.0
 10
444.4561754755021
 20
343.4654444265206
 30
0.0
 10
445.5141698941393
 20
342.7311704560199
 30
0.0
 10
447.2772332748911
 20
341.1873893626114
 30
0.0
 10
447.9627681453696
 20
340.3951849596981
 30
0.0
 10
448.4567635407001
 20
339.5842870464675
 30
0.0
  0
LINE
  5
1C0
330
1F
100
AcDbEntity
  8
0
  6
Continuous
 62
     7
370
    15
100
AcDbLine
 10
433.8463670949
 20
642.870416852
 30
0.0
 11
433.8463670949
 21
347.6632740221
 31
0.0
  0
ARC
  5
1C1
330
1F
100
AcDbEntity
  8
0
  6
Continuous
 62
     7
370
    15
100
AcDbCircle
 10
111.0892291794
 20
351.7963245099
 30
0.0
 40
17.29696628814576
100
AcDbArc
 50
193.8243734718
 51
226.2033276283
  0
ARC
  5
1C2
330
1F
100
AcDbEntity
  8
0
  6
Continuous
 62
     7
370
    15
100
AcDbCircle
 10
417.0504468629
 20
351.7963245099
 30
0.0
 40
17.29696628814582
100
AcDbArc
 50
313.7966723717
 51
346.1756265282
  0
LINE
  5
1C3
330
1F
100
AcDbEntity
  8
0
  6
Continuous
 62
     7
370
    15
100
AcDbLine
 10
245.5698377828
 20
661.862259718
 30
0.0
 11
282.5698382596
 21
661.862259718
 31
0.0
  0
SPLINE
  5
1C4
330
1F
100
AcDbEntity
  8
0
  6
Continuous
 62
     7
370
    15
100
AcDbSpline
210
0.0
220
0.0
230
1.0
 70
     8
 71
     3
 72
    10
 73
     6
 74
     0
 42
0.00000001
 43
0.00000001
 40
0.0
 40
0.0
 40
0.0
 40
0.0
 40
0.5
 40
0.5
 40
1.0
 40
1.0
 40
1.0
 40
1.0
 10
433.8463722104892
 20
642.8704094767943
 30
0.0
 10
433.1806317440092
 20
642.38747769988
 30
0.0
 10
432.6055275316158
 20
641.8408258112929
 30
0.0
 10
431.5861771917315
 20
640.6565389129896
 30
0.0
 10
431.1516098497489
 20
640.029104712964
 30
0.0
 10
430.7741164272813
 20
639.3741874182538
 30
0.0
  0
SPLINE
  5
1C7
330
1F
100
AcDbEntity
  8
0
  6
Continuous
 62
     7
370
    15
100
AcDbSpline
210
0.0
220
0.0
230
1.0
 70
     8
 71
     3
 72
    10
 73
     6
 74
     0
 42
0.00000001
 43
0.00000001
 40
0.0
 40
0.0
 40
0.0
 40
0.0
 40
0.5
 40
0.5
 40
1.0
 40
1.0
 40
1.0
 40
1.0
 10
94.29330383187381
 20
642.8704094767943
 30
0.0
 10
94.95904429835383
 20
642.38747769988
 30
0.0
 10
95.53414851074719
 20
641.8408258112929
 30
0.0
 10
96.55349885063144
 20
640.6565389129896
 30
0.0
 10
96.9880661926141
 20
640.029104712964
 30
0.0
 10
97.36555961508166
 20
639.3741874182538
 30
0.0
  0
SPLINE
  5
1C8
330
1F
100
AcDbEntity
  8
0
  6
Continuous
 62
     7
370
    15
100
AcDbSpline
210
0.0
220
0.0
230
1.0
 70
     8
 71
     3
 72
    10
 73
     6
 74
     0
 42
0.00000001
 43
0.00000001
 40
0.0
 40
0.0
 40
0.0
 40
0.0
 40
0.5
 40
0.5
 40
1.0
 40
1.0
 40
1.0
 40
1.0
 10
433.8463722104892
 20
347.6632813973897
 30
0.0
 10
433.1806317440092
 20
348.146213174304
 30
0.0
 10
432.6055275316158
 20
348.6928650628911
 30
0.0
 10
431.5861771917315
 20
349.8771519611944
 30
0.0
 10
431.1516098497489
 20
350.5045861612201
 30
0.0
 10
430.7741164272812
 20
351.1595034559303
 30
0.0
  0
SPLINE
  5
1CA
330
1F
100
AcDbEntity
  8
0
  6
Continuous
 62
     7
370
    15
100
AcDbSpline
210
0.0
220
0.0
230
1.0
 70
     8
 71
     3
 72
    10
 73
     6
 74
     0
 42
0.00000001
 43
0.00000001
 40
0.0
 40
0.0
 40
0.0
 40
0.0
 40
0.5
 40
0.5
 40
1.0
 40
1.0
 40
1.0
 40
1.0
 10
94.29330383187379
 20
347.6632813973897
 30
0.0
 10
94.95904429835383
 20
348.146213174304
 30
0.0
 10
95.53414851074719
 20
348.6928650628911
 30
0.0
 10
96.5534988506315
 20
349.8771519611944
 30
0.0
 10
96.98806619261416
 20
350.5045861612201
 30
0.0
 10
97.36555961508172
 20
351.1595034559303
 30
0.0
  0
SPLINE
  5
1CC
330
1F
100
AcDbEntity
  8
0
  6
Continuous
 62
     7
370
    15
100
AcDbSpline
210
0.0
220
0.0
230
1.0
 70
     8
 71
     3
 72
    12
 73
     8
 74
     0
 42
0.00000001
 43
0.00000001
 40
0.0
 40
0.0
 40
0.0
 40
0.0
 40
0.500000000000004
 40
0.500000000000004
 40
0.750000000000002
 40
0.750000000000002
 40
1.0
 40
1.0
 40
1.0
 40
1.0
 10
99.35778699133405
 20
357.7537923317107
 30
0.0
 10
99.24125074870504
 20
356.5967648706933
 30
0.0
 10
99.03262079113517
 20
355.4657019473286
 30
0.0
 10
98.55102208804858
 20
353.8128550147538
 30
0.0
 10
98.36211382826302
 20
353.2692420951813
 30
0.0
 10
97.91693763855747
 20
352.1984027669192
 30
0.0
 10
97.66010743840734
 20
351.6705175614323
 30
0.0
 10
97.36555961508175
 20
351.1595034559303
 30
0.0
  0
SPLINE
  5
1CD
330
1F
100
AcDbEntity
  8
0
  6
Continuous
 62
     7
370
    15
100
AcDbSpline
210
0.0
220
0.0
230
1.0
 70
     8
 71
     3
 72
    12
 73
     8
 74
     0
 42
0.00000001
 43
0.00000001
 40
0.0
 40
0.0
 40
0.0
 40
0.0
 40
0.2499999999999993
 40
0.2499999999999993
 40
0.4999999999999987
 40
0.4999999999999987
 40
1.0
 40
1.0
 40
1.0
 40
1.0
 10
97.3655596150817
 20
639.3741874182538
 30
0.0
 10
97.66010743840734
 20
638.8631733127517
 30
0.0
 10
97.91693763855753
 20
638.3352881072648
 30
0.0
 10
98.36211382826296
 20
637.2644487790027
 30
0.0
 10
98.55102208804853
 20
636.7208358594303
 30
0.0
 10
99.03262079113512
 20
635.0679889268554
 30
0.0
 10
99.24125074870504
 20
633.9369260034907
 30
0.0
 10
99.35778699133408
 20
632.7798985424733
 30
0.0
  0
LINE
  5
1CE
330
1F
100
AcDbEntity
  8
0
  6
Continuous
 62
     7
370
    15
100
AcDbLine
 10
99.3577815036
 20
357.7537890397
 30
0.0
 11
99.3577815036
 21
632.7799018345
 31
0.0
  0
SPLINE
  5
1CF
330
1F
100
AcDbEntity
  8
0
  6
Continuous
 62
     7
370
    15
100
AcDbSpline
210
0.0
220
0.0
230
1.0
 70
     8
 71
     3
 72
    12
 73
     8
 74
     0
 42
0.00000001
 43
0.00000001
 40
0.0
 40
0.0
 40
0.0
 40
0.0
 40
0.2499999999999993
 40
0.2499999999999993
 40
0.4999999999999987
 40
0.4999999999999987
 40
1.0
 40
1.0
 40
1.0
 40
1.0
 10
430.7741164272813
 20
639.3741874182538
 30
0.0
 10
430.4795686039557
 20
638.8631733127517
 30
0.0
 10
430.2227384038055
 20
638.3352881072648
 30
0.0
 10
429.7775622141
 20
637.2644487790027
 30
0.0
 10
429.5886539543145
 20
636.7208358594303
 30
0.0
 10
429.1070552512279
 20
635.0679889268554
 30
0.0
 10
428.898425293658
 20
633.9369260034907
 30
0.0
 10
428.7818890510289
 20
632.7798985424733
 30
0.0
  0
SPLINE
  5
1D0
330
1F
100
AcDbEntity
  8
0
  6
Continuous
 62
     7
370
    15
100
AcDbSpline
210
0.0
220
0.0
230
1.0
 70
     8
 71
     3
 72
    12
 73
     8
 74
     0
 42
0.00000001
 43
0.00000001
 40
0.0
 40
0.0
 40
0.0
 40
0.0
 40
0.500000000000004
 40
0.500000000000004
 40
0.750000000000002
 40
0.750000000000002
 40
1.0
 40
1.0
 40
1.0
 40
1.0
 10
428.781889051029
 20
357.7537923317107
 30
0.0
 10
428.898425293658
 20
356.5967648706933
 30
0.0
 10
429.1070552512278
 20
355.4657019473286
 30
0.0
 10
429.5886539543145
 20
353.8128550147538
 30
0.0
 10
429.7775622141
 20
353.2692420951813
 30
0.0
 10
430.2227384038055
 20
352.1984027669192
 30
0.0
 10
430.4795686039557
 20
351.6705175614323
 30
0.0
 10
430.7741164272812
 20
351.1595034559303
 30
0.0
  0
LINE
  5
1D1
330
1F
100
AcDbEntity
  8
0
  6
Continuous
 62
     7
370
    15
100
AcDbLine
 10
428.7818945388
 20
357.7537890397
 30
0.0
 11
428.7818945388
 21
632.7799018345
 31
0.0
  0
LWPOLYLINE
  5
1D2
330
1F
100
AcDbEntity
  8
0
  6
Continuous
 62
     7
370
    15
100
AcDbPolyline
 90
        9
 70
   128
 43
0.0
 10
109.2469371299
 20
640.7977994404
 10
107.4182815293
 20
640.5290569983
 10
105.6521959046
 20
639.995178195
 10
104.0091193656
 20
639.214402052
 10
102.5452590922
 20
638.2134612523
 10
101.3107127885
 20
637.0265986643
 10
100.3477252463
 20
635.6944348536
 10
99.689228032
 20
634.2625226698
 10
99.3577815036
 20
632.7799018345
  0
SPLINE
  5
1D3
330
1F
100
AcDbEntity
  8
0
  6
Continuous
 62
     7
370
    15
100
AcDbSpline
210
0.0
220
0.0
230
1.0
 70
     8
 71
     3
 72
    14
 73
    10
 74
     0
 42
0.00000001
 43
0.00000001
 40
0.0
 40
0.0
 40
0.0
 40
0.0
 40
0.5000000000000018
 40
0.5000000000000018
 40
0.7500000000000013
 40
0.7500000000000013
 40
0.8750000000000007
 40
0.8750000000000007
 40
1.0
 40
1.0
 40
1.0
 40
1.0
 10
109.2469444284333
 20
640.7977945248208
 30
0.0
 10
109.003412925468
 20
642.057115901824
 30
0.0
 10
108.5633757864572
 20
643.2600018429138
 30
0.0
 10
107.5838387151651
 20
644.9808460783703
 30
0.0
 10
107.2035800281547
 20
645.540459736102
 30
0.0
 10
106.5432993595916
 20
646.3580259723551
 30
0.0
 10
106.3075859936119
 20
646.627494687322
 30
0.0
 10
105.8068414123569
 20
647.1556801198985
 30
0.0
 10
105.5421617491388
 20
647.4141339731696
 30
0.0
 10
105.2624896759286
 20
647.6668454370922
 30
0.0
  0
LWPOLYLINE
  5
1D4
330
1F
100
AcDbEntity
  8
0
  6
Continuous
 62
     7
370
    15
100
AcDbPolyline
 90
        9
 70
   128
 43
0.0
 10
418.8927389125
 20
640.7977994404
 10
420.721394513
 20
640.5290569983
 10
422.4874801377
 20
639.995178195
 10
424.1305566768
 20
639.214402052
 10
425.5944169501
 20
638.2134612523
 10
426.8289632539
 20
637.0265986643
 10
427.791950796
 20
635.6944348536
 10
428.4504480103
 20
634.2625226698
 10
428.7818945388
 20
632.7799018345
  0
SPLINE
  5
1D5
330
1F
100
AcDbEntity
  8
0
  6
Continuous
 62
     7
370
    15
100
AcDbSpline
210
0.0
220
0.0
230
1.0
 70
     8
 71
     3
 72
    14
 73
    10
 74
     0
 42
0.00000001
 43
0.00000001
 40
0.0
 40
0.0
 40
0.0
 40
0.0
 40
0.5000000000000018
 40
0.5000000000000018
 40
0.7500000000000013
 40
0.7500000000000013
 40
0.8750000000000007
 40
0.8750000000000007
 40
1.0
 40
1.0
 40
1.0
 40
1.0
 10
418.8927316139297
 20
640.7977945248208
 30
0.0
 10
419.136263116895
 20
642.057115901824
 30
0.0
 10
419.5763002559059
 20
643.2600018429138
 30
0.0
 10
420.5558373271979
 20
644.9808460783703
 30
0.0
 10
420.9360960142082
 20
645.540459736102
 30
0.0
 10
421.5963766827714
 20
646.3580259723551
 30
0.0
 10
421.8320900487511
 20
646.627494687322
 30
0.0
 10
422.3328346300061
 20
647.1556801198985
 30
0.0
 10
422.5975142932242
 20
647.4141339731696
 30
0.0
 10
422.8771863664344
 20
647.6668454370922
 30
0.0
  0
SPLINE
  5
1D6
330
1F
100
AcDbEntity
  8
0
  6
Continuous
 62
     7
370
    15
100
AcDbSpline
210
0.0
220
0.0
230
1.0
 70
     8
 71
     3
 72
    32
 73
    28
 74
     0
 42
0.00000001
 43
0.00000001
 40
0.0
 40
0.0
 40
0.0
 40
0.0
 40
0.0624999999999996
 40
0.0624999999999996
 40
0.1249999999999993
 40
0.1249999999999993
 40
0.2499999999999991
 40
0.2499999999999991
 40
0.3749999999999992
 40
0.3749999999999992
 40
0.4062499999999993
 40
0.4062499999999993
 40
0.4374999999999994
 40
0.4374999999999994
 40
0.4999999999999997
 40
0.4999999999999997
 40
0.6249999999999999
 40
0.6249999999999999
 40
0.6875000000000001
 40
0.6875000000000001
 40
0.7187500000000002
 40
0.7187500000000002
 40
0.7500000000000002
 40
0.7500000000000002
 40
0.875
 40
0.875
 40
1.0
 40
1.0
 40
1.0
 40
1.0
 10
196.7950019252106
 20
569.9305732541048
 30
0.0
 10
196.0818835676331
 20
571.6030100610066
 30
0.0
 10
195.3327110373949
 20
573.2538231259375
 30
0.0
 10
193.7649767379739
 20
576.4932772895557
 30
0.0
 10
192.9458216712438
 20
578.0835060339298
 30
0.0
 10
190.3748513724908
 20
582.7647008040292
 30
0.0
 10
188.5098923964552
 20
585.7662919651403
 30
0.0
 10
184.4300950888716
 20
591.523414647247
 30
0.0
 10
182.2155077933197
 20
594.2790292603255
 30
0.0
 10
179.1898200573578
 20
597.5621166679105
 30
0.0
 10
178.571762357326
 20
598.2106470798587
 30
0.0
 10
177.3086141768726
 20
599.4912692747121
 30
0.0
 10
176.6626063956737
 20
600.1241801843895
 30
0.0
 10
174.6943448480735
 20
601.9864926561594
 30
0.0
 10
173.3391858331746
 20
603.1824518296664
 30
0.0
 10
169.1392132835433
 20
606.6344346500713
 30
0.0
 10
166.1604154046874
 20
608.7549739906648
 30
0.0
 10
161.394598918756
 20
611.6619871130299
 30
0.0
 10
159.7562788573774
 20
612.585267818221
 30
0.0
 10
157.2191641158194
 20
613.9001830417083
 30
0.0
 10
156.3585129496115
 20
614.3275903843949
 30
0.0
 10
154.6178313740511
 20
615.154835398565
 30
0.0
 10
153.7394826531321
 20
615.5539529421433
 30
0.0
 10
149.3076290744871
 20
617.4782142034403
 30
0.0
 10
145.6342822997807
 20
618.7904676592444
 30
0.0
 10
138.0227602724573
 20
620.974496897378
 30
0.0
 10
134.0848205722529
 20
621.8466290684083
 30
0.0
 10
130.0021767540391
 20
622.4893515311788
 30
0.0
  0
SPLINE
  5
1D7
330
1F
100
AcDbEntity
  8
0
  6
Continuous
 62
     7
370
    15
100
AcDbSpline
210
0.0
220
0.0
230
1.0
 70
     8
 71
     3
 72
    28
 73
    24
 74
     0
 42
0.00000001
 43
0.00000001
 40
0.0
 40
0.0
 40
0.0
 40
0.0
 40
0.0624999999999986
 40
0.0624999999999986
 40
0.1249999999999972
 40
0.1249999999999972
 40
0.2499999999999955
 40
0.2499999999999955
 40
0.3124999999999955
 40
0.3124999999999955
 40
0.3749999999999955
 40
0.3749999999999955
 40
0.4999999999999964
 40
0.4999999999999964
 40
0.5624999999999972
 40
0.5624999999999972
 40
0.6249999999999981
 40
0.6249999999999981
 40
0.7499999999999988
 40
0.7499999999999988
 40
0.8749999999999994
 40
0.8749999999999994
 40
1.0
 40
1.0
 40
1.0
 40
1.0
 10
130.002176754039
 20
622.4893515311788
 30
0.0
 10
129.2323124174893
 20
622.6105497361701
 30
0.0
 10
128.4799505404295
 20
622.7648254434993
 30
0.0
 10
127.0074310021395
 20
623.1336769648153
 30
0.0
 10
126.2860155554567
 20
623.3487095475805
 30
0.0
 10
124.1754067568381
 20
624.0754021102371
 30
0.0
 10
122.8734428998933
 20
624.6550529748299
 30
0.0
 10
121.047037486945
 20
625.6342656751115
 30
0.0
 10
120.4595853714718
 20
625.9791985527128
 30
0.0
 10
119.3245937557845
 20
626.7028062440901
 30
0.0
 10
118.7777948120409
 20
627.0813200913369
 30
0.0
 10
117.2205560726431
 20
628.2425014774457
 30
0.0
 10
116.28187939905
 20
629.0570361452166
 30
0.0
 10
115.0008651956633
 20
630.3258541885109
 30
0.0
 10
114.5952166386694
 20
630.7567216457122
 30
0.0
 10
113.8247635883294
 20
631.632921800156
 30
0.0
 10
113.4591240788224
 20
632.0793745739386
 30
0.0
 10
112.4278795793676
 20
633.4312625991422
 30
0.0
 10
111.83328532326
 20
634.3406564815446
 30
0.0
 10
110.8112003712404
 20
636.1701381986678
 30
0.0
 10
110.3838700186497
 20
637.0902646417029
 30
0.0
 10
109.6917991197694
 20
638.9383678411506
 30
0.0
 10
109.4270691604927
 20
639.8663547609818
 30
0.0
 10
109.2469444284333
 20
640.7977945248209
 30
0.0
  0
SPLINE
  5
1D8
330
1F
100
AcDbEntity
  8
0
  6
Continuous
 62
     7
370
    15
100
AcDbSpline
210
0.0
220
0.0
230
1.0
 70
     8
 71
     3
 72
    28
 73
    24
 74
     0
 42
0.00000001
 43
0.00000001
 40
0.0
 40
0.0
 40
0.0
 40
0.0
 40
0.0624999999999986
 40
0.0624999999999986
 40
0.1249999999999972
 40
0.1249999999999972
 40
0.2499999999999955
 40
0.2499999999999955
 40
0.3124999999999955
 40
0.3124999999999955
 40
0.3749999999999955
 40
0.3749999999999955
 40
0.4999999999999964
 40
0.4999999999999964
 40
0.5624999999999972
 40
0.5624999999999972
 40
0.6249999999999981
 40
0.6249999999999981
 40
0.7499999999999988
 40
0.7499999999999988
 40
0.8749999999999994
 40
0.8749999999999994
 40
1.0
 40
1.0
 40
1.0
 40
1.0
 10
398.137499288324
 20
622.4893515311788
 30
0.0
 10
398.9073636248737
 20
622.6105497361701
 30
0.0
 10
399.6597255019335
 20
622.7648254434993
 30
0.0
 10
401.1322450402235
 20
623.1336769648153
 30
0.0
 10
401.8536604869063
 20
623.3487095475805
 30
0.0
 10
403.9642692855249
 20
624.0754021102371
 30
0.0
 10
405.2662331424697
 20
624.6550529748299
 30
0.0
 10
407.092638555418
 20
625.6342656751115
 30
0.0
 10
407.6800906708912
 20
625.9791985527128
 30
0.0
 10
408.8150822865786
 20
626.7028062440901
 30
0.0
 10
409.3618812303221
 20
627.0813200913369
 30
0.0
 10
410.9191199697199
 20
628.2425014774457
 30
0.0
 10
411.857796643313
 20
629.0570361452166
 30
0.0
 10
413.1388108466997
 20
630.3258541885109
 30
0.0
 10
413.5444594036936
 20
630.7567216457122
 30
0.0
 10
414.3149124540336
 20
631.632921800156
 30
0.0
 10
414.6805519635406
 20
632.0793745739386
 30
0.0
 10
415.7117964629954
 20
633.4312625991422
 30
0.0
 10
416.306390719103
 20
634.3406564815446
 30
0.0
 10
417.3284756711226
 20
636.1701381986678
 30
0.0
 10
417.7558060237133
 20
637.0902646417029
 30
0.0
 10
418.4478769225936
 20
638.9383678411506
 30
0.0
 10
418.7126068818703
 20
639.8663547609818
 30
0.0
 10
418.8927316139297
 20
640.7977945248209
 30
0.0
  0
SPLINE
  5
1D9
330
1F
100
AcDbEntity
  8
0
  6
Continuous
 62
     7
370
    15
100
AcDbSpline
210
0.0
220
0.0
230
1.0
 70
     8
 71
     3
 72
    32
 73
    28
 74
     0
 42
0.00000001
 43
0.00000001
 40
0.0
 40
0.0
 40
0.0
 40
0.0
 40
0.0624999999999998
 40
0.0624999999999998
 40
0.1249999999999997
 40
0.1249999999999997
 40
0.2499999999999993
 40
0.2499999999999993
 40
0.3749999999999989
 40
0.3749999999999989
 40
0.4062499999999989
 40
0.4062499999999989
 40
0.4374999999999989
 40
0.4374999999999989
 40
0.499999999999999
 40
0.499999999999999
 40
0.624999999999999
 40
0.624999999999999
 40
0.6874999999999989
 40
0.6874999999999989
 40
0.718749999999999
 40
0.718749999999999
 40
0.7499999999999991
 40
0.7499999999999991
 40
0.8749999999999997
 40
0.8749999999999997
 40
1.0
 40
1.0
 40
1.0
 40
1.0
 10
331.3446741171524
 20
569.9305732541047
 30
0.0
 10
332.0577924747298
 20
571.6030100610064
 30
0.0
 10
332.806965004968
 20
573.2538231259374
 30
0.0
 10
334.3746993043891
 20
576.4932772895556
 30
0.0
 10
335.1938543711192
 20
578.0835060339298
 30
0.0
 10
337.7648246698721
 20
582.7647008040291
 30
0.0
 10
339.6297836459078
 20
585.7662919651403
 30
0.0
 10
343.7095809534914
 20
591.5234146472469
 30
0.0
 10
345.9241682490432
 20
594.2790292603255
 30
0.0
 10
348.9498559850052
 20
597.5621166679103
 30
0.0
 10
349.567913685037
 20
598.2106470798587
 30
0.0
 10
350.8310618654904
 20
599.4912692747121
 30
0.0
 10
351.4770696466892
 20
600.1241801843895
 30
0.0
 10
353.4453311942895
 20
601.9864926561594
 30
0.0
 10
354.8004902091884
 20
603.1824518296664
 30
0.0
 10
359.0004627588197
 20
606.6344346500712
 30
0.0
 10
361.9792606376756
 20
608.7549739906648
 30
0.0
 10
366.745077123607
 20
611.6619871130298
 30
0.0
 10
368.3833971849856
 20
612.585267818221
 30
0.0
 10
370.9205119265436
 20
613.9001830417084
 30
0.0
 10
371.7811630927515
 20
614.3275903843949
 30
0.0
 10
373.5218446683119
 20
615.1548353985648
 30
0.0
 10
374.4001933892308
 20
615.5539529421433
 30
0.0
 10
378.8320469678759
 20
617.4782142034404
 30
0.0
 10
382.5053937425823
 20
618.7904676592444
 30
0.0
 10
390.1169157699057
 20
620.974496897378
 30
0.0
 10
394.0548554701101
 20
621.8466290684083
 30
0.0
 10
398.137499288324
 20
622.4893515311788
 30
0.0
  0
SPLINE
  5
1DA
330
1F
100
AcDbEntity
  8
0
  6
Continuous
 62
     7
370
    15
100
AcDbSpline
210
0.0
220
0.0
230
1.0
 70
     8
 71
     3
 72
    23
 73
    19
 74
     0
 42
0.00000001
 43
0.00000001
 40
0.0
 40
0.0
 40
0.0
 40
0.0
 40
0.5000000000000026
 40
0.5000000000000026
 40
0.7500000000000037
 40
0.7500000000000037
 40
0.8750000000000044
 40
0.8750000000000044
 40
0.9375000000000048
 40
0.9687500000000049
 40
0.9687500000000049
 40
0.9726562500000046
 40
0.9726562500000046
 40
0.9765625000000042
 40
0.9765625000000042
 40
0.984375000000003
 40
0.984375000000003
 40
1.0
 40
1.0
 40
1.0
 40
1.0
 10
264.0698103347207
 20
569.2432060911908
 30
0.0
 10
275.2856958447127
 20
569.2432060911902
 30
0.0
 10
286.5014517414841
 20
569.2832395006325
 30
0.0
 10
303.3248978737649
 20
569.3767480350563
 30
0.0
 10
308.9326731600152
 20
569.4130634416184
 30
0.0
 10
317.3443062263981
 20
569.4706062092218
 30
0.0
 10
320.1481822729673
 20
569.4903029861621
 30
0.0
 10
324.3539773389313
 20
569.5201196308165
 30
0.0
 10
326.4568711924271
 20
569.5350973774624
 30
0.0
 10
328.5597637167185
 20
569.5500994742222
 30
0.0
 10
329.3483484794729
 20
569.5557238823064
 30
0.0
 10
329.4360257036475
 20
569.5552695486261
 30
0.0
 10
329.6111441230696
 20
569.5588540105243
 30
0.0
 10
329.6983019056227
 20
569.5682879516595
 30
0.0
 10
329.959514838543
 20
569.601545042998
 30
0.0
 10
330.1331387273026
 20
569.6335756447455
 30
0.0
 10
330.6533178278642
 20
569.7428294058212
 30
0.0
 10
330.9992109687373
 20
569.8326340815044
 30
0.0
 10
331.3446741171524
 20
569.9305732541045
 30
0.0
  0
SPLINE
  5
1DB
330
1F
100
AcDbEntity
  8
0
  6
Continuous
 62
     7
370
    15
100
AcDbSpline
210
0.0
220
0.0
230
1.0
 70
     8
 71
     3
 72
    23
 73
    19
 74
     0
 42
0.00000001
 43
0.00000001
 40
0.0
 40
0.0
 40
0.0
 40
0.0
 40
0.0156250000000014
 40
0.0156250000000014
 40
0.0234375000000017
 40
0.0234375000000017
 40
0.0273437500000022
 40
0.0273437500000022
 40
0.0312500000000026
 40
0.0312500000000026
 40
0.0625000000000027
 40
0.1250000000000024
 40
0.1250000000000024
 40
0.2500000000000019
 40
0.2500000000000019
 40
0.5000000000000013
 40
0.5000000000000013
 40
1.0
 40
1.0
 40
1.0
 40
1.0
 10
196.7950019252105
 20
569.9305732541045
 30
0.0
 10
197.1404647893641
 20
569.8326341620929
 30
0.0
 10
197.4863576454455
 20
569.7428295569918
 30
0.0
 10
198.0065363155115
 20
569.6335758388562
 30
0.0
 10
198.1801600602717
 20
569.6015452418968
 30
0.0
 10
198.4413727740817
 20
569.5682880984982
 30
0.0
 10
198.528530484813
 20
569.5588541631356
 30
0.0
 10
198.7036487472056
 20
569.5552694579555
 30
0.0
 10
198.7913259046395
 20
569.5557238941332
 30
0.0
 10
199.5799100185134
 20
569.5500994906793
 30
0.0
 10
201.6828008124568
 20
569.535097406263
 30
0.0
 10
203.7856929355991
 20
569.5201196718609
 30
0.0
 10
207.9914845408341
 20
569.4903030512803
 30
0.0
 10
210.7953582802404
 20
569.4706062898517
 30
0.0
 10
219.2069844251312
 20
569.4130635644505
 30
0.0
 10
224.8147550970068
 20
569.376748180358
 30
0.0
 10
241.6381873858421
 20
569.2832396716847
 30
0.0
 10
252.8539340536968
 20
569.2432062160534
 30
0.0
 10
264.0698103347208
 20
569.2432060911914
 30
0.0
  0
SPLINE
  5
1DC
330
1F
100
AcDbEntity
  8
0
  6
Continuous
 62
     7
370
    15
100
AcDbSpline
210
0.0
220
0.0
230
1.0
 70
     8
 71
     3
 72
    32
 73
    28
 74
     0
 42
0.00000001
 43
0.00000001
 40
0.0
 40
0.0
 40
0.0
 40
0.0
 40
0.1250000000000008
 40
0.1250000000000008
 40
0.2500000000000016
 40
0.2500000000000016
 40
0.2812500000000015
 40
0.2812500000000015
 40
0.3125000000000015
 40
0.3125000000000015
 40
0.3750000000000014
 40
0.3750000000000014
 40
0.5000000000000016
 40
0.5000000000000016
 40
0.5625000000000016
 40
0.5625000000000016
 40
0.5937500000000014
 40
0.5937500000000014
 40
0.6250000000000014
 40
0.6250000000000014
 40
0.7500000000000009
 40
0.7500000000000009
 40
0.8750000000000006
 40
0.8750000000000006
 40
0.9375000000000002
 40
0.9375000000000002
 40
1.0
 40
1.0
 40
1.0
 40
1.0
 10
398.137499288324
 20
368.0443393430054
 30
0.0
 10
394.0542010731505
 20
368.6871648261823
 30
0.0
 10
390.1156531148628
 20
369.5594730652137
 30
0.0
 10
382.5029963215565
 20
371.7439943787309
 30
0.0
 10
378.8291232002786
 20
373.0565640747071
 30
0.0
 10
374.3966621549932
 20
374.9813167797328
 30
0.0
 10
373.518194480939
 20
375.3805374595143
 30
0.0
 10
371.7772801215162
 20
376.2079988080449
 30
0.0
 10
370.9165382980207
 20
376.6355078621996
 30
0.0
 10
368.3791447124219
 20
377.9507462026434
 30
0.0
 10
366.7406527313082
 20
378.8742562620155
 30
0.0
 10
361.9743596180841
 20
381.7819995068209
 30
0.0
 10
358.99529603678
 20
383.9030815519673
 30
0.0
 10
354.7949954625955
 20
387.3559664342106
 30
0.0
 10
353.4397388999601
 20
388.5522409982212
 30
0.0
 10
351.471348025652
 20
390.4150493751793
 30
0.0
 10
350.8253108061423
 20
391.0481192473898
 30
0.0
 10
349.5621248821969
 20
392.3290468678658
 30
0.0
 10
348.9440507461886
 20
392.9777321978972
 30
0.0
 10
345.9182923927839
 20
396.2616051756813
 30
0.0
 10
343.7036854835782
 20
399.0178833462681
 30
0.0
 10
339.6239091567319
 20
404.7764027845622
 30
0.0
 10
337.7589908205437
 20
407.7787271542886
 30
0.0
 10
335.188118168641
 20
412.4610740559946
 30
0.0
 10
334.369001777982
 20
414.0516955681928
 30
0.0
 10
332.8013557831654
 20
417.2919527751894
 30
0.0
 10
332.0522398282429
 20
418.9431622716739
 30
0.0
 10
331.3391882219669
 20
420.6159854732059
 30
0.0
  0
SPLINE
  5
1DD
330
1F
100
AcDbEntity
  8
0
  6
Continuous
 62
     7
370
    15
100
AcDbSpline
210
0.0
220
0.0
230
1.0
 70
     8
 71
     3
 72
    30
 73
    26
 74
     0
 42
0.00000001
 43
0.00000001
 40
0.0
 40
0.0
 40
0.0
 40
0.0
 40
0.0624999999999998
 40
0.0624999999999998
 40
0.1249999999999996
 40
0.1249999999999996
 40
0.2500000000000006
 40
0.2500000000000006
 40
0.3750000000000016
 40
0.3750000000000016
 40
0.4375000000000021
 40
0.4375000000000021
 40
0.5000000000000026
 40
0.5000000000000026
 40
0.6250000000000029
 40
0.6250000000000029
 40
0.687500000000002
 40
0.687500000000002
 40
0.7500000000000011
 40
0.7500000000000011
 40
0.8750000000000008
 40
0.8750000000000008
 40
0.9375000000000004
 40
0.9375000000000004
 40
1.0
 40
1.0
 40
1.0
 40
1.0
 10
418.8927316139297
 20
349.7358963493632
 30
0.0
 10
418.8027473816594
 20
350.2012121952041
 30
0.0
 10
418.69091697869
 20
350.6684243345447
 30
0.0
 10
418.4258045912609
 20
351.5997532918787
 30
0.0
 10
418.2725055250716
 20
352.0642914487178
 30
0.0
 10
417.7512452229852
 20
353.454272917235
 30
0.0
 10
417.3222891428925
 20
354.3761543316566
 30
0.0
 10
416.2974762576899
 20
356.2074400631423
 30
0.0
 10
415.7017676252615
 20
357.1168827270918
 30
0.0
 10
414.6699979094212
 20
358.4674833166861
 30
0.0
 10
414.3044179011076
 20
358.9132492434247
 30
0.0
 10
413.5339995024496
 20
359.7883045382872
 30
0.0
 10
413.1284030698188
 20
360.2186088302176
 30
0.0
 10
411.8476452868645
 20
361.4857655035746
 30
0.0
 10
410.9092715950622
 20
362.2992294700164
 30
0.0
 10
409.35269037667
 20
363.4588711060493
 30
0.0
 10
408.8061400479347
 20
363.8368819412826
 30
0.0
 10
407.6718886637386
 20
364.5594207180892
 30
0.0
 10
407.0848412568218
 20
364.9038460514211
 30
0.0
 10
405.2597579945439
 20
365.8816243252639
 30
0.0
 10
403.9588166146804
 20
366.4604337737529
 30
0.0
 10
401.8500112450755
 20
367.1861033552361
 30
0.0
 10
401.1293123163008
 20
367.4008173801903
 30
0.0
 10
399.6582103843097
 20
367.7691758915097
 30
0.0
 10
398.9065885001363
 20
367.9232631643536
 30
0.0
 10
398.137499288324
 20
368.0443393430054
 30
0.0
  0
SPLINE
  5
1DE
330
1F
100
AcDbEntity
  8
0
  6
Continuous
 62
     7
370
    15
100
AcDbSpline
210
0.0
220
0.0
230
1.0
 70
     8
 71
     3
 72
    14
 73
    10
 74
     0
 42
0.00000001
 43
0.00000001
 40
0.0
 40
0.0
 40
0.0
 40
0.0
 40
0.1249999999999982
 40
0.1249999999999982
 40
0.2499999999999964
 40
0.2499999999999964
 40
0.4999999999999962
 40
0.4999999999999962
 40
1.0
 40
1.0
 40
1.0
 40
1.0
 10
422.8771863664342
 20
342.8668454370919
 30
0.0
 10
422.597514293224
 20
343.1195569010145
 30
0.0
 10
422.3328346300059
 20
343.3780107542855
 30
0.0
 10
421.832090048751
 20
343.906196186862
 30
0.0
 10
421.5963766827713
 20
344.175664901829
 30
0.0
 10
420.9360960142082
 20
344.993231138082
 30
0.0
 10
420.5558373271979
 20
345.5528447958138
 30
0.0
 10
419.5763002559059
 20
347.2736890312702
 30
0.0
 10
419.1362631168949
 20
348.47657497236
 30
0.0
 10
418.8927316139297
 20
349.7358963493632
 30
0.0
  0
SPLINE
  5
1DF
330
1F
100
AcDbEntity
  8
0
  6
Continuous
 62
     7
370
    15
100
AcDbSpline
210
0.0
220
0.0
230
1.0
 70
     8
 71
     3
 72
    14
 73
    10
 74
     0
 42
0.00000001
 43
0.00000001
 40
0.0
 40
0.0
 40
0.0
 40
0.0
 40
0.1249999999999982
 40
0.1249999999999982
 40
0.2499999999999964
 40
0.2499999999999964
 40
0.4999999999999962
 40
0.4999999999999962
 40
1.0
 40
1.0
 40
1.0
 40
1.0
 10
105.2624896759287
 20
342.8668454370919
 30
0.0
 10
105.5421617491389
 20
343.1195569010145
 30
0.0
 10
105.8068414123571
 20
343.3780107542855
 30
0.0
 10
106.3075859936121
 20
343.906196186862
 30
0.0
 10
106.5432993595917
 20
344.175664901829
 30
0.0
 10
107.2035800281548
 20
344.993231138082
 30
0.0
 10
107.5838387151651
 20
345.5528447958138
 30
0.0
 10
108.5633757864572
 20
347.2736890312702
 30
0.0
 10
109.0034129254681
 20
348.47657497236
 30
0.0
 10
109.2469444284333
 20
349.7358963493632
 30
0.0
  0
SPLINE
  5
1E0
330
1F
100
AcDbEntity
  8
0
  6
Continuous
 62
     7
370
    15
100
AcDbSpline
210
0.0
220
0.0
230
1.0
 70
     8
 71
     3
 72
    30
 73
    26
 74
     0
 42
0.00000001
 43
0.00000001
 40
0.0
 40
0.0
 40
0.0
 40
0.0
 40
0.0624999999999998
 40
0.0624999999999998
 40
0.1249999999999996
 40
0.1249999999999996
 40
0.2500000000000006
 40
0.2500000000000006
 40
0.3750000000000016
 40
0.3750000000000016
 40
0.4375000000000021
 40
0.4375000000000021
 40
0.5000000000000026
 40
0.5000000000000026
 40
0.6250000000000029
 40
0.6250000000000029
 40
0.687500000000002
 40
0.687500000000002
 40
0.7500000000000011
 40
0.7500000000000011
 40
0.8750000000000008
 40
0.8750000000000008
 40
0.9375000000000004
 40
0.9375000000000004
 40
1.0
 40
1.0
 40
1.0
 40
1.0
 10
109.2469444284333
 20
349.7358963493632
 30
0.0
 10
109.3369286607036
 20
350.2012121952041
 30
0.0
 10
109.448759063673
 20
350.6684243345447
 30
0.0
 10
109.7138714511021
 20
351.5997532918787
 30
0.0
 10
109.8671705172914
 20
352.0642914487178
 30
0.0
 10
110.3884308193777
 20
353.454272917235
 30
0.0
 10
110.8173868994705
 20
354.3761543316566
 30
0.0
 10
111.8421997846731
 20
356.2074400631423
 30
0.0
 10
112.4379084171015
 20
357.1168827270918
 30
0.0
 10
113.4696781329418
 20
358.4674833166861
 30
0.0
 10
113.8352581412554
 20
358.9132492434247
 30
0.0
 10
114.6056765399134
 20
359.7883045382872
 30
0.0
 10
115.0112729725442
 20
360.2186088302176
 30
0.0
 10
116.2920307554986
 20
361.4857655035746
 30
0.0
 10
117.2304044473008
 20
362.2992294700164
 30
0.0
 10
118.786985665693
 20
363.4588711060493
 30
0.0
 10
119.3335359944283
 20
363.8368819412826
 30
0.0
 10
120.4677873786244
 20
364.5594207180892
 30
0.0
 10
121.0548347855412
 20
364.9038460514211
 30
0.0
 10
122.8799180478192
 20
365.8816243252639
 30
0.0
 10
124.1808594276826
 20
366.4604337737529
 30
0.0
 10
126.2896647972876
 20
367.1861033552361
 30
0.0
 10
127.0103637260622
 20
367.4008173801903
 30
0.0
 10
128.4814656580533
 20
367.7691758915097
 30
0.0
 10
129.2330875422267
 20
367.9232631643536
 30
0.0
 10
130.0021767540391
 20
368.0443393430054
 30
0.0
  0
SPLINE
  5
1E1
330
1F
100
AcDbEntity
  8
0
  6
Continuous
 62
     7
370
    15
100
AcDbSpline
210
0.0
220
0.0
230
1.0
 70
     8
 71
     3
 72
    32
 73
    28
 74
     0
 42
0.00000001
 43
0.00000001
 40
0.0
 40
0.0
 40
0.0
 40
0.0
 40
0.1250000000000007
 40
0.1250000000000007
 40
0.2500000000000019
 40
0.2500000000000019
 40
0.2812500000000022
 40
0.2812500000000022
 40
0.3125000000000025
 40
0.3125000000000025
 40
0.3750000000000031
 40
0.3750000000000031
 40
0.5000000000000038
 40
0.5000000000000038
 40
0.5625000000000039
 40
0.5625000000000039
 40
0.5937500000000039
 40
0.5937500000000039
 40
0.6250000000000039
 40
0.6250000000000039
 40
0.7500000000000027
 40
0.7500000000000027
 40
0.8750000000000018
 40
0.8750000000000018
 40
0.937500000000001
 40
0.937500000000001
 40
1.0
 40
1.0
 40
1.0
 40
1.0
 10
130.0021767540391
 20
368.0443393430054
 30
0.0
 10
134.0854749692126
 20
368.6871648261823
 30
0.0
 10
138.0240229275003
 20
369.5594730652136
 30
0.0
 10
145.6366797208065
 20
371.7439943787309
 30
0.0
 10
149.3105528420844
 20
373.0565640747071
 30
0.0
 10
153.7430138873698
 20
374.9813167797328
 30
0.0
 10
154.621481561424
 20
375.3805374595143
 30
0.0
 10
156.3623959208468
 20
376.2079988080449
 30
0.0
 10
157.2231377443422
 20
376.6355078621996
 30
0.0
 10
159.7605313299412
 20
377.9507462026434
 30
0.0
 10
161.3990233110549
 20
378.8742562620155
 30
0.0
 10
166.165316424279
 20
381.7819995068209
 30
0.0
 10
169.1443800055829
 20
383.9030815519673
 30
0.0
 10
173.3446805797675
 20
387.3559664342105
 30
0.0
 10
174.6999371424029
 20
388.5522409982212
 30
0.0
 10
176.668328016711
 20
390.4150493751793
 30
0.0
 10
177.3143652362207
 20
391.0481192473899
 30
0.0
 10
178.5775511601662
 20
392.3290468678659
 30
0.0
 10
179.1956252961745
 20
392.9777321978973
 30
0.0
 10
182.2213836495792
 20
396.2616051756814
 30
0.0
 10
184.4359905587849
 20
399.017883346268
 30
0.0
 10
188.5157668856312
 20
404.7764027845622
 30
0.0
 10
190.3806852218193
 20
407.7787271542886
 30
0.0
 10
192.951557873722
 20
412.4610740559946
 30
0.0
 10
193.770674264381
 20
414.0516955681929
 30
0.0
 10
195.3383202591977
 20
417.2919527751894
 30
0.0
 10
196.0874362141201
 20
418.943162271674
 30
0.0
 10
196.8004878203961
 20
420.6159854732059
 30
0.0
  0
SPLINE
  5
1E2
330
1F
100
AcDbEntity
  8
0
  6
Continuous
 62
     7
370
    15
100
AcDbSpline
210
0.0
220
0.0
230
1.0
 70
     8
 71
     3
 72
    23
 73
    19
 74
     0
 42
0.00000001
 43
0.00000001
 40
0.0
 40
0.0
 40
0.0
 40
0.0
 40
0.4999999999999984
 40
0.4999999999999984
 40
0.7499999999999977
 40
0.7499999999999977
 40
0.8749999999999972
 40
0.8749999999999972
 40
0.9374999999999969
 40
0.9687499999999966
 40
0.9687499999999966
 40
0.9726562499999969
 40
0.9726562499999969
 40
0.9765624999999972
 40
0.9765624999999972
 40
0.9843749999999983
 40
0.9843749999999983
 40
1.0
 40
1.0
 40
1.0
 40
1.0
 10
264.0698380211815
 20
421.2904848011307
 30
0.0
 10
252.8546969324341
 20
421.2904848011307
 30
0.0
 10
241.6396517775285
 20
421.2560063300571
 30
0.0
 10
224.8172474096517
 20
421.1717331036655
 30
0.0
 10
219.2098145963295
 20
421.1385990070027
 30
0.0
 10
210.798697975942
 20
421.0852556942386
 30
0.0
 10
207.9949926082441
 20
421.0668679704784
 30
0.0
 10
203.7894640903037
 20
421.0388318002012
 30
0.0
 10
201.6867060312684
 20
421.0246989651247
 30
0.0
 10
199.5839532550723
 20
421.0104687434293
 30
0.0
 10
198.7954213965457
 20
421.005124474229
 30
0.0
 10
198.7077691262241
 20
421.005230222634
 30
0.0
 10
198.5326175621861
 20
421.0025970316205
 30
0.0
 10
198.4455468003073
 20
420.9918892923808
 30
0.0
 10
198.1845174598703
 20
420.9563664750974
 30
0.0
 10
198.0110390582071
 20
420.9226247318496
 30
0.0
 10
197.4912810411942
 20
420.8088304183328
 30
0.0
 10
197.1456679747854
 20
420.7164064338552
 30
0.0
 10
196.8004878203961
 20
420.615985473206
 30
0.0
  0
SPLINE
  5
1E3
330
1F
100
AcDbEntity
  8
0
  6
Continuous
 62
     7
370
    15
100
AcDbSpline
210
0.0
220
0.0
230
1.0
 70
     8
 71
     3
 72
    22
 73
    18
 74
     0
 42
0.00000001
 43
0.00000001
 40
0.0
 40
0.0
 40
0.0
 40
0.0
 40
0.0156249999999987
 40
0.0156249999999987
 40
0.023437499999998
 40
0.023437499999998
 40
0.0273437499999977
 40
0.0273437499999977
 40
0.0312499999999973
 40
0.0312499999999973
 40
0.0624999999999972
 40
0.1249999999999973
 40
0.2499999999999976
 40
0.2499999999999976
 40
0.4999999999999983
 40
0.4999999999999983
 40
1.0
 40
1.0
 40
1.0
 40
1.0
 10
331.3391882219669
 20
420.6159854732059
 30
0.0
 10
330.9940080675777
 20
420.7164064338551
 30
0.0
 10
330.6483950011688
 20
420.8088304183328
 30
0.0
 10
330.1286369841559
 20
420.9226247318497
 30
0.0
 10
329.9551585824928
 20
420.9563664750984
 30
0.0
 10
329.6941292420558
 20
420.9918892923822
 30
0.0
 10
329.6070584801769
 20
421.0025970316204
 30
0.0
 10
329.431906916139
 20
421.005230222634
 30
0.0
 10
329.3442546458173
 20
421.0051244742294
 30
0.0
 10
328.5557227872907
 20
421.0104687434296
 30
0.0
 10
326.4529700110946
 20
421.024698965125
 30
0.0
 10
321.5465361179678
 20
421.0576741085978
 30
0.0
 10
317.3409780664211
 20
421.0852556942388
 30
0.0
 10
308.9298614460336
 20
421.1385990070034
 30
0.0
 10
303.3224286327113
 20
421.1717331036654
 30
0.0
 10
286.5000242648346
 20
421.2560063300579
 30
0.0
 10
275.284979109929
 20
421.2904848011304
 30
0.0
 10
264.0698380211815
 20
421.2904848011304
 30
0.0
  0
LWPOLYLINE
  5
1E4
330
1F
100
AcDbEntity
  8
0
  6
Continuous
 62
     7
370
    15
100
AcDbPolyline
 90
        9
 70
   128
 43
0.0
 10
428.7818945388
 20
357.7537890397
 10
428.4504480103
 20
356.2711682043
 10
427.791950796
 20
354.8392560206
 10
426.8289632539
 20
353.5070922099
 10
425.5944169501
 20
352.3202296219
 10
424.1305566768
 20
351.3192888222
 10
422.4874801377
 20
350.5385126791
 10
420.721394513
 20
350.0046338759
 10
418.8927389125
 20
349.7358914338
  0
LWPOLYLINE
  5
1E5
330
1F
100
AcDbEntity
  8
0
  6
Continuous
 62
     7
370
    15
100
AcDbPolyline
 90
        9
 70
   128
 43
0.0
 10
99.3577815036
 20
357.7537890397
 10
99.689228032
 20
356.2711682043
 10
100.3477252463
 20
354.8392560206
 10
101.3107127885
 20
353.5070922099
 10
102.5452590922
 20
352.3202296219
 10
104.0091193656
 20
351.3192888222
 10
105.6521959046
 20
350.5385126791
 10
107.4182815293
 20
350.0046338759
 10
109.2469371299
 20
349.7358914338
  0
SPLINE
  5
1E6
330
1F
100
AcDbEntity
  8
0
  6
Continuous
 62
     7
370
    15
100
AcDbSpline
210
0.0
220
0.0
230
1.0
 70
     8
 71
     3
 72
    30
 73
    26
 74
     0
 42
0.00000001
 43
0.00000001
 40
0.0
 40
0.0
 40
0.0
 40
0.0
 40
0.0624999999999986
 40
0.0624999999999986
 40
0.1249999999999971
 40
0.1249999999999971
 40
0.2499999999999963
 40
0.2499999999999963
 40
0.3124999999999959
 40
0.3124999999999959
 40
0.3749999999999955
 40
0.3749999999999955
 40
0.4999999999999957
 40
0.4999999999999957
 40
0.6249999999999958
 40
0.6249999999999958
 40
0.6874999999999968
 40
0.6874999999999968
 40
0.7499999999999978
 40
0.7499999999999978
 40
0.8124999999999989
 40
0.8124999999999989
 40
0.8749999999999999
 40
0.8749999999999999
 40
1.0
 40
1.0
 40
1.0
 40
1.0
 10
428.781889051029
 20
632.7798985424733
 30
0.0
 10
428.6499600377395
 20
632.3120934574958
 30
0.0
 10
428.4843643959765
 20
631.8420473249893
 30
0.0
 10
428.090381366948
 20
630.9069907206776
 30
0.0
 10
427.861923008745
 20
630.4412970088265
 30
0.0
 10
427.0842170881878
 20
629.0500098047014
 30
0.0
 10
426.4431970785637
 20
628.1301110364291
 30
0.0
 10
425.2959101618529
 20
626.7645559805775
 30
0.0
 10
424.8823847801938
 20
626.3117766928368
 30
0.0
 10
423.9910157717006
 20
625.4118363717536
 30
0.0
 10
423.5121847597897
 20
624.9638145953077
 30
0.0
 10
421.9803182625157
 20
623.6353659371896
 30
0.0
 10
420.8496980594331
 20
622.7847975066019
 30
0.0
 10
418.3647591270316
 20
621.1625020796449
 30
0.0
 10
417.0106301464014
 20
620.3906658369115
 30
0.0
 10
414.793083102695
 20
619.3049446947276
 30
0.0
 10
414.0208598250206
 20
618.9546220062734
 30
0.0
 10
412.4379732817582
 20
618.2929716354814
 30
0.0
 10
411.6243201898322
 20
617.9800511284064
 30
0.0
 10
409.9512745672932
 20
617.3921329739142
 30
0.0
 10
409.091887680596
 20
617.1171298094271
 30
0.0
 10
407.3249952220202
 20
616.6080202934181
 30
0.0
 10
406.4156905436146
 20
616.3734994545656
 30
0.0
 10
403.6217675517615
 20
615.7399928059702
 30
0.0
 10
401.7030628339793
 20
615.41737348735
 30
0.0
 10
399.7245637951809
 20
615.203793268577
 30
0.0
  0
SPLINE
  5
1E7
330
1F
100
AcDbEntity
  8
0
  6
Continuous
 62
     7
370
    15
100
AcDbSpline
210
0.0
220
0.0
230
1.0
 70
     8
 71
     3
 72
    28
 73
    24
 74
     0
 42
0.00000001
 43
0.00000001
 40
0.0
 40
0.0
 40
0.0
 40
0.0
 40
0.1249999999999988
 40
0.1249999999999988
 40
0.1874999999999989
 40
0.1874999999999989
 40
0.249999999999999
 40
0.249999999999999
 40
0.3124999999999991
 40
0.3124999999999991
 40
0.3749999999999992
 40
0.3749999999999992
 40
0.4999999999999992
 40
0.4999999999999992
 40
0.6249999999999992
 40
0.6249999999999992
 40
0.6874999999999989
 40
0.6874999999999989
 40
0.7499999999999986
 40
0.7499999999999986
 40
0.8749999999999992
 40
0.8749999999999992
 40
1.0
 40
1.0
 40
1.0
 40
1.0
 10
399.7245637951809
 20
375.3298976056072
 30
0.0
 10
401.7055026027268
 20
375.1160540122595
 30
0.0
 10
403.6265005655685
 20
374.7929038241582
 30
0.0
 10
406.4236595549772
 20
374.1582442453851
 30
0.0
 10
407.3338881217111
 20
373.9233102852477
 30
0.0
 10
409.1026022528978
 20
373.4132694425381
 30
0.0
 10
409.9628462367693
 20
373.1377566800161
 30
0.0
 10
411.6375023944362
 20
372.5487383599768
 30
0.0
 10
412.4519089100384
 20
372.2352272679856
 30
0.0
 10
414.0361979616047
 20
371.5723181222651
 30
0.0
 10
414.8090376160994
 20
371.2213369143619
 30
0.0
 10
417.0279275689608
 20
370.1337383414184
 30
0.0
 10
418.3827165455097
 20
369.3605753513473
 30
0.0
 10
420.8684955719142
 20
367.7354947792145
 30
0.0
 10
421.999296132052
 20
366.8834678943146
 30
0.0
 10
423.5310121020017
 20
365.55272627906
 30
0.0
 10
424.0092157236683
 20
365.1043811729267
 30
0.0
 10
424.8989492216812
 20
364.2042529255833
 30
0.0
 10
425.311393951056
 20
363.7516681346755
 30
0.0
 10
426.4549974285628
 20
362.387553963889
 30
0.0
 10
427.0929710943647
 20
361.4697545674392
 30
0.0
 10
428.124316679762
 20
359.6212270479938
 30
0.0
 10
428.5177244212566
 20
358.6904896812736
 30
0.0
 10
428.781889051029
 20
357.7537923317107
 30
0.0
  0
LINE
  5
1E8
330
1F
100
AcDbEntity
  8
0
  6
Continuous
 62
     7
370
    15
100
AcDbLine
 10
399.7245706061
 20
615.2037959419
 30
0.0
 11
399.7245706061
 21
375.3298949323
 31
0.0
  0
SPLINE
  5
1E9
330
1F
100
AcDbEntity
  8
0
  6
Continuous
 62
     7
370
    15
100
AcDbSpline
210
0.0
220
0.0
230
1.0
 70
     8
 71
     3
 72
    28
 73
    24
 74
     0
 42
0.00000001
 43
0.00000001
 40
0.0
 40
0.0
 40
0.0
 40
0.0
 40
0.1249999999999988
 40
0.1249999999999988
 40
0.1874999999999989
 40
0.1874999999999989
 40
0.249999999999999
 40
0.249999999999999
 40
0.3124999999999991
 40
0.3124999999999991
 40
0.3749999999999992
 40
0.3749999999999992
 40
0.4999999999999992
 40
0.4999999999999992
 40
0.6249999999999992
 40
0.6249999999999992
 40
0.6874999999999989
 40
0.6874999999999989
 40
0.7499999999999986
 40
0.7499999999999986
 40
0.8749999999999992
 40
0.8749999999999992
 40
1.0
 40
1.0
 40
1.0
 40
1.0
 10
128.4151122471821
 20
375.3298976056072
 30
0.0
 10
126.4341734396363
 20
375.1160540122595
 30
0.0
 10
124.5131754767945
 20
374.7929038241582
 30
0.0
 10
121.7160164873859
 20
374.1582442453851
 30
0.0
 10
120.8057879206519
 20
373.9233102852477
 30
0.0
 10
119.0370737894652
 20
373.4132694425381
 30
0.0
 10
118.1768298055938
 20
373.1377566800161
 30
0.0
 10
116.5021736479268
 20
372.5487383599768
 30
0.0
 10
115.6877671323247
 20
372.2352272679856
 30
0.0
 10
114.1034780807582
 20
371.5723181222651
 30
0.0
 10
113.3306384262636
 20
371.2213369143619
 30
0.0
 10
111.1117484734022
 20
370.1337383414184
 30
0.0
 10
109.7569594968534
 20
369.3605753513473
 30
0.0
 10
107.2711804704488
 20
367.7354947792145
 30
0.0
 10
106.140379910311
 20
366.8834678943146
 30
0.0
 10
104.6086639403613
 20
365.55272627906
 30
0.0
 10
104.1304603186947
 20
365.1043811729267
 30
0.0
 10
103.2407268206818
 20
364.2042529255833
 30
0.0
 10
102.828282091307
 20
363.7516681346755
 30
0.0
 10
101.6846786138003
 20
362.387553963889
 30
0.0
 10
101.0467049479983
 20
361.4697545674392
 30
0.0
 10
100.0153593626009
 20
359.6212270479938
 30
0.0
 10
99.6219516211064
 20
358.6904896812736
 30
0.0
 10
99.357786991334
 20
357.7537923317107
 30
0.0
  0
SPLINE
  5
1EA
330
1F
100
AcDbEntity
  8
0
  6
Continuous
 62
     7
370
    15
100
AcDbSpline
210
0.0
220
0.0
230
1.0
 70
     8
 71
     3
 72
    30
 73
    26
 74
     0
 42
0.00000001
 43
0.00000001
 40
0.0
 40
0.0
 40
0.0
 40
0.0
 40
0.0624999999999986
 40
0.0624999999999986
 40
0.1249999999999971
 40
0.1249999999999971
 40
0.2499999999999963
 40
0.2499999999999963
 40
0.3124999999999959
 40
0.3124999999999959
 40
0.3749999999999955
 40
0.3749999999999955
 40
0.4999999999999957
 40
0.4999999999999957
 40
0.6249999999999958
 40
0.6249999999999958
 40
0.6874999999999968
 40
0.6874999999999968
 40
0.7499999999999978
 40
0.7499999999999978
 40
0.8124999999999989
 40
0.8124999999999989
 40
0.8749999999999999
 40
0.8749999999999999
 40
1.0
 40
1.0
 40
1.0
 40
1.0
 10
99.35778699133405
 20
632.7798985424733
 30
0.0
 10
99.48971600462347
 20
632.3120934574958
 30
0.0
 10
99.65531164638655
 20
631.8420473249893
 30
0.0
 10
100.049294675415
 20
630.9069907206776
 30
0.0
 10
100.2777530336181
 20
630.4412970088265
 30
0.0
 10
101.0554589541753
 20
629.0500098047014
 30
0.0
 10
101.6964789637992
 20
628.1301110364291
 30
0.0
 10
102.8437658805101
 20
626.7645559805775
 30
0.0
 10
103.2572912621692
 20
626.3117766928368
 30
0.0
 10
104.1486602706624
 20
625.4118363717536
 30
0.0
 10
104.6274912825733
 20
624.9638145953077
 30
0.0
 10
106.1593577798473
 20
623.6353659371896
 30
0.0
 10
107.2899779829299
 20
622.7847975066019
 30
0.0
 10
109.7749169153314
 20
621.1625020796449
 30
0.0
 10
111.1290458959617
 20
620.3906658369115
 30
0.0
 10
113.346592939668
 20
619.3049446947276
 30
0.0
 10
114.1188162173424
 20
618.9546220062734
 30
0.0
 10
115.7017027606047
 20
618.2929716354814
 30
0.0
 10
116.5153558525308
 20
617.9800511284064
 30
0.0
 10
118.1884014750698
 20
617.3921329739142
 30
0.0
 10
119.047788361767
 20
617.1171298094271
 30
0.0
 10
120.8146808203428
 20
616.6080202934181
 30
0.0
 10
121.7239854987484
 20
616.3734994545656
 30
0.0
 10
124.5179084906015
 20
615.7399928059702
 30
0.0
 10
126.4366132083838
 20
615.41737348735
 30
0.0
 10
128.4151122471821
 20
615.203793268577
 30
0.0
  0
LINE
  5
1EB
330
1F
100
AcDbEntity
  8
0
  6
Continuous
 62
     7
370
    15
100
AcDbLine
 10
128.4151054362
 20
615.2037959419
 30
0.0
 11
128.4151054362
 21
375.3298949323
 31
0.0
  0
ARC
  5
1EC
330
1F
100
AcDbEntity
  8
0
  6
Continuous
 62
     7
370
    15
100
AcDbCircle
 10
175.9673163926
 20
381.8729744155
 30
0.0
 40
48.0002568322077
100
AcDbArc
 50
187.8345758356
 51
196.7439447327
  0
ARC
  5
1ED
330
1F
100
AcDbEntity
  8
0
  6
Continuous
 62
     7
370
    15
100
AcDbCircle
 10
352.1723596498
 20
381.8729744155
 30
0.0
 40
48.00025683220775
100
AcDbArc
 50
343.2560552673
 51
352.1654241644
  0
ARC
  5
1EE
330
1F
100
AcDbEntity
  8
0
  6
Continuous
 62
     7
370
    15
100
AcDbCircle
 10
175.9673163926
 20
608.6607164587
 30
0.0
 40
48.00025683220771
100
AcDbArc
 50
163.2560552673
 51
172.1654241644
  0
ARC
  5
1EF
330
1F
100
AcDbEntity
  8
0
  6
Continuous
 62
     7
370
    15
100
AcDbCircle
 10
352.1723596498
 20
608.6607164587
 30
0.0
 40
48.00025683220777
100
AcDbArc
 50
7.8345758356
 51
16.7439447327
  0
ARC
  5
1F0
330
1F
100
AcDbEntity
  8
0
  6
Continuous
 62
     7
370
    15
100
AcDbCircle
 10
201.8054262142
 20
553.2658125565
 30
0.0
 40
17.40168522203878
100
AcDbArc
 50
106.7339299338
 51
138.7157096444
  0
SPLINE
  5
1F1
330
1F
100
AcDbEntity
  8
0
  6
Continuous
 62
     7
370
    15
100
AcDbSpline
210
0.0
220
0.0
230
1.0
 70
     8
 71
     3
 72
    32
 73
    28
 74
     0
 42
0.00000001
 43
0.00000001
 40
0.0
 40
0.0
 40
0.0
 40
0.0
 40
0.1249999999999994
 40
0.1249999999999994
 40
0.2499999999999993
 40
0.2499999999999993
 40
0.2812499999999993
 40
0.2812499999999993
 40
0.3124999999999994
 40
0.3124999999999994
 40
0.3749999999999993
 40
0.3749999999999993
 40
0.4999999999999996
 40
0.4999999999999996
 40
0.5625
 40
0.5625
 40
0.5937500000000002
 40
0.5937500000000002
 40
0.6250000000000004
 40
0.6250000000000004
 40
0.7500000000000006
 40
0.7500000000000006
 40
0.8750000000000008
 40
0.8750000000000008
 40
0.9375000000000004
 40
0.9375000000000004
 40
1.0
 40
1.0
 40
1.0
 40
1.0
 10
128.4151122471821
 20
615.203793268577
 30
0.0
 10
132.1485955150268
 20
614.578937448596
 30
0.0
 10
135.7452464649146
 20
613.7287224567244
 30
0.0
 10
142.688866056533
 20
611.5985681489416
 30
0.0
 10
146.0355924970052
 20
610.318239668114
 30
0.0
 10
150.067912850817
 20
608.4417336957574
 30
0.0
 10
150.8667932443052
 20
608.0525625294214
 30
0.0
 10
152.4494094076583
 20
607.2460545991698
 30
0.0
 10
153.2299878903056
 20
606.830279143612
 30
0.0
 10
155.5311719582925
 20
605.5509971298131
 30
0.0
 10
157.0153582622217
 20
604.6534991845847
 30
0.0
 10
161.3279475612331
 20
601.830637556694
 30
0.0
 10
164.016795404389
 20
599.7752320031021
 30
0.0
 10
167.7996080504522
 20
596.4379918953359
 30
0.0
 10
169.0186826307314
 20
595.2831297214577
 30
0.0
 10
170.7872685453733
 20
593.4872624676242
 30
0.0
 10
171.3667856760866
 20
592.8779523683003
 30
0.0
 10
172.4988804399987
 20
591.646454767734
 30
0.0
 10
173.0524680121789
 20
591.0232658347487
 30
0.0
 10
175.7609807161259
 20
587.8708944061818
 30
0.0
 10
177.7383621391661
 20
585.2326707512499
 30
0.0
 10
181.3745816525684
 20
579.7390059870597
 30
0.0
 10
183.0331811763741
 20
576.8834829542706
 30
0.0
 10
185.3164414810233
 20
572.4453404413963
 30
0.0
 10
186.0433339754876
 20
570.9401223549658
 30
0.0
 10
187.4336253850325
 20
567.879101163769
 30
0.0
 10
188.0975639398823
 20
566.3217497971733
 30
0.0
 10
188.7290137739219
 20
564.7473661225856
 30
0.0
  0
SPLINE
  5
1F2
330
1F
100
AcDbEntity
  8
0
  6
Continuous
 62
     7
370
    15
100
AcDbSpline
210
0.0
220
0.0
230
1.0
 70
     8
 71
     3
 72
    32
 73
    28
 74
     0
 42
0.00000001
 43
0.00000001
 40
0.0
 40
0.0
 40
0.0
 40
0.0
 40
0.1249999999999993
 40
0.1249999999999993
 40
0.2499999999999985
 40
0.2499999999999985
 40
0.2812499999999984
 40
0.2812499999999984
 40
0.3124999999999983
 40
0.3124999999999983
 40
0.3749999999999981
 40
0.3749999999999981
 40
0.4999999999999979
 40
0.4999999999999979
 40
0.5624999999999978
 40
0.5624999999999978
 40
0.5937499999999978
 40
0.5937499999999978
 40
0.6249999999999978
 40
0.6249999999999978
 40
0.7499999999999983
 40
0.7499999999999983
 40
0.874999999999999
 40
0.874999999999999
 40
0.9374999999999994
 40
0.9374999999999994
 40
1.0
 40
1.0
 40
1.0
 40
1.0
 10
399.7245637951809
 20
615.203793268577
 30
0.0
 10
395.9910805273362
 20
614.578937448596
 30
0.0
 10
392.3944295774484
 20
613.7287224567244
 30
0.0
 10
385.45080998583
 20
611.5985681489416
 30
0.0
 10
382.1040835453578
 20
610.318239668114
 30
0.0
 10
378.071763191546
 20
608.4417336957574
 30
0.0
 10
377.2728827980578
 20
608.0525625294214
 30
0.0
 10
375.6902666347048
 20
607.24605459917
 30
0.0
 10
374.9096881520575
 20
606.830279143612
 30
0.0
 10
372.6085040840705
 20
605.5509971298131
 30
0.0
 10
371.1243177801413
 20
604.6534991845847
 30
0.0
 10
366.8117284811299
 20
601.830637556694
 30
0.0
 10
364.122880637974
 20
599.7752320031022
 30
0.0
 10
360.3400679919108
 20
596.4379918953359
 30
0.0
 10
359.1209934116316
 20
595.2831297214577
 30
0.0
 10
357.3524074969897
 20
593.4872624676242
 30
0.0
 10
356.7728903662764
 20
592.8779523683003
 30
0.0
 10
355.6407956023643
 20
591.646454767734
 30
0.0
 10
355.0872080301841
 20
591.0232658347487
 30
0.0
 10
352.3786953262372
 20
587.870894406182
 30
0.0
 10
350.401313903197
 20
585.23267075125
 30
0.0
 10
346.7650943897946
 20
579.7390059870597
 30
0.0
 10
345.1064948659889
 20
576.8834829542706
 30
0.0
 10
342.8232345613397
 20
572.4453404413963
 30
0.0
 10
342.0963420668754
 20
570.9401223549659
 30
0.0
 10
340.7060506573305
 20
567.8791011637691
 30
0.0
 10
340.0421121024807
 20
566.3217497971733
 30
0.0
 10
339.4106622684411
 20
564.7473661225856
 30
0.0
  0
ARC
  5
1F3
330
1F
100
AcDbEntity
  8
0
  6
Continuous
 62
     7
370
    15
100
AcDbCircle
 10
326.3342498282
 20
553.2658125565
 30
0.0
 40
17.4016852220388
100
AcDbArc
 50
41.2842903556
 51
73.2660700662
  0
ARC
  5
1F4
330
1F
100
AcDbEntity
  8
0
  6
Continuous
 62
     7
370
    15
100
AcDbCircle
 10
326.3303753868
 20
437.2807217245
 30
0.0
 40
17.4011970756437
100
AcDbArc
 50
286.7288548702
 51
318.712149732
  0
SPLINE
  5
1F5
330
1F
100
AcDbEntity
  8
0
  6
Continuous
 62
     7
370
    15
100
AcDbSpline
210
0.0
220
0.0
230
1.0
 70
     8
 71
     3
 72
    32
 73
    28
 74
     0
 42
0.00000001
 43
0.00000001
 40
0.0
 40
0.0
 40
0.0
 40
0.0
 40
0.0624999999999999
 40
0.0624999999999999
 40
0.1249999999999999
 40
0.1249999999999999
 40
0.2500000000000005
 40
0.2500000000000005
 40
0.3750000000000011
 40
0.3750000000000011
 40
0.4062500000000012
 40
0.4062500000000012
 40
0.4375000000000013
 40
0.4375000000000013
 40
0.500000000000001
 40
0.500000000000001
 40
0.6250000000000002
 40
0.6250000000000002
 40
0.6875000000000001
 40
0.6875000000000001
 40
0.71875
 40
0.71875
 40
0.7499999999999998
 40
0.7499999999999998
 40
0.8749999999999997
 40
0.8749999999999997
 40
1.0
 40
1.0
 40
1.0
 40
1.0
 10
339.4057085067021
 20
425.7986778905913
 30
0.0
 10
340.0370955371147
 20
424.2239396956582
 30
0.0
 10
340.7009801000262
 20
422.6662224141643
 30
0.0
 10
342.0911871888896
 20
419.6044527136243
 30
0.0
 10
342.8180421900475
 20
418.0988673959282
 30
0.0
 10
345.1012058861833
 20
413.6596445236178
 30
0.0
 10
346.7597621113478
 20
410.8034296832495
 30
0.0
 10
350.3959483137594
 20
405.3084398779247
 30
0.0
 10
352.3733396828604
 20
402.6695829794176
 30
0.0
 10
355.081906405758
 20
399.5164580141257
 30
0.0
 10
355.6355068685647
 20
398.8931202765705
 30
0.0
 10
356.7676318303957
 20
397.6613289168301
 30
0.0
 10
357.3471666229857
 20
397.0518728734203
 30
0.0
 10
359.1158648924305
 20
395.2555249003871
 30
0.0
 10
360.3350249438628
 20
394.1003561692773
 30
0.0
 10
364.1181272322742
 20
390.7622372888932
 30
0.0
 10
366.8072123337049
 20
388.7063003016229
 30
0.0
 10
371.1202316244136
 20
385.8827212163983
 30
0.0
 10
372.6045736380134
 20
384.984997425113
 30
0.0
 10
374.9060112441352
 20
383.7053967005768
 30
0.0
 10
375.6866672448081
 20
383.2895234684223
 30
0.0
 10
377.2694975265373
 20
382.4828007975751
 30
0.0
 10
378.0684874518529
 20
382.0935272116218
 30
0.0
 10
382.1013677221417
 20
380.216533047631
 30
0.0
 10
385.4485810582673
 20
378.9358898957883
 30
0.0
 10
392.3932535081282
 20
376.805245868165
 30
0.0
 10
395.9904702512927
 20
375.9548555646659
 30
0.0
 10
399.7245637951809
 20
375.3298976056072
 30
0.0
  0
SPLINE
  5
1F6
330
1F
100
AcDbEntity
  8
0
  6
Continuous
 62
     7
370
    15
100
AcDbSpline
210
0.0
220
0.0
230
1.0
 70
     8
 71
     3
 72
    32
 73
    28
 74
     0
 42
0.00000001
 43
0.00000001
 40
0.0
 40
0.0
 40
0.0
 40
0.0
 40
0.0625000000000004
 40
0.0625000000000004
 40
0.1250000000000007
 40
0.1250000000000007
 40
0.2500000000000012
 40
0.2500000000000012
 40
0.3750000000000016
 40
0.3750000000000016
 40
0.4062500000000015
 40
0.4062500000000015
 40
0.4375000000000014
 40
0.4375000000000014
 40
0.5000000000000014
 40
0.5000000000000014
 40
0.6250000000000013
 40
0.6250000000000013
 40
0.6875000000000014
 40
0.6875000000000014
 40
0.7187500000000013
 40
0.7187500000000013
 40
0.7500000000000013
 40
0.7500000000000013
 40
0.8750000000000006
 40
0.8750000000000006
 40
1.0
 40
1.0
 40
1.0
 40
1.0
 10
188.7339675356676
 20
425.798677890608
 30
0.0
 10
188.102580505255
 20
424.2239396956745
 30
0.0
 10
187.4386959423436
 20
422.6662224141801
 30
0.0
 10
186.0484888534804
 20
419.604452713639
 30
0.0
 10
185.3216338523225
 20
418.0988673959424
 30
0.0
 10
183.0384701561869
 20
413.6596445236307
 30
0.0
 10
181.3799139310225
 20
410.8034296832614
 30
0.0
 10
177.7437277286109
 20
405.3084398779348
 30
0.0
 10
175.7663363595099
 20
402.6695829794268
 30
0.0
 10
173.0577696366122
 20
399.5164580141339
 30
0.0
 10
172.5041691738055
 20
398.8931202765785
 30
0.0
 10
171.3720442119744
 20
397.6613289168378
 30
0.0
 10
170.7925094193845
 20
397.0518728734278
 30
0.0
 10
169.0238111499395
 20
395.2555249003938
 30
0.0
 10
167.804651098507
 20
394.1003561692836
 30
0.0
 10
164.0215488100952
 20
390.7622372888983
 30
0.0
 10
161.3324637086643
 20
388.7063003016273
 30
0.0
 10
157.0194444179548
 20
385.8827212164016
 30
0.0
 10
155.5351024043549
 20
384.984997425116
 30
0.0
 10
153.2336647982328
 20
383.7053967005795
 30
0.0
 10
152.4530087975598
 20
383.2895234684248
 30
0.0
 10
150.8701785158303
 20
382.4828007975775
 30
0.0
 10
150.0711885905145
 20
382.093527211624
 30
0.0
 10
146.038308320225
 20
380.2165330476324
 30
0.0
 10
142.6910949840986
 20
378.9358898957893
 30
0.0
 10
135.7464225342365
 20
376.8052458681655
 30
0.0
 10
132.1492057910711
 20
375.9548555646661
 30
0.0
 10
128.4151122471821
 20
375.3298976056072
 30
0.0
  0
ARC
  5
1F7
330
1F
100
AcDbEntity
  8
0
  6
Continuous
 62
     7
370
    15
100
AcDbCircle
 10
201.8093006556
 20
437.2807217245
 30
0.0
 40
17.40119707564378
100
AcDbArc
 50
221.287850268
 51
253.2711451298
  0
SPLINE
  5
1F8
330
1F
100
AcDbEntity
  8
0
  6
Continuous
 62
     7
370
    15
100
AcDbSpline
210
0.0
220
0.0
230
1.0
 70
     8
 71
     3
 72
    37
 73
    33
 74
     0
 42
0.00000001
 43
0.00000001
 40
0.0
 40
0.0
 40
0.0
 40
0.0
 40
0.0156249999999999
 40
0.0156249999999999
 40
0.0312499999999999
 40
0.0312499999999999
 40
0.0625000000000001
 40
0.0625000000000001
 40
0.0781250000000002
 40
0.0781250000000002
 40
0.0937500000000002
 40
0.1250000000000003
 40
0.1250000000000003
 40
0.2500000000000002
 40
0.2500000000000002
 40
0.4999999999999999
 40
0.4999999999999999
 40
0.7499999999999996
 40
0.7499999999999996
 40
0.8749999999999994
 40
0.8749999999999994
 40
0.9062499999999994
 40
0.9062499999999994
 40
0.9218749999999996
 40
0.9218749999999996
 40
0.9374999999999996
 40
0.9374999999999996
 40
0.9687499999999998
 40
0.9687499999999998
 40
0.9843749999999999
 40
0.9843749999999999
 40
1.0
 40
1.0
 40
1.0
 40
1.0
 10
339.4106622684411
 20
564.7473661225856
 30
0.0
 10
339.3213622662358
 20
564.0366515402359
 30
0.0
 10
339.2474458479519
 20
563.3235132177936
 30
0.0
 10
339.1200308987414
 20
561.893985774341
 30
0.0
 10
339.0670745897403
 20
561.1775104709556
 30
0.0
 10
338.9344671207793
 20
559.0238618551949
 30
0.0
 10
338.8808625053862
 20
557.5824966343077
 30
0.0
 10
338.8444169347069
 20
555.4132887550144
 30
0.0
 10
338.8421702632652
 20
554.6886078978465
 30
0.0
 10
338.8358458130593
 20
553.2395460727937
 30
0.0
 10
338.8263882586123
 20
551.0659529824578
 30
0.0
 10
338.8170466422431
 20
548.8923584725839
 30
0.0
 10
338.7863062584709
 20
541.6470385036376
 30
0.0
 10
338.762975807854
 20
535.8507644964812
 30
0.0
 10
338.70297774042
 20
518.4618482863598
 30
0.0
 10
338.6776996382359
 20
506.869056573922
 30
0.0
 10
338.6774242915406
 20
483.6836073809394
 30
0.0
 10
338.7024521092281
 20
472.0908705947285
 30
0.0
 10
338.7623570548977
 20
454.7019540788494
 30
0.0
 10
338.7856951199624
 20
448.9056838121286
 30
0.0
 10
338.8164738094944
 20
441.6603672344555
 30
0.0
 10
338.8227105813071
 20
440.2113049182951
 30
0.0
 10
338.8321445503395
 20
438.0377124046412
 30
0.0
 10
338.8353023879983
 20
437.3131815172121
 30
0.0
 10
338.8416378500258
 20
435.8641208886502
 30
0.0
 10
338.8432878832789
 20
435.1393612619377
 30
0.0
 10
338.8773108369801
 20
432.9694762326117
 30
0.0
 10
338.9294860658916
 20
431.5273484076704
 30
0.0
 10
339.0608680807412
 20
429.3720984882924
 30
0.0
 10
339.113617449879
 20
428.6550199009893
 30
0.0
 10
339.241135864695
 20
427.2241200569648
 30
0.0
 10
339.3153075706674
 20
426.5102106900025
 30
0.0
 10
339.4057085066986
 20
425.7986778905995
 30
0.0
  0
SPLINE
  5
1F9
330
1F
100
AcDbEntity
  8
0
  6
Continuous
 62
     7
370
    15
100
AcDbSpline
210
0.0
220
0.0
230
1.0
 70
     8
 71
     3
 72
    36
 73
    32
 74
     0
 42
0.00000001
 43
0.00000001
 40
0.0
 40
0.0
 40
0.0
 40
0.0
 40
0.015625
 40
0.015625
 40
0.03125
 40
0.03125
 40
0.0625
 40
0.0625
 40
0.078125
 40
0.078125
 40
0.09375
 40
0.125
 40
0.125
 40
0.2500000000000001
 40
0.2500000000000001
 40
0.5
 40
0.5
 40
0.7499999999999999
 40
0.7499999999999999
 40
0.8749999999999998
 40
0.8749999999999998
 40
0.9062499999999999
 40
0.921875
 40
0.921875
 40
0.9375000000000001
 40
0.9375000000000001
 40
0.9687500000000001
 40
0.9687500000000001
 40
0.984375
 40
0.984375
 40
1.0
 40
1.0
 40
1.0
 40
1.0
 10
188.7339675356643
 20
425.7986778905999
 30
0.0
 10
188.8243684716956
 20
426.5102106900028
 30
0.0
 10
188.8985401776698
 20
427.224120056982
 30
0.0
 10
189.0260585924855
 20
428.6550199010064
 30
0.0
 10
189.078807961623
 20
429.3720984883094
 30
0.0
 10
189.2101899764722
 20
431.5273484076871
 30
0.0
 10
189.2623652053834
 20
432.9694762326283
 30
0.0
 10
189.2963881590843
 20
435.139361261954
 30
0.0
 10
189.2980381923372
 20
435.8641208886664
 30
0.0
 10
189.3043736543648
 20
437.3131815172281
 30
0.0
 10
189.3138470751497
 20
439.4867737602308
 30
0.0
 10
189.3232022328687
 20
441.6603672344709
 30
0.0
 10
189.3539809224007
 20
448.9056838121431
 30
0.0
 10
189.3773189874654
 20
454.7019540788631
 30
0.0
 10
189.4372239331348
 20
472.09087059474
 30
0.0
 10
189.4622517508224
 20
483.6836073809494
 30
0.0
 10
189.4619764041271
 20
506.8690565739289
 30
0.0
 10
189.4366983019431
 20
518.4618482863651
 30
0.0
 10
189.3767002345089
 20
535.8507644964844
 30
0.0
 10
189.353369783892
 20
541.6470385036399
 30
0.0
 10
189.3226294001199
 20
548.8923584725852
 30
0.0
 10
189.3132877837506
 20
551.065952982459
 30
0.0
 10
189.3038302293038
 20
553.2395460727946
 30
0.0
 10
189.2975057790979
 20
554.6886078978471
 30
0.0
 10
189.2952591076561
 20
555.413288755015
 30
0.0
 10
189.2588135369768
 20
557.5824966343081
 30
0.0
 10
189.2052089215837
 20
559.023861855195
 30
0.0
 10
189.0726014526228
 20
561.1775104709556
 30
0.0
 10
189.0196451436216
 20
561.893985774341
 30
0.0
 10
188.8922301944112
 20
563.3235132177934
 30
0.0
 10
188.8183137761275
 20
564.0366515402357
 30
0.0
 10
188.7290137739221
 20
564.7473661225855
 30
0.0
  0
SPLINE
  5
1FA
330
1F
100
AcDbEntity
  8
0
  6
Continuous
 62
     7
370
    15
100
AcDbSpline
210
0.0
220
0.0
230
1.0
 70
     8
 71
     3
 72
    26
 73
    22
 74
     0
 42
0.00000001
 43
0.00000001
 40
0.0
 40
0.0
 40
0.0
 40
0.0
 40
0.0078125
 40
0.0078125
 40
0.015625
 40
0.03125
 40
0.0625
 40
0.0625
 40
0.1249999999999982
 40
0.1249999999999982
 40
0.2499999999999962
 40
0.2499999999999962
 40
0.4999999999999957
 40
0.4999999999999957
 40
0.7499999999999951
 40
0.7499999999999951
 40
0.8749999999999963
 40
0.8749999999999963
 40
0.9374999999999982
 40
0.9374999999999982
 40
1.0
 40
1.0
 40
1.0
 40
1.0
 10
333.4220635594535
 20
554.8773888535355
 30
0.0
 10
333.4204943614278
 20
554.907624964857
 30
0.0
 10
333.4163708977317
 20
554.9378706245634
 30
0.0
 10
333.4106866950883
 20
554.9983503035229
 30
0.0
 10
333.4021695363909
 20
555.0890675589173
 30
0.0
 10
333.3823739511716
 20
555.3007260342208
 30
0.0
 10
333.3655853067293
 20
555.4821240792419
 30
0.0
 10
333.3323539798778
 20
555.8448947337345
 30
0.0
 10
333.3106653817051
 20
556.086708094607
 30
0.0
 10
333.2476811741109
 20
556.8120875165491
 30
0.0
 10
333.2079883687194
 20
557.2955618157
 30
0.0
 10
333.098561244911
 20
558.7458236479445
 30
0.0
 10
333.0327767462894
 20
559.7120975053482
 30
0.0
 10
332.9024894026891
 20
561.6423370703824
 30
0.0
 10
332.8414026290311
 20
562.606546447896
 30
0.0
 10
332.7340431948946
 20
564.0495450234806
 30
0.0
 10
332.6976016501216
 20
564.5301245259228
 30
0.0
 10
332.6338810845173
 20
565.2497022997051
 30
0.0
 10
332.6108988461843
 20
565.4893291436069
 30
0.0
 10
332.5581651309767
 20
565.9678480733517
 30
0.0
 10
332.5274703594752
 20
566.2066694055715
 30
0.0
 10
332.4969848850039
 20
566.4453606995651
 30
0.0
  0
SPLINE
  5
1FD
330
1F
100
AcDbEntity
  8
0
  6
Continuous
 62
     7
370
    15
100
AcDbSpline
210
0.0
220
0.0
230
1.0
 70
     8
 71
     3
 72
    20
 73
    16
 74
     0
 42
0.00000001
 43
0.00000001
 40
0.0
 40
0.0
 40
0.0
 40
0.0
 40
0.0624999999999993
 40
0.0624999999999993
 40
0.1249999999999985
 40
0.1249999999999985
 40
0.2499999999999983
 40
0.2499999999999983
 40
0.4999999999999978
 40
0.4999999999999978
 40
0.7499999999999972
 40
0.7499999999999972
 40
0.8749999999999986
 40
0.8749999999999986
 40
1.0
 40
1.0
 40
1.0
 40
1.0
 10
332.5163870629083
 20
424.0859356546483
 30
0.0
 10
332.5475891994067
 20
424.322485434833
 30
0.0
 10
332.5787915360165
 20
424.5591849612732
 30
0.0
 10
332.6316099878218
 20
425.0335201876991
 30
0.0
 10
332.654527465234
 20
425.2710611384583
 30
0.0
 10
332.717843491952
 20
425.9843943549807
 30
0.0
 10
332.7537155961626
 20
426.4608307248636
 30
0.0
 10
332.8586388955372
 20
427.8914520788322
 30
0.0
 10
332.9186930250684
 20
428.8473664306338
 30
0.0
 10
333.0460455523394
 20
430.7610922784913
 30
0.0
 10
333.1097584749214
 20
431.7191510143599
 30
0.0
 10
333.2159111644974
 20
433.1570982349378
 30
0.0
 10
333.2544425093635
 20
433.6364735707216
 30
0.0
 10
333.3360818267319
 20
434.5954500580179
 30
0.0
 10
333.3796273550668
 20
435.0766579122429
 30
0.0
 10
333.4233038054913
 20
435.5548304613266
 30
0.0
  0
SPLINE
  5
1FE
330
1F
100
AcDbEntity
  8
0
  6
Continuous
 62
     7
370
    15
100
AcDbSpline
210
0.0
220
0.0
230
1.0
 70
     8
 71
     3
 72
    25
 73
    21
 74
     0
 42
0.00000001
 43
0.00000001
 40
0.0
 40
0.0
 40
0.0
 40
0.0
 40
0.0009765625
 40
0.0009765625
 40
0.001953125
 40
0.00390625
 40
0.0078125000000001
 40
0.0156250000000001
 40
0.0312500000000003
 40
0.0625000000000004
 40
0.0625000000000004
 40
0.1250000000000004
 40
0.1250000000000004
 40
0.2500000000000003
 40
0.2500000000000003
 40
0.5000000000000002
 40
0.5000000000000002
 40
0.7500000000000001
 40
0.7500000000000001
 40
1.0
 40
1.0
 40
1.0
 40
1.0
 10
333.4233038054913
 20
435.5548304613266
 30
0.0
 10
333.4251457468034
 20
435.5936544360968
 30
0.0
 10
333.424029450411
 20
435.6325127848626
 30
0.0
 10
333.4247550834818
 20
435.7101951090181
 30
0.0
 10
333.4258435201938
 20
435.8267185958305
 30
0.0
 10
333.4283830935998
 20
436.0986067359769
 30
0.0
 10
333.4334616141787
 20
436.6423830348423
 30
0.0
 10
333.4436147139531
 20
437.7299357195708
 30
0.0
 10
333.4638933559501
 20
439.9050415411056
 30
0.0
 10
333.4811863085661
 20
441.769419100156
 30
0.0
 10
333.5155304853656
 20
445.4981768157198
 30
0.0
 10
333.5381086263041
 20
447.9840187224924
 30
0.0
 10
333.6037371769426
 20
455.4415646405129
 30
0.0
 10
333.6446393625749
 20
460.413289207608
 30
0.0
 10
333.7486900777127
 20
475.328629557757
 30
0.0
 10
333.7908326579825
 20
485.2723335418105
 30
0.0
 10
333.7899651951055
 20
505.159705908364
 30
0.0
 10
333.7470271674623
 20
515.1034971064453
 30
0.0
 10
333.607903835547
 20
534.9906340386565
 30
0.0
 10
333.5144907780738
 20
544.9340555016599
 30
0.0
 10
333.4220635594535
 20
554.8773888535355
 30
0.0
  0
SPLINE
  5
1FF
330
1F
100
AcDbEntity
  8
0
  6
Continuous
 62
     7
370
    15
100
AcDbSpline
210
0.0
220
0.0
230
1.0
 70
     8
 71
     3
 72
    26
 73
    22
 74
     0
 42
0.00000001
 43
0.00000001
 40
0.0
 40
0.0
 40
0.0
 40
0.0
 40
0.0624999999999996
 40
0.0624999999999996
 40
0.1249999999999993
 40
0.1249999999999993
 40
0.2499999999999982
 40
0.2499999999999982
 40
0.4999999999999988
 40
0.4999999999999988
 40
0.7499999999999994
 40
0.7499999999999994
 40
0.8749999999999999
 40
0.8749999999999999
 40
0.9374999999999999
 40
0.9374999999999999
 40
0.9687499999999991
 40
0.9843749999999996
 40
0.9921874999999997
 40
0.9921874999999997
 40
1.0
 40
1.0
 40
1.0
 40
1.0
 10
195.6426911573591
 20
566.4453606995665
 30
0.0
 10
195.6122056828878
 20
566.2066694055728
 30
0.0
 10
195.5815109113867
 20
565.9678480733537
 30
0.0
 10
195.5287771961794
 20
565.489329143609
 30
0.0
 10
195.5057949578454
 20
565.2497022997071
 30
0.0
 10
195.4420743922367
 20
564.5301245259249
 30
0.0
 10
195.4056328474678
 20
564.0495450234823
 30
0.0
 10
195.2982734133312
 20
562.6065464478975
 30
0.0
 10
195.2371866396666
 20
561.6423370703841
 30
0.0
 10
195.1068992960776
 20
559.7120975053489
 30
0.0
 10
195.0411147974533
 20
558.7458236479451
 30
0.0
 10
194.9316876736429
 20
557.2955618157006
 30
0.0
 10
194.8919948682524
 20
556.8120875165495
 30
0.0
 10
194.8290106606584
 20
556.0867080946073
 30
0.0
 10
194.8073220624866
 20
555.8448947337346
 30
0.0
 10
194.7740907356347
 20
555.4821240792421
 30
0.0
 10
194.757302091191
 20
555.3007260342209
 30
0.0
 10
194.7375065059725
 20
555.0890675589173
 30
0.0
 10
194.7289893472751
 20
554.998350303523
 30
0.0
 10
194.7233051446316
 20
554.9378706245635
 30
0.0
 10
194.7191816809404
 20
554.9076249648887
 30
0.0
 10
194.7176124829095
 20
554.8773888535355
 30
0.0
  0
SPLINE
  5
200
330
1F
100
AcDbEntity
  8
0
  6
Continuous
 62
     7
370
    15
100
AcDbSpline
210
0.0
220
0.0
230
1.0
 70
     8
 71
     3
 72
    25
 73
    21
 74
     0
 42
0.00000001
 43
0.00000001
 40
0.0
 40
0.0
 40
0.0
 40
0.0
 40
0.2499999999999999
 40
0.2499999999999999
 40
0.4999999999999998
 40
0.4999999999999998
 40
0.7499999999999998
 40
0.7499999999999998
 40
0.8749999999999998
 40
0.8749999999999998
 40
0.9374999999999998
 40
0.9374999999999998
 40
0.9687499999999998
 40
0.9843749999999999
 40
0.9921874999999999
 40
0.99609375
 40
0.9980468750000001
 40
0.9990234375000001
 40
0.9990234375000001
 40
1.0
 40
1.0
 40
1.0
 40
1.0
 10
194.7176124829095
 20
554.8773888535355
 30
0.0
 10
194.6251851545974
 20
544.9340443700194
 30
0.0
 10
194.5317726112833
 20
534.990681100559
 30
0.0
 10
194.3926491122583
 20
515.1035417908314
 30
0.0
 10
194.349710962699
 20
505.1597443171776
 30
0.0
 10
194.3488432726415
 20
485.2723800046725
 30
0.0
 10
194.3909856104941
 20
475.3286934532712
 30
0.0
 10
194.4950362846296
 20
460.4133392881859
 30
0.0
 10
194.5359385555117
 20
455.4416009792601
 30
0.0
 10
194.6015672273435
 20
447.9840396052533
 30
0.0
 10
194.6241454116106
 20
445.4981927100837
 30
0.0
 10
194.6584896458187
 20
441.7694285971365
 30
0.0
 10
194.6757826260214
 20
439.9050480268389
 30
0.0
 10
194.6960612986413
 20
437.7299389093328
 30
0.0
 10
194.7062144133979
 20
436.6423846182096
 30
0.0
 10
194.7112929413937
 20
436.0986075249921
 30
0.0
 10
194.7138325184898
 20
435.8267189896909
 30
0.0
 10
194.71492095678
 20
435.7101953339393
 30
0.0
 10
194.7156465909021
 20
435.6325128972474
 30
0.0
 10
194.7145302930688
 20
435.5936544795503
 30
0.0
 10
194.7163722368723
 20
435.5548304613275
 30
0.0
  0
SPLINE
  5
201
330
1F
100
AcDbEntity
  8
0
  6
Continuous
 62
     7
370
    15
100
AcDbSpline
210
0.0
220
0.0
230
1.0
 70
     8
 71
     3
 72
    20
 73
    16
 74
     0
 42
0.00000001
 43
0.00000001
 40
0.0
 40
0.0
 40
0.0
 40
0.0
 40
0.1249999999999995
 40
0.1249999999999995
 40
0.2499999999999991
 40
0.2499999999999991
 40
0.4999999999999983
 40
0.4999999999999983
 40
0.7499999999999976
 40
0.7499999999999976
 40
0.8749999999999992
 40
0.8749999999999992
 40
0.9374999999999996
 40
0.9374999999999996
 40
1.0
 40
1.0
 40
1.0
 40
1.0
 10
194.7163722368723
 20
435.5548304613275
 30
0.0
 10
194.7600486844487
 20
435.0766579119119
 30
0.0
 10
194.8035942156297
 20
434.5954500580185
 30
0.0
 10
194.8852335329992
 20
433.6364735707222
 30
0.0
 10
194.9237648778655
 20
433.1570982349382
 30
0.0
 10
195.0299175674416
 20
431.7191510143601
 30
0.0
 10
195.0936304900298
 20
430.7610922784909
 30
0.0
 10
195.220983017289
 20
428.8473664306322
 30
0.0
 10
195.2810371468257
 20
427.8914520788319
 30
0.0
 10
195.3859604462003
 20
426.460830724863
 30
0.0
 10
195.4218325504097
 20
425.9843943549801
 30
0.0
 10
195.4851485771284
 20
425.2710611384575
 30
0.0
 10
195.5080660545424
 20
425.0335201876985
 30
0.0
 10
195.5608845063475
 20
424.5591849612724
 30
0.0
 10
195.5920868429577
 20
424.3224854348321
 30
0.0
 10
195.6232889794554
 20
424.0859356546473
 30
0.0
  0
SPLINE
  5
206
330
1F
100
AcDbEntity
  8
0
  6
Continuous
 62
     7
370
    15
100
AcDbSpline
210
0.0
220
0.0
230
1.0
 70
     8
 71
     3
 72
    16
 73
    12
 74
     0
 42
0.00000001
 43
0.00000001
 40
0.0
 40
0.0
 40
0.0
 40
0.0
 40
0.2500000000000033
 40
0.2500000000000033
 40
0.5000000000000066
 40
0.5000000000000066
 40
0.6250000000000064
 40
0.6250000000000064
 40
0.7500000000000062
 40
0.7500000000000062
 40
1.0
 40
1.0
 40
1.0
 40
1.0
 10
195.6232889794555
 20
424.0859356546475
 30
0.0
 10
195.8821292534336
 20
424.0899710893661
 30
0.0
 10
196.1408912512743
 20
424.0876683459757
 30
0.0
 10
196.6579150144074
 20
424.0594672485178
 30
0.0
 10
196.9173584763304
 20
424.0341317339726
 30
0.0
 10
197.3017801893273
 20
423.9591449677782
 30
0.0
 10
197.4278641442235
 20
423.927507560938
 30
0.0
 10
197.6775649396532
 20
423.8563172342445
 30
0.0
 10
197.8009186536498
 20
423.8159087032855
 30
0.0
 10
198.165020006489
 20
423.6755070007172
 30
0.0
 10
198.4017153039011
 20
423.5547778820658
 30
0.0
 10
198.6058540199158
 20
423.400017834858
 30
0.0
  0
SPLINE
  5
207
330
1F
100
AcDbEntity
  8
0
  6
Continuous
 62
     7
370
    15
100
AcDbSpline
210
0.0
220
0.0
230
1.0
 70
     8
 71
     3
 72
    10
 73
     6
 74
     0
 42
0.00000001
 43
0.00000001
 40
0.0
 40
0.0
 40
0.0
 40
0.0
 40
0.4999999999999999
 40
0.4999999999999999
 40
1.0
 40
1.0
 40
1.0
 40
1.0
 10
198.6058540199158
 20
423.400017834858
 30
0.0
 10
209.5163407458818
 20
423.3101882156471
 30
0.0
 10
220.4268384755371
 20
423.2210680142471
 30
0.0
 10
242.2481767815257
 20
423.0905067881951
 30
0.0
 10
253.1589559538904
 20
423.0510217190778
 30
0.0
 10
264.0698380211815
 20
423.0510217190778
 30
0.0
  0
SPLINE
  5
209
330
1F
100
AcDbEntity
  8
0
  6
Continuous
 62
     7
370
    15
100
AcDbSpline
210
0.0
220
0.0
230
1.0
 70
     8
 71
     3
 72
    10
 73
     6
 74
     0
 42
0.00000001
 43
0.00000001
 40
0.0
 40
0.0
 40
0.0
 40
0.0
 40
0.5
 40
0.5
 40
1.0
 40
1.0
 40
1.0
 40
1.0
 10
264.0698380211815
 20
423.0510217190777
 30
0.0
 10
274.9807153009983
 20
423.0510217190777
 30
0.0
 10
285.8914888401372
 20
423.0905067473221
 30
0.0
 10
307.7128188317053
 20
423.2210678806754
 30
0.0
 10
318.6233628428288
 20
423.3101884521033
 30
0.0
 10
329.5338220224472
 20
423.400017834858
 30
0.0
  0
SPLINE
  5
20A
330
1F
100
AcDbEntity
  8
0
  6
Continuous
 62
     7
370
    15
100
AcDbSpline
210
0.0
220
0.0
230
1.0
 70
     8
 71
     3
 72
    20
 73
    16
 74
     0
 42
0.00000001
 43
0.00000001
 40
0.0
 40
0.0
 40
0.0
 40
0.0
 40
0.0625000000000036
 40
0.0625000000000036
 40
0.1250000000000072
 40
0.1250000000000072
 40
0.2500000000000054
 40
0.2500000000000054
 40
0.3750000000000037
 40
0.3750000000000037
 40
0.5000000000000019
 40
0.5000000000000019
 40
0.7500000000000009
 40
0.7500000000000009
 40
1.0
 40
1.0
 40
1.0
 40
1.0
 10
329.5338220224472
 20
423.400017834858
 30
0.0
 10
329.5846978071451
 20
423.4385873863403
 30
0.0
 10
329.6393075556132
 20
423.4762548716211
 30
0.0
 10
329.7486611737531
 20
423.5452958934986
 30
0.0
 10
329.8045584748734
 20
423.5775446023947
 30
0.0
 10
329.9754043717783
 20
423.6684199853128
 30
0.0
 10
330.0934822643961
 20
423.7212217774533
 30
0.0
 10
330.3360225555423
 20
423.8149578347458
 30
0.0
 10
330.4611392016498
 20
423.8560393495522
 30
0.0
 10
330.7127282008538
 20
423.9277695942301
 30
0.0
 10
330.8390548969119
 20
423.9593797464067
 30
0.0
 10
331.2207571793557
 20
424.0338099508729
 30
0.0
 10
331.4784472953162
 20
424.0592014270512
 30
0.0
 10
331.996735275534
 20
424.087640753211
 30
0.0
 10
332.2570386776076
 20
424.0899790110468
 30
0.0
 10
332.5163870629081
 20
424.0859356546472
 30
0.0
  0
SPLINE
  5
20B
330
1F
100
AcDbEntity
  8
0
  6
Continuous
 62
     7
370
    15
100
AcDbSpline
210
0.0
220
0.0
230
1.0
 70
     8
 71
     3
 72
    16
 73
    12
 74
     0
 42
0.00000001
 43
0.00000001
 40
0.0
 40
0.0
 40
0.0
 40
0.0
 40
0.2499999999999997
 40
0.2499999999999997
 40
0.4999999999999994
 40
0.4999999999999994
 40
0.7499999999999991
 40
0.7499999999999991
 40
0.8749999999999996
 40
0.8749999999999996
 40
1.0
 40
1.0
 40
1.0
 40
1.0
 10
332.4969848850034
 20
566.4453606995664
 30
0.0
 10
332.2409336284741
 20
566.4423782643498
 30
0.0
 10
331.9850376380712
 20
566.4456144994747
 30
0.0
 10
331.4740035112956
 20
566.47491046423
 30
0.0
 10
331.2188372539573
 20
566.5002727028034
 30
0.0
 10
330.7102765746417
 20
566.5984548232304
 30
0.0
 10
330.4617674813504
 20
566.6665986346827
 30
0.0
 10
330.0997771008788
 20
566.7990864774745
 30
0.0
 10
329.9810013111205
 20
566.848991082133
 30
0.0
 10
329.7489771568595
 20
566.9644216681882
 30
0.0
 10
329.6361333298563
 20
567.0300708561151
 30
0.0
 10
329.5321142313311
 20
567.1026666406153
 30
0.0
  0
SPLINE
  5
20C
330
1F
100
AcDbEntity
  8
0
  6
Continuous
 62
     7
370
    15
100
AcDbSpline
210
0.0
220
0.0
230
1.0
 70
     8
 71
     3
 72
    23
 73
    19
 74
     0
 42
0.00000001
 43
0.00000001
 40
0.0
 40
0.0
 40
0.0
 40
0.0
 40
0.00048828125
 40
0.00048828125
 40
0.0009765625
 40
0.001953125
 40
0.00390625
 40
0.0078125
 40
0.015625
 40
0.0312499999999999
 40
0.0624999999999998
 40
0.1249999999999996
 40
0.1249999999999996
 40
0.2499999999999996
 40
0.2499999999999996
 40
0.4999999999999996
 40
0.4999999999999996
 40
1.0
 40
1.0
 40
1.0
 40
1.0
 10
329.5321142313311
 20
567.1026666406153
 30
0.0
 10
329.5214638677632
 20
567.1032673039122
 30
0.0
 10
329.510805226987
 20
567.1028501765408
 30
0.0
 10
329.4894962226606
 20
567.1030337154991
 30
0.0
 10
329.457532716204
 20
567.1033090269539
 30
0.0
 10
329.3829512013651
 20
567.1039514411104
 30
0.0
 10
329.2337881725715
 20
567.1052363496063
 30
0.0
 10
328.9354621183375
 20
567.1078064643125
 30
0.0
 10
328.3388100218107
 20
567.1129476992371
 30
0.0
 10
327.1455058645863
 20
567.1232326889187
 30
0.0
 10
324.7588975954172
 20
567.1438004196372
 30
0.0
 10
322.7132330970915
 20
567.1613826645779
 30
0.0
 10
318.6219027151903
 20
567.196355386401
 30
0.0
 10
315.8943473166076
 20
567.2194192076065
 30
0.0
 10
307.7116660736403
 20
567.2866588776727
 30
0.0
 10
302.2565252094598
 20
567.3288841340801
 30
0.0
 10
285.8909561393465
 20
567.4370933874876
 30
0.0
 10
274.9804517766462
 20
567.4826690049277
 30
0.0
 10
264.0698103347207
 20
567.4826691347115
 30
0.0
  0
SPLINE
  5
20F
330
1F
100
AcDbEntity
  8
0
  6
Continuous
 62
     7
370
    15
100
AcDbSpline
210
0.0
220
0.0
230
1.0
 70
     8
 71
     3
 72
    23
 73
    19
 74
     0
 42
0.00000001
 43
0.00000001
 40
0.0
 40
0.0
 40
0.0
 40
0.0
 40
0.4999999999999993
 40
0.4999999999999993
 40
0.749999999999999
 40
0.749999999999999
 40
0.8749999999999987
 40
0.8749999999999987
 40
0.9374999999999986
 40
0.9687499999999987
 40
0.9843749999999988
 40
0.9921874999999988
 40
0.9960937499999988
 40
0.9980468749999991
 40
0.9990234374999992
 40
0.9995117187499997
 40
0.9995117187499997
 40
1.0
 40
1.0
 40
1.0
 40
1.0
 10
264.0698657076424
 20
567.482669134711
 30
0.0
 10
253.1592286508841
 20
567.4826690049273
 30
0.0
 10
242.2487293365822
 20
567.4370934295985
 30
0.0
 10
225.8831662197164
 20
567.3288842459496
 30
0.0
 10
220.4280210503469
 20
567.2866589662309
 30
0.0
 10
212.2453348846463
 20
567.2194192594674
 30
0.0
 10
209.517778001867
 20
567.1963554261478
 30
0.0
 10
205.4264456737314
 20
567.1613826880068
 30
0.0
 10
203.3807802936103
 20
567.1438004355446
 30
0.0
 10
200.9941710840011
 20
567.1232326967302
 30
0.0
 10
199.80086647046
 20
567.1129477031147
 30
0.0
 10
199.2042141482517
 20
567.107806466244
 30
0.0
 10
198.9058879816739
 20
567.10523635057
 30
0.0
 10
198.7567248968174
 20
567.1039514415914
 30
0.0
 10
198.6821433539725
 20
567.1033090271933
 30
0.0
 10
198.6501798355185
 20
567.1030337156353
 30
0.0
 10
198.6288708231952
 20
567.1028501766081
 30
0.0
 10
198.6182121400898
 20
567.103267302029
 30
0.0
 10
198.6075618110323
 20
567.1026666406149
 30
0.0
  0
SPLINE
  5
210
330
1F
100
AcDbEntity
  8
0
  6
Continuous
 62
     7
370
    15
100
AcDbSpline
210
0.0
220
0.0
230
1.0
 70
     8
 71
     3
 72
    18
 73
    14
 74
     0
 42
0.00000001
 43
0.00000001
 40
0.0
 40
0.0
 40
0.0
 40
0.0
 40
0.0625000000000046
 40
0.0625000000000046
 40
0.1250000000000092
 40
0.1250000000000092
 40
0.2500000000000099
 40
0.2500000000000099
 40
0.5000000000000066
 40
0.5000000000000066
 40
0.7500000000000033
 40
0.7500000000000033
 40
1.0
 40
1.0
 40
1.0
 40
1.0
 10
198.6075618110323
 20
567.1026666406149
 30
0.0
 10
198.5555774563062
 20
567.0663863342533
 30
0.0
 10
198.5000752081395
 20
567.0309878253345
 30
0.0
 10
198.389324073464
 20
566.9660488862403
 30
0.0
 10
198.3329206920155
 20
566.9357025928006
 30
0.0
 10
198.1610638276088
 20
566.8501298245657
 30
0.0
 10
198.0429848415565
 20
566.8003256609134
 30
0.0
 10
197.6807422602989
 20
566.6674203050142
 30
0.0
 10
197.4277878353668
 20
566.5981542282523
 30
0.0
 10
196.9227697460391
 20
566.5006349530041
 30
0.0
 10
196.6680123459707
 20
566.4751092891488
 30
0.0
 10
196.1564813354103
 20
566.4456559847725
 30
0.0
 10
195.8993045654318
 20
566.4423717165156
 30
0.0
 10
195.642691157359
 20
566.4453606995645
 30
0.0
  0
CIRCLE
  5
21B
330
1F
100
AcDbEntity
  8
0
  6
Continuous
 62
     7
370
    15
100
AcDbCircle
 10
264.0698380212
 20
495.2668454371
 30
0.0
 40
21.9999998926412
  0
SPLINE
  5
21C
330
1F
100
AcDbEntity
  8
0
  6
Continuous
 62
     7
370
    15
100
AcDbSpline
210
0.0
220
0.0
230
1.0
 70
     8
 71
     3
 72
    13
 73
     9
 74
     0
 42
0.00000001
 43
0.00000001
 40
0.0
 40
0.0
 40
0.0
 40
0.0
 40
0.0064030160197604
 40
0.2624232488757296
 40
0.4823422199342761
 40
0.668093580092473
 40
0.8364619629171722
 40
1.0
 40
1.0
 40
1.0
 40
1.0
 10
239.0809092114195
 20
667.6562484226647
 30
0.0
 10
239.0772394351616
 20
667.6397127161979
 30
0.0
 10
238.9268361556315
 20
666.9620080532593
 30
0.0
 10
239.4013610051788
 20
665.6739222705805
 30
0.0
 10
240.3743596885264
 20
664.041807274094
 30
0.0
 10
241.8371622105689
 20
662.8399735912544
 30
0.0
 10
243.585237357695
 20
662.0263086500456
 30
0.0
 10
244.9147539417186
 20
661.916409562545
 30
0.0
 10
245.5698377827629
 20
661.8622597179833
 30
0.0
  0
SPLINE
  5
21E
330
1F
100
AcDbEntity
  8
0
  6
Continuous
 62
     7
370
    15
100
AcDbSpline
210
0.0
220
0.0
230
1.0
 70
     8
 71
     3
 72
    13
 73
     9
 74
     0
 42
0.00000001
 43
0.00000001
 40
0.0
 40
0.0
 40
0.0
 40
0.0
 40
0.0693480134386863
 40
0.2209012950096494
 40
0.2587035011012941
 40
0.4549678751191474
 40
0.7277121582198873
 40
1.0
 40
1.0
 40
1.0
 40
1.0
 10
282.5698382596001
 20
661.8622597179833
 30
0.0
 10
282.8460908590609
 20
661.8719335690689
 30
0.0
 10
283.7260664192062
 20
661.9027486728702
 30
0.0
 10
284.7148856850453
 20
662.1632589307034
 30
0.0
 10
286.0180836069288
 20
662.7076770717248
 30
0.0
 10
287.4666010417164
 20
663.687155254285
 30
0.0
 10
288.8036229021795
 20
665.5021158144339
 30
0.0
 10
288.9771399218907
 20
666.9386250933628
 30
0.0
 10
289.0638257751688
 20
667.6562782249871
 30
0.0
  0
ARC
  5
22E
330
1F
100
AcDbEntity
  8
0
  6
Continuous
 62
     7
370
    15
100
AcDbCircle
 10
957.5786983505
 20
204.7107626641
 30
0.0
 40
4.999971965135317
100
AcDbArc
 50
90.0067113602
 51
152.1944523655
  0
ARC
  5
22F
330
1F
100
AcDbEntity
  8
0
  6
Continuous
 62
     7
370
    15
100
AcDbCircle
 10
555.8534153445
 20
204.7107754243
 30
0.0
 40
4.999959197979821
100
AcDbArc
 50
27.8276740915
 51
89.9940100909
  0
SPLINE
  5
230
330
1F
100
AcDbEntity
  8
0
  6
Continuous
 62
     7
370
    15
100
AcDbSpline
210
0.0
220
0.0
230
1.0
 70
    24
 71
     1
 72
     4
 73
     2
 74
     0
 42
0.00000001
 43
0.00000001
 40
0.0
 40
0.0
 40
1.0
 40
1.0
 10
714.3777844760544
 20
57.14967164799111
 30
0.0
 10
716.5209141824372
 20
26.50146994396584
 30
0.0
  0
SPLINE
  5
231
330
1F
100
AcDbEntity
  8
0
  6
Continuous
 62
     7
370
    15
100
AcDbSpline
210
0.0
220
0.0
230
1.0
 70
    24
 71
     1
 72
     4
 73
     2
 74
     0
 42
0.00000001
 43
0.00000001
 40
0.0
 40
0.0
 40
1.0
 40
1.0
 10
796.9112110588677
 20
26.50146994396584
 30
0.0
 10
797.2215873453744
 20
30.94009372993843
 30
0.0
  0
ARC
  5
232
330
1F
100
AcDbEntity
  8
0
  6
Continuous
 62
     7
370
    15
100
AcDbCircle
 10
793.9185173622
 20
26.7107346992
 30
0.0
 40
3.000000000000004
100
AcDbArc
 50
270.0
 51
356.0
  0
ARC
  5
233
330
1F
100
AcDbEntity
  8
0
  6
Continuous
 62
     7
370
    15
100
AcDbCircle
 10
719.5136078791
 20
26.7107346992
 30
0.0
 40
3.000000000000004
100
AcDbArc
 50
184.0
 51
270.0
  0
SPLINE
  5
234
330
1F
100
AcDbEntity
  8
0
  6
Continuous
 62
     7
370
    15
100
AcDbSpline
210
0.0
220
0.0
230
1.0
 70
     8
 71
     3
 72
    18
 73
    14
 74
     0
 42
0.00000001
 43
0.00000001
 40
0.0
 40
0.0
 40
0.0
 40
0.0
 40
0.04916565493237
 40
0.1962354255879888
 40
0.331668180999055
 40
0.456985369727312
 40
0.5725582372693553
 40
0.6780603919184001
 40
0.7725785195476701
 40
0.8546341842814961
 40
0.9222280293078983
 40
0.9731319742373054
 40
0.9999999999999999
 40
0.9999999999999999
 40
0.9999999999999999
 40
0.9999999999999999
 10
797.2555619928963
 20
30.94426605507271
 30
0.0
 10
797.2557186307102
 20
31.08842421099449
 30
0.0
 10
797.2563438209596
 20
31.66380426274414
 30
0.0
 10
797.5336231578381
 20
32.61146212897746
 30
0.0
 10
798.0241017809116
 20
33.7013015201182
 30
0.0
 10
798.6659889880298
 20
34.6054383920197
 30
0.0
 10
799.3822524105208
 20
35.32822851387903
 30
0.0
 10
800.1279594077508
 20
35.87911038190835
 30
0.0
 10
800.855287790058
 20
36.27446550471721
 30
0.0
 10
801.5214914119067
 20
36.53759653213547
 30
0.0
 10
802.0876119570393
 20
36.69488022277674
 30
0.0
 10
802.5058131223868
 20
36.7773341431256
 30
0.0
 10
802.7311499862941
 20
36.80556916166171
 30
0.0
 10
802.8089975271351
 20
36.81532356544869
 30
0.0
  0
ARC
  5
235
330
1F
100
AcDbEntity
  8
0
  6
Continuous
 62
     7
370
    15
100
AcDbCircle
 10
555.8534108908
 20
204.7107739995
 30
0.0
 40
4.999960623151142
100
AcDbArc
 50
27.8279614923
 51
89.9939590571
  0
LINE
  5
237
330
1F
100
AcDbEntity
  8
0
  6
Continuous
 62
     7
370
    15
100
AcDbLine
 10
972.2160597596
 20
220.7107346517
 30
0.0
 11
972.2160597596
 21
212.7107350866
 31
0.0
  0
LINE
  5
23A
330
1F
100
AcDbEntity
  8
0
  6
Continuous
 62
     7
370
    15
100
AcDbLine
 10
969.2160685811
 20
209.7107345949
 30
0.0
 11
946.2160666738
 21
209.7107345949
 31
0.0
  0
ARC
  5
23C
330
1F
100
AcDbEntity
  8
0
  6
Continuous
 62
     7
370
    15
100
AcDbCircle
 10
969.2160626207
 20
212.7107346992
 30
0.0
 40
3.0
100
AcDbArc
 50
270.0
 51
0.0
  0
LINE
  5
23D
330
1F
100
AcDbEntity
  8
0
  6
Continuous
 62
     7
370
    15
100
AcDbLine
 10
946.2160666738
 20
223.7107347942
 30
0.0
 11
969.2160685811
 21
223.7107347942
 31
0.0
  0
ARC
  5
23E
330
1F
100
AcDbEntity
  8
0
  6
Continuous
 62
     7
370
    15
100
AcDbCircle
 10
969.2160626207
 20
220.7107346992
 30
0.0
 40
3.0
100
AcDbArc
 50
0.0
 51
90.0
  0
LINE
  5
240
330
1F
100
AcDbEntity
  8
0
  6
Continuous
 62
     7
370
    15
100
AcDbLine
 10
946.2160666738
 20
209.7107345949
 30
0.0
 11
567.2160585675
 21
209.7107345949
 31
0.0
  0
LINE
  5
245
330
1F
100
AcDbEntity
  8
0
  6
Continuous
 62
     7
370
    15
100
AcDbLine
 10
567.2160585675
 20
223.7107347942
 30
0.0
 11
946.2160666738
 21
223.7107347942
 31
0.0
  0
LINE
  5
247
330
1F
100
AcDbEntity
  8
0
  6
Continuous
 62
     7
370
    15
100
AcDbLine
 10
544.2160566602
 20
223.7107347942
 30
0.0
 11
567.2160585675
 21
223.7107347942
 31
0.0
  0
ARC
  5
249
330
1F
100
AcDbEntity
  8
0
  6
Continuous
 62
     7
370
    15
100
AcDbCircle
 10
544.2160626207
 20
220.7107346992
 30
0.0
 40
3.000000000000114
100
AcDbArc
 50
90.0
 51
180.0
  0
LINE
  5
24B
330
1F
100
AcDbEntity
  8
0
  6
Continuous
 62
     7
370
    15
100
AcDbLine
 10
541.2160654817
 20
212.7107350866
 30
0.0
 11
541.2160654817
 21
220.7107346517
 31
0.0
  0
LINE
  5
24C
330
1F
100
AcDbEntity
  8
0
  6
Continuous
 62
     7
370
    15
100
AcDbLine
 10
567.2160585675
 20
209.7107345949
 30
0.0
 11
544.2160566602
 21
209.7107345949
 31
0.0
  0
ARC
  5
24D
330
1F
100
AcDbEntity
  8
0
  6
Continuous
 62
     7
370
    15
100
AcDbCircle
 10
544.2160626207
 20
212.7107346992
 30
0.0
 40
3.000000000000114
100
AcDbArc
 50
180.0
 51
270.0
  0
LINE
  5
24F
330
1F
100
AcDbEntity
  8
0
  6
Continuous
 62
     7
370
    15
100
AcDbLine
 10
938.2135917697
 20
209.7107345949
 30
0.0
 11
938.2135917697
 21
208.6657338555
 31
0.0
  0
LINE
  5
250
330
1F
100
AcDbEntity
  8
0
  6
Continuous
 62
     7
370
    15
100
AcDbLine
 10
575.2185334716
 20
209.7107345949
 30
0.0
 11
575.2185334716
 21
208.6657338555
 31
0.0
  0
LWPOLYLINE
  5
253
330
1F
100
AcDbEntity
  8
0
  6
Continuous
 62
     7
370
    15
100
AcDbPolyline
 90
       12
 70
   128
 43
0.0
 10
912.3986264024
 20
174.7687130015
 10
914.8585845981
 20
173.3752309124
 10
917.2764172111
 20
172.0980300347
 10
919.6106692109
 20
170.958996449
 10
921.8213607822
 20
169.9776395003
 10
923.870613173
 20
169.1707751493
 10
925.7233192477
 20
168.5522279482
 10
927.347739533
 20
168.1325963478
 10
928.7160535607
 20
167.9190664332
 10
929.8047920022
 20
167.9152964394
 10
930.5953135047
 20
168.1213534217
 10
931.0740878139
 20
168.5337058048
  0
SPLINE
  5
254
330
1F
100
AcDbEntity
  8
0
  6
Continuous
 62
     7
370
    15
100
AcDbSpline
210
0.0
220
0.0
230
1.0
 70
     8
 71
     3
 72
    18
 73
    14
 74
     0
 42
0.00000001
 43
0.00000001
 40
0.0
 40
0.0
 40
0.0
 40
0.0
 40
0.2500000000000021
 40
0.2500000000000021
 40
0.3750000000000031
 40
0.3750000000000031
 40
0.4375000000000028
 40
0.4375000000000028
 40
0.5000000000000024
 40
0.5000000000000024
 40
0.7500000000000013
 40
0.7500000000000013
 40
1.0
 40
1.0
 40
1.0
 40
1.0
 10
938.2135850892765
 20
208.6657343052881
 30
0.0
 10
936.6314706966377
 20
206.3523107916676
 30
0.0
 10
934.8853439103729
 20
203.8504932197014
 30
0.0
 10
932.0296498204527
 20
199.8677801914752
 30
0.0
 10
931.038111706178
 20
198.5015293084523
 30
0.0
 10
929.4908814128034
 20
196.3982462473908
 30
0.0
 10
928.9651410778741
 20
195.6881537563819
 30
0.0
 10
927.8934786688898
 20
194.2505086657913
 30
0.0
 10
927.3484996920785
 20
193.5242449391091
 30
0.0
 10
924.597158726496
 20
189.8826175988781
 30
0.0
 10
922.2946585658157
 20
186.9138976659817
 30
0.0
 10
917.4938128504156
 20
180.8967625066761
 30
0.0
 10
914.9953746792041
 20
177.848133651099
 30
0.0
 10
912.3986210112762
 20
174.7687121897805
 30
0.0
  0
SPLINE
  5
255
330
1F
100
AcDbEntity
  8
0
  6
Continuous
 62
     7
370
    15
100
AcDbSpline
210
0.0
220
0.0
230
1.0
 70
     8
 71
     3
 72
    18
 73
    14
 74
     0
 42
0.00000001
 43
0.00000001
 40
0.0
 40
0.0
 40
0.0
 40
0.0
 40
0.2499999999999994
 40
0.2499999999999994
 40
0.4999999999999989
 40
0.4999999999999989
 40
0.6249999999999984
 40
0.6249999999999984
 40
0.6874999999999984
 40
0.6874999999999984
 40
0.7499999999999986
 40
0.7499999999999986
 40
1.0
 40
1.0
 40
1.0
 40
1.0
 10
931.0740868917177
 20
168.5337067749487
 30
0.0
 10
933.2143132789042
 20
171.9708647537769
 30
0.0
 10
935.2796472039411
 20
175.3637614172812
 30
0.0
 10
939.2658724224714
 20
182.0523043841024
 30
0.0
 10
941.1867724508472
 20
185.3480055394394
 30
0.0
 10
943.9613108115603
 20
190.2077239142032
 30
0.0
 10
944.8683285539219
 20
191.81360746067
 30
0.0
 10
946.202030727687
 20
194.1994718404387
 30
0.0
 10
946.6421253234253
 20
194.9909287345694
 30
0.0
 10
947.5133282021127
 20
196.5657993840035
 30
0.0
 10
947.9438231239578
 20
197.3481147280784
 30
0.0
 10
950.0623999838402
 20
201.2176965395876
 30
0.0
 10
951.6572510619112
 20
204.1942526147713
 30
0.0
 10
953.1541545125884
 20
207.0390380567847
 30
0.0
  0
LWPOLYLINE
  5
256
330
1F
100
AcDbEntity
  8
0
  6
Continuous
 62
     7
370
    15
100
AcDbPolyline
 90
       12
 70
   128
 43
0.0
 10
601.0334988389
 20
174.7687130015
 10
598.5735406432
 20
173.3752309124
 10
596.1557080302
 20
172.0980300347
 10
593.8214560304
 20
170.958996449
 10
591.6107644591
 20
169.9776395003
 10
589.5615120683
 20
169.1707751493
 10
587.7088059936
 20
168.5522279482
 10
586.0843857083
 20
168.1325963478
 10
584.7160716806
 20
167.9190664332
 10
583.6273332391
 20
167.9152964394
 10
582.8368117366
 20
168.1213534217
 10
582.3580374274
 20
168.5337058048
  0
SPLINE
  5
257
330
1F
100
AcDbEntity
  8
0
  6
Continuous
 62
     7
370
    15
100
AcDbSpline
210
0.0
220
0.0
230
1.0
 70
     8
 71
     3
 72
    18
 73
    14
 74
     0
 42
0.00000001
 43
0.00000001
 40
0.0
 40
0.0
 40
0.0
 40
0.0
 40
0.249999999999999
 40
0.249999999999999
 40
0.3124999999999984
 40
0.3124999999999984
 40
0.3749999999999978
 40
0.3749999999999978
 40
0.499999999999998
 40
0.499999999999998
 40
0.749999999999999
 40
0.749999999999999
 40
1.0
 40
1.0
 40
1.0
 40
1.0
 10
560.2779707287123
 20
207.0390380567902
 30
0.0
 10
561.7748741793895
 20
204.1942526147766
 30
0.0
 10
563.3697252574607
 20
201.2176965395925
 30
0.0
 10
565.4883021173433
 20
197.3481147280828
 30
0.0
 10
565.9187970391886
 20
196.5657993840079
 30
0.0
 10
566.7899999178761
 20
194.9909287345735
 30
0.0
 10
567.2300945136145
 20
194.1994718404427
 30
0.0
 10
568.5637966873796
 20
191.8136074606736
 30
0.0
 10
569.4708144297415
 20
190.2077239142066
 30
0.0
 10
572.245352790455
 20
185.3480055394421
 30
0.0
 10
574.1662528188309
 20
182.0523043841046
 30
0.0
 10
578.152478037362
 20
175.3637614172824
 30
0.0
 10
580.2178119623992
 20
171.9708647537776
 30
0.0
 10
582.3580383495861
 20
168.5337067749487
 30
0.0
  0
SPLINE
  5
258
330
1F
100
AcDbEntity
  8
0
  6
Continuous
 62
     7
370
    15
100
AcDbSpline
210
0.0
220
0.0
230
1.0
 70
     8
 71
     3
 72
    18
 73
    14
 74
     0
 42
0.00000001
 43
0.00000001
 40
0.0
 40
0.0
 40
0.0
 40
0.0
 40
0.2500000000000007
 40
0.2500000000000007
 40
0.5000000000000013
 40
0.5000000000000013
 40
0.5625000000000009
 40
0.5625000000000009
 40
0.6250000000000006
 40
0.6250000000000006
 40
0.7499999999999998
 40
0.7499999999999998
 40
1.0
 40
1.0
 40
1.0
 40
1.0
 10
601.0335042300273
 20
174.7687121897806
 30
0.0
 10
598.4367505620997
 20
177.8481336510987
 30
0.0
 10
595.9383123908885
 20
180.8967625066755
 30
0.0
 10
591.1374666754889
 20
186.9138976659805
 30
0.0
 10
588.8349665148087
 20
189.8826175988765
 30
0.0
 10
586.0836255492264
 20
193.5242449391071
 30
0.0
 10
585.5386465724152
 20
194.2505086657893
 30
0.0
 10
584.4669841634309
 20
195.6881537563798
 30
0.0
 10
583.9412438285018
 20
196.3982462473886
 30
0.0
 10
582.3940135351273
 20
198.5015293084499
 30
0.0
 10
581.4024754208524
 20
199.8677801914728
 30
0.0
 10
578.5467813309325
 20
203.8504932196987
 30
0.0
 10
576.8006545446677
 20
206.3523107916647
 30
0.0
 10
575.2185401520289
 20
208.6657343052851
 30
0.0
  0
LINE
  5
259
330
1F
100
AcDbEntity
  8
0
  6
Continuous
 62
     7
370
    15
100
AcDbLine
 10
912.3986264024
 20
174.7687130015
 30
0.0
 11
601.0334988389
 21
174.7687130015
 31
0.0
  0
SPLINE
  5
25A
330
1F
100
AcDbEntity
  8
0
  6
Continuous
 62
     7
370
    15
100
AcDbSpline
210
0.0
220
0.0
230
1.0
 70
     8
 71
     3
 72
    20
 73
    16
 74
     0
 42
0.00000001
 43
0.00000001
 40
0.0
 40
0.0
 40
0.0
 40
0.0
 40
0.1249999999999999
 40
0.1249999999999999
 40
0.2499999999999999
 40
0.2499999999999999
 40
0.4999999999999993
 40
0.4999999999999993
 40
0.5624999999999973
 40
0.5624999999999973
 40
0.6249999999999953
 40
0.6249999999999953
 40
0.7499999999999961
 40
0.7499999999999961
 40
1.0
 40
1.0
 40
1.0
 40
1.0
 10
922.6938419039815
 20
155.4484130077632
 30
0.0
 10
922.9401048601096
 20
155.8223985657702
 30
0.0
 10
923.208277371071
 20
156.2305637563346
 30
0.0
 10
923.7734814159163
 20
157.0933563380851
 30
0.0
 10
924.0715754020904
 20
157.5495917173064
 30
0.0
 10
925.0073629978571
 20
158.9864315403013
 30
0.0
 10
925.6861233378677
 20
160.0344751381984
 30
0.0
 10
926.595645327674
 20
161.4498130058126
 30
0.0
 10
926.7808348755167
 20
161.7385102165795
 30
0.0
 10
927.1532123542354
 20
162.320118394666
 30
0.0
 10
927.3408852046533
 20
162.6137825497068
 30
0.0
 10
927.908112649685
 20
163.5030641038301
 30
0.0
 10
928.2918621710359
 20
164.106949079518
 30
0.0
 10
929.4585412634788
 20
165.9502558436173
 30
0.0
 10
930.2567318694978
 20
167.2210520235737
 30
0.0
 10
931.0740868917177
 20
168.5337067749486
 30
0.0
  0
ARC
  5
25B
330
1F
100
AcDbEntity
  8
0
  6
Continuous
 62
     7
370
    15
100
AcDbCircle
 10
908.7737016809
 20
164.9765503138
 30
0.0
 40
16.86877518069038
100
AcDbArc
 50
277.2322325106
 51
325.6089160826
  0
SPLINE
  5
25C
330
1F
100
AcDbEntity
  8
0
  6
Continuous
 62
     7
370
    15
100
AcDbSpline
210
0.0
220
0.0
230
1.0
 70
     8
 71
     3
 72
    12
 73
     8
 74
     0
 42
0.00000001
 43
0.00000001
 40
0.0
 40
0.0
 40
0.0
 40
0.0
 40
0.25
 40
0.25
 40
0.5
 40
0.5
 40
1.0
 40
1.0
 40
1.0
 40
1.0
 10
904.7619916469387
 20
149.690273278939
 30
0.0
 10
905.3130087835364
 20
149.4914859681952
 30
0.0
 10
905.8552856799913
 20
149.3125326370489
 30
0.0
 10
906.9227137309565
 20
148.9931746486599
 30
0.0
 10
907.4492509977175
 20
148.8524702158952
 30
0.0
 10
908.9917487604639
 20
148.4903358001398
 30
0.0
 10
909.9691303685935
 20
148.328443557579
 30
0.0
 10
910.8973348531301
 20
148.2419815278859
 30
0.0
  0
SPLINE
  5
25D
330
1F
100
AcDbEntity
  8
0
  6
Continuous
 62
     7
370
    15
100
AcDbSpline
210
0.0
220
0.0
230
1.0
 70
     8
 71
     3
 72
    14
 73
    10
 74
     0
 42
0.00000001
 43
0.00000001
 40
0.0
 40
0.0
 40
0.0
 40
0.0
 40
0.25
 40
0.25
 40
0.5
 40
0.5
 40
0.75
 40
0.75
 40
1.0
 40
1.0
 40
1.0
 40
1.0
 10
912.3986210112763
 20
174.7687121897805
 30
0.0
 10
911.6392632717087
 20
172.207736252455
 30
0.0
 10
910.9033176325041
 20
169.7465226099795
 30
0.0
 10
909.4784364674958
 20
165.0155822138627
 30
0.0
 10
908.7894705367017
 20
162.745804695734
 30
0.0
 10
907.4648457860205
 20
158.4104729230107
 30
0.0
 10
906.8524656918703
 20
156.4209946132487
 30
0.0
 10
905.7289014241204
 20
152.7897234434833
 30
0.0
 10
905.2174266621311
 20
151.1470486546824
 30
0.0
 10
904.7619916469375
 20
149.6902732789383
 30
0.0
  0
SPLINE
  5
25E
330
1F
100
AcDbEntity
  8
0
  6
Continuous
 62
     7
370
    15
100
AcDbSpline
210
0.0
220
0.0
230
1.0
 70
     8
 71
     3
 72
    14
 73
    10
 74
     0
 42
0.00000001
 43
0.00000001
 40
0.0
 40
0.0
 40
0.0
 40
0.0
 40
0.25
 40
0.25
 40
0.5
 40
0.5
 40
0.75
 40
0.75
 40
1.0
 40
1.0
 40
1.0
 40
1.0
 10
608.6701335943618
 20
149.6902732789374
 30
0.0
 10
609.663756857473
 20
149.9396026608636
 30
0.0
 10
610.686073157253
 20
150.1633869917576
 30
0.0
 10
612.7589657804451
 20
150.5477226875725
 30
0.0
 10
613.809178123211
 20
150.7085071810124
 30
0.0
 10
615.9355263726302
 20
150.965521050981
 30
0.0
 10
617.0116674177241
 20
151.061755795577
 30
0.0
 10
619.1887388116737
 20
151.1893928012913
 30
0.0
 10
620.2829675156885
 20
151.2203357918454
 30
0.0
 10
621.3780402007284
 20
151.2203357918454
 30
0.0
  0
SPLINE
  5
25F
330
1F
100
AcDbEntity
  8
0
  6
Continuous
 62
     7
370
    15
100
AcDbSpline
210
0.0
220
0.0
230
1.0
 70
     8
 71
     3
 72
    20
 73
    16
 74
     0
 42
0.00000001
 43
0.00000001
 40
0.0
 40
0.0
 40
0.0
 40
0.0
 40
0.2499999999999973
 40
0.2499999999999973
 40
0.3749999999999964
 40
0.3749999999999964
 40
0.4999999999999956
 40
0.4999999999999956
 40
0.6249999999999947
 40
0.6249999999999947
 40
0.6874999999999951
 40
0.6874999999999951
 40
0.7499999999999956
 40
0.7499999999999956
 40
1.0
 40
1.0
 40
1.0
 40
1.0
 10
608.6701335943661
 20
149.6902732789383
 30
0.0
 10
608.2180453042531
 20
151.1363436659923
 30
0.0
 10
607.7070692184525
 20
152.7772843646932
 30
0.0
 10
606.8572979255962
 20
155.5236947964993
 30
0.0
 10
606.558972292125
 20
156.4905498893855
 30
0.0
 10
605.945314385392
 20
158.4859301486012
 30
0.0
 10
605.628984282712
 20
159.517661005637
 30
0.0
 10
604.9782601666811
 20
161.6474197413098
 30
0.0
 10
604.6438643007856
 20
162.7454518464731
 30
0.0
 10
604.1290220872335
 20
164.4422390427256
 30
0.0
 10
603.9551959589153
 20
165.0161381893599
 30
0.0
 10
603.6031220229601
 20
166.1807108172232
 30
0.0
 10
603.4245255095299
 20
166.7725436152747
 30
0.0
 10
602.5258477445204
 20
169.7562908639964
 30
0.0
 10
601.7883781301259
 20
172.2228582488319
 30
0.0
 10
601.0335042300271
 20
174.7687121897805
 30
0.0
  0
SPLINE
  5
260
330
1F
100
AcDbEntity
  8
0
  6
Continuous
 62
     7
370
    15
100
AcDbSpline
210
0.0
220
0.0
230
1.0
 70
     8
 71
     3
 72
    14
 73
    10
 74
     0
 42
0.00000001
 43
0.00000001
 40
0.0
 40
0.0
 40
0.0
 40
0.0
 40
0.25
 40
0.25
 40
0.5
 40
0.5
 40
0.75
 40
0.75
 40
1.0
 40
1.0
 40
1.0
 40
1.0
 10
892.0540850405754
 20
151.2203357918454
 30
0.0
 10
893.1500212144988
 20
151.2203357918454
 30
0.0
 10
894.2452075333547
 20
151.1893379111798
 30
0.0
 10
896.423759576521
 20
151.0615102215068
 30
0.0
 10
897.5000374359154
 20
150.9651685956818
 30
0.0
 10
899.6254833540054
 20
150.7081372779752
 30
0.0
 10
900.6746564862433
 20
150.5474425572582
 30
0.0
 10
902.7443191298532
 20
150.1637108654178
 30
0.0
 10
903.7674207770723
 20
149.9398404433484
 30
0.0
 10
904.7619916469383
 20
149.6902732789395
 30
0.0
  0
LINE
  5
261
330
1F
100
AcDbEntity
  8
0
  6
Continuous
 62
     7
370
    15
100
AcDbLine
 10
621.3780393157
 20
151.2203371863
 30
0.0
 11
892.0540859256
 21
151.2203371863
 31
0.0
  0
SPLINE
  5
262
330
1F
100
AcDbEntity
  8
0
  6
Continuous
 62
     7
370
    15
100
AcDbSpline
210
0.0
220
0.0
230
1.0
 70
     8
 71
     3
 72
    18
 73
    14
 74
     0
 42
0.00000001
 43
0.00000001
 40
0.0
 40
0.0
 40
0.0
 40
0.0
 40
0.2500000000000019
 40
0.2500000000000019
 40
0.5000000000000038
 40
0.5000000000000038
 40
0.6250000000000043
 40
0.6250000000000043
 40
0.6875000000000041
 40
0.6875000000000041
 40
0.7500000000000038
 40
0.7500000000000038
 40
1.0
 40
1.0
 40
1.0
 40
1.0
 10
582.3580383495861
 20
168.5337067749488
 30
0.0
 10
583.1726065055833
 20
167.2255276713514
 30
0.0
 10
583.9730136508155
 20
165.9511054987884
 30
0.0
 10
585.5420515141692
 20
163.4721910940623
 30
0.0
 10
586.2978604962343
 20
162.2879789769522
 30
0.0
 10
587.3782202499716
 20
160.6067915257864
 30
0.0
 10
587.7296579808568
 20
160.0619195625033
 30
0.0
 10
588.2423377470078
 20
159.2696633553911
 30
0.0
 10
588.4108704607685
 20
159.0096751194514
 30
0.0
 10
588.7394930164904
 20
158.5035278127341
 30
0.0
 10
588.9000108277612
 20
158.2567065522947
 30
0.0
 10
589.6831138914517
 20
157.0543667674098
 30
0.0
 10
590.2482436671866
 20
156.1926084091455
 30
0.0
 10
590.7382833373223
 20
155.4484130077632
 30
0.0
  0
SPLINE
  5
263
330
1F
100
AcDbEntity
  8
0
  6
Continuous
 62
     7
370
    15
100
AcDbSpline
210
0.0
220
0.0
230
1.0
 70
     8
 71
     3
 72
    12
 73
     8
 74
     0
 42
0.00000001
 43
0.00000001
 40
0.0
 40
0.0
 40
0.0
 40
0.0
 40
0.2499999999999998
 40
0.2499999999999998
 40
0.4999999999999996
 40
0.4999999999999996
 40
1.0
 40
1.0
 40
1.0
 40
1.0
 10
602.5347903881736
 20
148.2419815278859
 30
0.0
 10
603.0020785443891
 20
148.2855093098682
 30
0.0
 10
603.482057616042
 20
148.3483348427326
 30
0.0
 10
604.4616220542828
 20
148.5119008627959
 30
0.0
 10
604.9620380942508
 20
148.6127106486914
 30
0.0
 10
606.4953043041738
 20
148.972968208685
 30
0.0
 10
607.5598837947647
 20
149.2897347888304
 30
0.0
 10
608.6701335943624
 20
149.690273278937
 30
0.0
  0
ARC
  5
264
330
1F
100
AcDbEntity
  8
0
  6
Continuous
 62
     7
370
    15
100
AcDbCircle
 10
604.6584235604
 20
164.9765503138
 30
0.0
 40
16.86877518069027
100
AcDbArc
 50
214.3910839174
 51
262.7677674894001
  0
ARC
  5
265
330
1F
100
AcDbEntity
  8
0
  6
Continuous
 62
     7
370
    15
100
AcDbCircle
 10
917.3306266666
 20
136.6872821166
 30
0.0
 40
18.08447818707573
100
AcDbArc
 50
134.0268841754
 51
156.4539189759
  0
SPLINE
  5
266
330
1F
100
AcDbEntity
  8
0
  6
Continuous
 62
     7
370
    15
100
AcDbSpline
210
0.0
220
0.0
230
1.0
 70
     8
 71
     3
 72
    14
 73
    10
 74
     0
 42
0.00000001
 43
0.00000001
 40
0.0
 40
0.0
 40
0.0
 40
0.0
 40
0.25
 40
0.25
 40
0.5
 40
0.5
 40
0.75
 40
0.75
 40
1.0
 40
1.0
 40
1.0
 40
1.0
 10
900.7518838674284
 20
143.9117845186205
 30
0.0
 10
900.0922911099677
 20
144.0759283626013
 30
0.0
 10
899.3935585105504
 20
144.2145166084896
 30
0.0
 10
897.9812871651181
 20
144.420115655593
 30
0.0
 10
897.2627613168653
 20
144.4889200967039
 30
0.0
 10
895.802811938983
 20
144.5582232547387
 30
0.0
 10
895.0613833880127
 20
144.5587309194032
 30
0.0
 10
893.556912361805
 20
144.4925957893261
 30
0.0
 10
892.8035703127205
 20
144.4263107491336
 30
0.0
 10
892.0540850405753
 20
144.3312182117533
 30
0.0
  0
LINE
  5
267
330
1F
100
AcDbEntity
  8
0
  6
Continuous
 62
     7
370
    15
100
AcDbLine
 10
892.0540859256
 20
151.2203371863
 30
0.0
 11
892.0540859256
 21
144.331217442
 31
0.0
  0
LINE
  5
268
330
1F
100
AcDbEntity
  8
0
  6
Continuous
 62
     7
370
    15
100
AcDbLine
 10
621.3780393157
 20
151.2203371863
 30
0.0
 11
621.3780393157
 21
144.331217442
 31
0.0
  0
SPLINE
  5
269
330
1F
100
AcDbEntity
  8
0
  6
Continuous
 62
     7
370
    15
100
AcDbSpline
210
0.0
220
0.0
230
1.0
 70
     8
 71
     3
 72
    16
 73
    12
 74
     0
 42
0.00000001
 43
0.00000001
 40
0.0
 40
0.0
 40
0.0
 40
0.0
 40
0.2499999999999985
 40
0.2499999999999985
 40
0.499999999999997
 40
0.499999999999997
 40
0.7499999999999956
 40
0.7499999999999956
 40
0.8749999999999978
 40
0.8749999999999978
 40
1.0
 40
1.0
 40
1.0
 40
1.0
 10
621.3780402007283
 20
144.3312182117533
 30
0.0
 10
620.6292667663348
 20
144.4262204332055
 30
0.0
 10
619.876752901807
 20
144.4924656317826
 30
0.0
 10
618.3734648280127
 20
144.5586735027361
 30
0.0
 10
617.6318575635977
 20
144.558292617499
 30
0.0
 10
616.1700630369442
 20
144.4890045815288
 30
0.0
 10
615.4498703473349
 20
144.4200878543028
 30
0.0
 10
614.3870962417775
 20
144.2651987367247
 30
0.0
 10
614.0340294337809
 20
144.204619259887
 30
0.0
 10
613.3449375531223
 20
144.0687349796138
 30
0.0
 10
613.0086300402401
 20
143.9935061224546
 30
0.0
 10
612.6802413738723
 20
143.91178451862
 30
0.0
  0
ARC
  5
26A
330
1F
100
AcDbEntity
  8
0
  6
Continuous
 62
     7
370
    15
100
AcDbCircle
 10
596.1014985747
 20
136.6872821166
 30
0.0
 40
18.08447818707582
100
AcDbArc
 50
23.5460810241
 51
45.9731158246
  0
LINE
  5
26B
330
1F
100
AcDbEntity
  8
0
  6
Continuous
 62
     7
370
    15
100
AcDbLine
 10
892.0540859256
 20
144.331217442
 30
0.0
 11
621.3780393157
 21
144.331217442
 31
0.0
  0
SPLINE
  5
26D
330
1F
100
AcDbEntity
  8
0
  6
Continuous
 62
     7
370
    15
100
AcDbSpline
210
0.0
220
0.0
230
1.0
 70
     8
 71
     3
 72
     8
 73
     4
 74
     0
 42
0.00000001
 43
0.00000001
 40
0.0
 40
0.0
 40
0.0
 40
0.0
 40
1.0
 40
1.0
 40
1.0
 40
1.0
 10
903.6266458383892
 20
143.3801935739708
 30
0.0
 10
902.6846857643027
 20
143.4920637764333
 30
0.0
 10
901.7270428409012
 20
143.6691100189673
 30
0.0
 10
900.7518838674382
 20
143.9117845186277
 30
0.0
  0
SPLINE
  5
270
330
1F
100
AcDbEntity
  8
0
  6
Continuous
 62
     7
370
    15
100
AcDbSpline
210
0.0
220
0.0
230
1.0
 70
     8
 71
     3
 72
     8
 73
     4
 74
     0
 42
0.00000001
 43
0.00000001
 40
0.0
 40
0.0
 40
0.0
 40
0.0
 40
1.0
 40
1.0
 40
1.0
 40
1.0
 10
612.6802413738727
 20
143.9117845186196
 30
0.0
 10
611.7050824004045
 20
143.669110018958
 30
0.0
 10
610.7474394769854
 20
143.4920637764307
 30
0.0
 10
609.8054794028939
 20
143.3801935739685
 30
0.0
  0
SPLINE
  5
272
330
1F
100
AcDbEntity
  8
0
  6
Continuous
 62
     7
370
    15
100
AcDbSpline
210
0.0
220
0.0
230
1.0
 70
     8
 71
     3
 72
    30
 73
    26
 74
     0
 42
0.00000001
 43
0.00000001
 40
0.0
 40
0.0
 40
0.0
 40
0.0
 40
0.0625000000000004
 40
0.0625000000000004
 40
0.1250000000000008
 40
0.1250000000000008
 40
0.250000000000002
 40
0.250000000000002
 40
0.3125000000000031
 40
0.3125000000000031
 40
0.3437500000000043
 40
0.3437500000000043
 40
0.3750000000000057
 40
0.3750000000000057
 40
0.5000000000000061
 40
0.5000000000000061
 40
0.5625000000000056
 40
0.5625000000000056
 40
0.625000000000005
 40
0.625000000000005
 40
0.7500000000000033
 40
0.7500000000000033
 40
0.8750000000000017
 40
0.8750000000000017
 40
1.0
 40
1.0
 40
1.0
 40
1.0
 10
892.6812386298608
 20
116.9578879155556
 30
0.0
 10
892.8118366346864
 20
117.096792765746
 30
0.0
 10
892.97879162316
 20
117.2746553325256
 30
0.0
 10
893.3780390582508
 20
117.7016651170986
 30
0.0
 10
893.6111894679681
 20
117.9517390090788
 30
0.0
 10
894.3954961455352
 20
118.7971482829393
 30
0.0
 10
895.018414629559
 20
119.4735759832335
 30
0.0
 10
896.0646295935697
 20
120.6250947114156
 30
0.0
 10
896.432294182233
 20
121.032055074555
 30
0.0
 10
897.0093265327818
 20
121.6752254127688
 30
0.0
 10
897.2061879069503
 20
121.8953669047341
 30
0.0
 10
897.6045239493352
 20
122.3423799721276
 30
0.0
 10
897.8063912531804
 20
122.5696872064335
 30
0.0
 10
898.828126599816
 20
123.7243442444519
 30
0.0
 10
899.6847056017805
 20
124.7055486042171
 30
0.0
 10
901.0141816421906
 20
126.253776637953
 30
0.0
 10
901.4648709927399
 20
126.7826899183956
 30
0.0
 10
902.3798493982755
 20
127.8655269999933
 30
0.0
 10
902.8455289018531
 20
128.421128162993
 30
0.0
 10
904.2508247905913
 20
130.1124099765171
 30
0.0
 10
905.1945000034841
 20
131.267397919201
 30
0.0
 10
907.0901034029127
 20
133.6296530862944
 30
0.0
 10
908.0420691926333
 20
134.8369502140977
 30
0.0
 10
909.9514484226531
 20
137.3041067067454
 30
0.0
 10
910.908873070416
 20
138.5639653339293
 30
0.0
 10
911.8684868871977
 20
139.8514487735233
 30
0.0
  0
ARC
  5
273
330
1F
100
AcDbEntity
  8
0
  6
Continuous
 62
     7
370
    15
100
AcDbCircle
 10
877.227689064
 20
131.5591855598
 30
0.0
 40
21.26053371245377
100
AcDbArc
 50
268.4510964237
 51
316.6242906977
  0
SPLINE
  5
274
330
1F
100
AcDbEntity
  8
0
  6
Continuous
 62
     7
370
    15
100
AcDbSpline
210
0.0
220
0.0
230
1.0
 70
     8
 71
     3
 72
    32
 73
    28
 74
     0
 42
0.00000001
 43
0.00000001
 40
0.0
 40
0.0
 40
0.0
 40
0.0
 40
0.1250000000000012
 40
0.1250000000000012
 40
0.2500000000000024
 40
0.2500000000000024
 40
0.2812500000000026
 40
0.2812500000000026
 40
0.3125000000000028
 40
0.3125000000000028
 40
0.3750000000000038
 40
0.3750000000000038
 40
0.5000000000000047
 40
0.5000000000000047
 40
0.5625000000000057
 40
0.5625000000000057
 40
0.593750000000006
 40
0.593750000000006
 40
0.6250000000000064
 40
0.6250000000000064
 40
0.7500000000000049
 40
0.7500000000000049
 40
0.812500000000004
 40
0.812500000000004
 40
0.8750000000000032
 40
0.8750000000000032
 40
1.0
 40
1.0
 40
1.0
 40
1.0
 10
892.0540850405754
 20
144.3312182117533
 30
0.0
 10
891.1970071073213
 20
142.2357874110391
 30
0.0
 10
890.3469083777003
 20
140.1955119506336
 30
0.0
 10
888.6631595422634
 20
136.2225787330997
 30
0.0
 10
887.8294889468746
 20
134.2899067899883
 30
0.0
 10
886.8008354995973
 20
131.9434026580961
 30
0.0
 10
886.5957839522308
 20
131.4775844350135
 30
0.0
 10
886.1871509397972
 20
130.5530327389675
 30
0.0
 10
885.9832739278868
 20
130.0936417336327
 30
0.0
 10
885.3786937442353
 20
128.7367338773129
 30
0.0
 10
884.9837246032465
 20
127.8574778282961
 30
0.0
 10
883.8239530463952
 20
125.2946055198651
 30
0.0
 10
883.0841113564328
 20
123.6854893027663
 30
0.0
 10
882.0308312291683
 20
121.4234842301983
 30
0.0
 10
881.6891930118136
 20
120.6948570514229
 30
0.0
 10
881.1921647424647
 20
119.6412478878639
 30
0.0
 10
881.0290635522404
 20
119.2966073008178
 30
0.0
 10
880.7082640113107
 20
118.6207572396862
 30
0.0
 10
880.5504637161783
 20
118.2893383417543
 30
0.0
 10
879.7816865041339
 20
116.6792853015347
 30
0.0
 10
879.2260809741849
 20
115.530463553445
 30
0.0
 10
878.4890679089277
 20
114.0185773944975
 30
0.0
 10
878.259519911639
 20
113.5499823107187
 30
0.0
 10
877.8346560840243
 20
112.6857987234883
 30
0.0
 10
877.6388018314947
 20
112.2891262778544
 30
0.0
 10
877.1119601630955
 20
111.225178675289
 30
0.0
 10
876.8402063524002
 20
110.6807345733658
 30
0.0
 10
876.6530104521369
 20
110.3064214526406
 30
0.0
  0
LWPOLYLINE
  5
275
330
1F
100
AcDbEntity
  8
0
  6
Continuous
 62
     7
370
    15
100
AcDbPolyline
 90
        9
 70
   128
 43
0.0
 10
911.8684877906
 20
139.85145155
 10
911.5705092702
 20
139.6961889009
 10
911.0421736989
 20
139.717646573
 10
910.2904846225
 20
139.9155265431
 10
909.3254258189
 20
140.2872211079
 10
908.1598122869
 20
140.8277681808
 10
906.8091561351
 20
141.5300077538
 10
905.2913834605
 20
142.3845967989
 10
903.6266406331
 20
143.3801955323
  0
ARC
  5
276
330
1F
100
AcDbEntity
  8
0
  6
Continuous
 62
     7
370
    15
100
AcDbCircle
 10
636.2044361773
 20
131.5591855598
 30
0.0
 40
21.26053371245377
100
AcDbArc
 50
223.3757093023
 51
271.5489035763
  0
SPLINE
  5
277
330
1F
100
AcDbEntity
  8
0
  6
Continuous
 62
     7
370
    15
100
AcDbSpline
210
0.0
220
0.0
230
1.0
 70
     8
 71
     3
 72
    32
 73
    28
 74
     0
 42
0.00000001
 43
0.00000001
 40
0.0
 40
0.0
 40
0.0
 40
0.0
 40
0.0625000000000015
 40
0.0625000000000015
 40
0.1250000000000031
 40
0.1250000000000031
 40
0.250000000000004
 40
0.250000000000004
 40
0.3750000000000049
 40
0.3750000000000049
 40
0.4375000000000049
 40
0.4375000000000049
 40
0.500000000000005
 40
0.500000000000005
 40
0.6250000000000061
 40
0.6250000000000061
 40
0.6562500000000056
 40
0.6562500000000056
 40
0.687500000000005
 40
0.687500000000005
 40
0.7500000000000046
 40
0.7500000000000046
 40
0.8750000000000032
 40
0.8750000000000032
 40
0.9375000000000017
 40
0.9375000000000017
 40
1.0
 40
1.0
 40
1.0
 40
1.0
 10
601.563638354106
 20
139.8514487735235
 30
0.0
 10
602.0430748374873
 20
139.2082040412199
 30
0.0
 10
602.5245416040909
 20
138.5684275063448
 30
0.0
 10
603.4851436045625
 20
137.3039282237642
 30
0.0
 10
603.9646411295578
 20
136.678702117117
 30
0.0
 10
605.4004484317126
 20
134.8236479886229
 30
0.0
 10
606.3541390793418
 20
133.6143616807517
 30
0.0
 10
608.251579033821
 20
131.2502028735657
 30
0.0
 10
609.1953659822714
 20
130.0953011875453
 30
0.0
 10
610.5995249653018
 20
128.4056608480084
 30
0.0
 10
611.0645520511567
 20
127.8509235677183
 30
0.0
 10
611.9784288713862
 20
126.7695422654849
 30
0.0
 10
612.4285750517427
 20
126.2413349092074
 30
0.0
 10
613.7564450058618
 20
124.6951622682088
 30
0.0
 10
614.6119839486612
 20
123.7152456523042
 30
0.0
 10
615.6324665659007
 20
122.5620977710352
 30
0.0
 10
615.8340857363149
 20
122.3350872894294
 30
0.0
 10
616.2319307737929
 20
121.8886573994668
 30
0.0
 10
616.4285393701404
 20
121.6688134808326
 30
0.0
 10
617.004780919299
 20
121.0265650309745
 30
0.0
 10
617.371942976904
 20
120.6201824848462
 30
0.0
 10
618.4167325254658
 20
119.4702847330209
 30
0.0
 10
619.038807313849
 20
118.7947909482082
 30
0.0
 10
619.822080061351
 20
117.9505103033909
 30
0.0
 10
620.0549063399675
 20
117.7007865731921
 30
0.0
 10
620.4536503936379
 20
117.2743178893669
 30
0.0
 10
620.6204125934307
 20
117.0966608926003
 30
0.0
 10
620.7508866114432
 20
116.9578879155556
 30
0.0
  0
LWPOLYLINE
  5
278
330
1F
100
AcDbEntity
  8
0
  6
Continuous
 62
     7
370
    15
100
AcDbPolyline
 90
        9
 70
   128
 43
0.0
 10
609.8054846082
 20
143.3801955323
 10
608.1407417808
 20
142.3845967989
 10
606.6229691062
 20
141.5300077538
 10
605.2723129544
 20
140.8277681808
 10
604.1066994224
 20
140.2872211079
 10
603.1416406188
 20
139.9155265431
 10
602.3899515424
 20
139.717646573
 10
601.8616159711
 20
139.6961889009
 10
601.5636374507
 20
139.85145155
  0
SPLINE
  5
279
330
1F
100
AcDbEntity
  8
0
  6
Continuous
 62
     7
370
    15
100
AcDbSpline
210
0.0
220
0.0
230
1.0
 70
     8
 71
     3
 72
    32
 73
    28
 74
     0
 42
0.00000001
 43
0.00000001
 40
0.0
 40
0.0
 40
0.0
 40
0.0
 40
0.1249999999999996
 40
0.1249999999999996
 40
0.1874999999999986
 40
0.1874999999999986
 40
0.2499999999999976
 40
0.2499999999999976
 40
0.3749999999999952
 40
0.3749999999999952
 40
0.4062499999999953
 40
0.4062499999999953
 40
0.4374999999999955
 40
0.4374999999999955
 40
0.4999999999999961
 40
0.4999999999999961
 40
0.6249999999999961
 40
0.6249999999999961
 40
0.6874999999999966
 40
0.6874999999999966
 40
0.7187499999999968
 40
0.7187499999999968
 40
0.7499999999999971
 40
0.7499999999999971
 40
0.8749999999999986
 40
0.8749999999999986
 40
1.0
 40
1.0
 40
1.0
 40
1.0
 10
636.7791147891671
 20
110.3064214526406
 30
0.0
 10
636.5919188889038
 20
110.6807345733657
 30
0.0
 10
636.3201650782084
 20
111.225178675289
 30
0.0
 10
635.7933234098093
 20
112.2891262778544
 30
0.0
 10
635.5974691572795
 20
112.6857987234882
 30
0.0
 10
635.172605329665
 20
113.5499823107187
 30
0.0
 10
634.9430573323762
 20
114.0185773944975
 30
0.0
 10
634.2060442671191
 20
115.530463553445
 30
0.0
 10
633.6504387371701
 20
116.6792853015347
 30
0.0
 10
632.8816615251255
 20
118.2893383417543
 30
0.0
 10
632.7238612299932
 20
118.6207572396861
 30
0.0
 10
632.4030616890635
 20
119.2966073008177
 30
0.0
 10
632.2399604988391
 20
119.6412478878639
 30
0.0
 10
631.7429322294903
 20
120.6948570514228
 30
0.0
 10
631.4012940121356
 20
121.4234842301983
 30
0.0
 10
630.348013884871
 20
123.6854893027663
 30
0.0
 10
629.6081721949085
 20
125.2946055198651
 30
0.0
 10
628.4484006380573
 20
127.8574778282961
 30
0.0
 10
628.0534314970686
 20
128.7367338773128
 30
0.0
 10
627.448851313417
 20
130.0936417336327
 30
0.0
 10
627.2449743015065
 20
130.5530327389676
 30
0.0
 10
626.8363412890731
 20
131.4775844350135
 30
0.0
 10
626.6312897417065
 20
131.9434026580961
 30
0.0
 10
625.6026362944292
 20
134.2899067899883
 30
0.0
 10
624.7689656990403
 20
136.2225787330997
 30
0.0
 10
623.0852168636036
 20
140.1955119506337
 30
0.0
 10
622.2351181339826
 20
142.2357874110392
 30
0.0
 10
621.3780402007283
 20
144.3312182117533
 30
0.0
  0
LINE
  5
27A
330
1F
100
AcDbEntity
  8
0
  6
Continuous
 62
     7
370
    15
100
AcDbLine
 10
876.6530131254
 20
110.306420062
 30
0.0
 11
636.7791121159
 21
110.306420062
 31
0.0
  0
SPLINE
  5
27B
330
1F
100
AcDbEntity
  8
0
  6
Continuous
 62
     7
370
    15
100
AcDbSpline
210
0.0
220
0.0
230
1.0
 70
     8
 71
     3
 72
    14
 73
    10
 74
     0
 42
0.00000001
 43
0.00000001
 40
0.0
 40
0.0
 40
0.0
 40
0.0
 40
0.1250000000000019
 40
0.1250000000000019
 40
0.2500000000000038
 40
0.2500000000000038
 40
0.5000000000000019
 40
0.5000000000000019
 40
1.0
 40
1.0
 40
1.0
 40
1.0
 10
594.3648729980457
 20
150.0044820127336
 30
0.0
 10
594.63151841864
 20
149.608815570328
 30
0.0
 10
594.903922566487
 20
149.2069368822081
 30
0.0
 10
595.4599748756332
 20
148.3916427148578
 30
0.0
 10
595.7433291653402
 20
147.978671064609
 30
0.0
 10
596.6025203576038
 20
146.7342572813777
 30
0.0
 10
597.1898099067803
 20
145.8939048387598
 30
0.0
 10
598.9932912115713
 20
143.3462753730573
 30
0.0
 10
600.2507663357142
 20
141.6128875444394
 30
0.0
 10
601.563638354106
 20
139.8514487735235
 30
0.0
  0
SPLINE
  5
27D
330
1F
100
AcDbEntity
  8
0
  6
Continuous
 62
     7
370
    15
100
AcDbSpline
210
0.0
220
0.0
230
1.0
 70
     8
 71
     3
 72
    14
 73
    10
 74
     0
 42
0.00000001
 43
0.00000001
 40
0.0
 40
0.0
 40
0.0
 40
0.0
 40
0.4999999999999988
 40
0.4999999999999988
 40
0.7499999999999989
 40
0.7499999999999989
 40
0.8749999999999996
 40
0.8749999999999996
 40
1.0
 40
1.0
 40
1.0
 40
1.0
 10
911.8684868871977
 20
139.8514487735233
 30
0.0
 10
913.1813589055896
 20
141.6128875444392
 30
0.0
 10
914.4388340297324
 20
143.3462753730571
 30
0.0
 10
916.2423153345236
 20
145.8939048387597
 30
0.0
 10
916.8296048837001
 20
146.7342572813777
 30
0.0
 10
917.6887960759635
 20
147.978671064609
 30
0.0
 10
917.9721503656707
 20
148.3916427148577
 30
0.0
 10
918.5282026748168
 20
149.2069368822081
 30
0.0
 10
918.8006068226638
 20
149.6088155703279
 30
0.0
 10
919.067252243258
 20
150.0044820127335
 30
0.0
  0
SPLINE
  5
27F
330
1F
100
AcDbEntity
  8
0
  6
Continuous
 62
     7
370
    15
100
AcDbSpline
210
0.0
220
0.0
230
1.0
 70
     8
 71
     3
 72
    10
 73
     6
 74
     0
 42
0.00000001
 43
0.00000001
 40
0.0
 40
0.0
 40
0.0
 40
0.0
 40
0.5
 40
0.5
 40
1.0
 40
1.0
 40
1.0
 40
1.0
 10
919.0672522432579
 20
150.0044820127335
 30
0.0
 10
919.7847622762675
 20
151.0691717475827
 30
0.0
 10
920.453151418517
 20
152.0682176699181
 30
0.0
 10
921.6788400188416
 20
153.9102146353861
 30
0.0
 10
922.2240830470674
 20
154.7350169249988
 30
0.0
 10
922.6938419039814
 20
155.4484130077632
 30
0.0
  0
SPLINE
  5
280
330
1F
100
AcDbEntity
  8
0
  6
Continuous
 62
     7
370
    15
100
AcDbSpline
210
0.0
220
0.0
230
1.0
 70
     8
 71
     3
 72
    10
 73
     6
 74
     0
 42
0.00000001
 43
0.00000001
 40
0.0
 40
0.0
 40
0.0
 40
0.0
 40
0.5
 40
0.5
 40
1.0
 40
1.0
 40
1.0
 40
1.0
 10
590.7382833373224
 20
155.4484130077632
 30
0.0
 10
591.2080421942364
 20
154.7350169249989
 30
0.0
 10
591.7532852224621
 20
153.9102146353861
 30
0.0
 10
592.9789738227868
 20
152.0682176699181
 30
0.0
 10
593.6473629650362
 20
151.0691717475828
 30
0.0
 10
594.3648729980458
 20
150.0044820127336
 30
0.0
  0
SPLINE
  5
281
330
1F
100
AcDbEntity
  8
0
  6
Continuous
 62
     7
370
    15
100
AcDbSpline
210
0.0
220
0.0
230
1.0
 70
     8
 71
     3
 72
    18
 73
    14
 74
     0
 42
0.00000001
 43
0.00000001
 40
0.0
 40
0.0
 40
0.0
 40
0.0
 40
0.2499999999999986
 40
0.2499999999999986
 40
0.3124999999999983
 40
0.3124999999999983
 40
0.3749999999999981
 40
0.3749999999999981
 40
0.4999999999999974
 40
0.4999999999999974
 40
0.7499999999999987
 40
0.7499999999999987
 40
1.0
 40
1.0
 40
1.0
 40
1.0
 10
824.6128693819516
 20
77.42693650761483
 30
0.0
 10
825.9962831097034
 20
76.32046212323428
 30
0.0
 10
827.3311520691234
 20
75.3660716493016
 30
0.0
 10
828.937643456275
 20
74.35859739925209
 30
0.0
 10
829.2557722208226
 20
74.16651163997147
 30
0.0
 10
829.8853900083105
 20
73.80160233764015
 30
0.0
 10
830.1966539867562
 20
73.62896888935795
 30
0.0
 10
831.108833330766
 20
73.1464183234926
 30
0.0
 10
831.6920737631483
 20
72.86943408660392
 30
0.0
 10
833.3641551157833
 20
72.1727693526749
 30
0.0
 10
834.3634030848909
 20
71.89428672046378
 30
0.0
 10
836.0385361883356
 20
71.72259900917557
 30
0.0
 10
836.7114311212325
 20
71.82889392081178
 30
0.0
 10
837.1879958036806
 20
72.11654029045116
 30
0.0
  0
SPLINE
  5
282
330
1F
100
AcDbEntity
  8
0
  6
Continuous
 62
     7
370
    15
100
AcDbSpline
210
0.0
220
0.0
230
1.0
 70
     8
 71
     3
 72
    32
 73
    28
 74
     0
 42
0.00000001
 43
0.00000001
 40
0.0
 40
0.0
 40
0.0
 40
0.0
 40
0.1249999999999979
 40
0.1249999999999979
 40
0.2499999999999957
 40
0.2499999999999957
 40
0.2812499999999956
 40
0.2812499999999956
 40
0.3124999999999954
 40
0.3124999999999954
 40
0.3749999999999954
 40
0.3749999999999954
 40
0.4999999999999952
 40
0.4999999999999952
 40
0.5312499999999953
 40
0.5312499999999953
 40
0.5624999999999954
 40
0.5624999999999954
 40
0.624999999999996
 40
0.624999999999996
 40
0.7499999999999972
 40
0.7499999999999972
 40
0.8749999999999986
 40
0.8749999999999986
 40
0.9374999999999993
 40
0.9374999999999993
 40
1.0
 40
1.0
 40
1.0
 40
1.0
 10
876.6530104521369
 20
110.3064214526406
 30
0.0
 10
875.9822829895761
 20
109.7452694172967
 30
0.0
 10
875.0563272292818
 20
108.9768824278933
 30
0.0
 10
872.734510819367
 20
107.0979794425361
 30
0.0
 10
871.3379421851483
 20
105.9869108273578
 30
0.0
 10
869.2978311117222
 20
104.4156610529779
 30
0.0
 10
868.8739236038077
 20
104.0914369038333
 30
0.0
 10
868.0038774838948
 20
103.4311437011852
 30
0.0
 10
867.5574050223358
 20
103.0948049997557
 30
0.0
 10
866.1846213843531
 20
102.068961946307
 30
0.0
 10
865.2249838372503
 20
101.3626691623247
 30
0.0
 10
862.2188370911916
 20
99.18894218582622
 30
0.0
 10
860.045435379183
 20
97.66701776709623
 30
0.0
 10
857.1298029819687
 20
95.7072441809347
 30
0.0
 10
856.5367036123146
 20
95.312391185003
 30
0.0
 10
855.3307773740673
 20
94.51762235130724
 30
0.0
 10
854.7170199197064
 20
94.11711343682387
 30
0.0
 10
852.8574500234231
 20
92.91610694712858
 30
0.0
 10
851.5912040424404
 20
92.11468287704464
 30
0.0
 10
847.7175380803978
 20
89.71475659932447
 30
0.0
 10
845.035369065029
 20
88.12084164897703
 30
0.0
 10
839.4905680306376
 20
84.97269698659308
 30
0.0
 10
836.6278502964153
 20
83.41836294962938
 30
0.0
 10
832.2088636240649
 20
81.13217786689954
 30
0.0
 10
830.7150196042481
 20
80.37762666585107
 30
0.0
 10
827.6870944225233
 20
78.88573859974603
 30
0.0
 10
826.1560071039751
 20
78.14991055491909
 30
0.0
 10
824.6128693819452
 20
77.42693650762449
 30
0.0
  0
SPLINE
  5
283
330
1F
100
AcDbEntity
  8
0
  6
Continuous
 62
     7
370
    15
100
AcDbSpline
210
0.0
220
0.0
230
1.0
 70
     8
 71
     3
 72
    30
 73
    26
 74
     0
 42
0.00000001
 43
0.00000001
 40
0.0
 40
0.0
 40
0.0
 40
0.0
 40
0.0625
 40
0.0625
 40
0.1250000000000001
 40
0.1250000000000001
 40
0.2499999999999999
 40
0.2499999999999999
 40
0.3749999999999998
 40
0.3749999999999998
 40
0.4062499999999998
 40
0.4062499999999998
 40
0.4374999999999998
 40
0.4374999999999998
 40
0.4999999999999998
 40
0.4999999999999998
 40
0.6249999999999999
 40
0.6249999999999999
 40
0.6875
 40
0.6875
 40
0.75
 40
0.75
 40
0.8750000000000002
 40
0.8750000000000002
 40
1.0
 40
1.0
 40
1.0
 40
1.0
 10
837.1879958036799
 20
72.11654029045101
 30
0.0
 10
838.9223617460518
 20
73.16337419427009
 30
0.0
 10
840.6361494852337
 20
74.22533060450463
 30
0.0
 10
844.003911773814
 20
76.36543649626857
 30
0.0
 10
845.6588508234734
 20
77.44410449490842
 30
0.0
 10
850.535712298764
 20
80.70030618529654
 30
0.0
 10
853.6698034873425
 20
82.89822866358458
 30
0.0
 10
859.6951619965148
 20
87.31443944469825
 30
0.0
 10
862.5865168943751
 20
89.53285893372716
 30
0.0
 10
866.0405700676737
 20
92.29278247328931
 30
0.0
 10
866.72335718821
 20
92.84408721566749
 30
0.0
 10
868.0725970553524
 20
93.94457440611977
 30
0.0
 10
868.7400020774292
 20
94.49455218194856
 30
0.0
 10
870.7100441716027
 20
96.13407905045106
 30
0.0
 10
871.9774213228494
 20
97.2105746926937
 30
0.0
 10
875.641638334609
 20
100.37999600573
 30
0.0
 10
877.9010125505231
 20
102.4132980510937
 30
0.0
 10
881.0085848489398
 20
105.2957361855544
 30
0.0
 10
881.9974291265688
 20
106.2285352683762
 30
0.0
 10
883.8784171363634
 20
108.0284639098582
 30
0.0
 10
884.7729868020252
 20
108.8980639208413
 30
0.0
 10
887.2635833955981
 20
111.3499038559437
 30
0.0
 10
888.6822422571186
 20
112.7894756591441
 30
0.0
 10
891.044576615501
 20
115.2249354084033
 30
0.0
 10
891.9887573246292
 20
116.2213604924048
 30
0.0
 10
892.6812386298608
 20
116.9578879155556
 30
0.0
  0
SPLINE
  5
284
330
1F
100
AcDbEntity
  8
0
  6
Continuous
 62
     7
370
    15
100
AcDbSpline
210
0.0
220
0.0
230
1.0
 70
     8
 71
     3
 72
    30
 73
    26
 74
     0
 42
0.00000001
 43
0.00000001
 40
0.0
 40
0.0
 40
0.0
 40
0.0
 40
0.0312500000000003
 40
0.0312500000000003
 40
0.0468750000000003
 40
0.0468750000000003
 40
0.0625000000000003
 40
0.0625000000000003
 40
0.1250000000000002
 40
0.1250000000000002
 40
0.2500000000000002
 40
0.2500000000000002
 40
0.5
 40
0.5
 40
0.7499999999999998
 40
0.7499999999999998
 40
0.8749999999999998
 40
0.8749999999999998
 40
0.9374999999999998
 40
0.9374999999999998
 40
0.9531249999999999
 40
0.9531249999999999
 40
0.9687499999999999
 40
0.9687499999999999
 40
1.0
 40
1.0
 40
1.0
 40
1.0
 10
688.8304150423847
 20
77.4217086507354
 30
0.0
 10
690.2388428629667
 20
77.2796154565872
 30
0.0
 10
691.6493714837069
 20
77.18253520810354
 30
0.0
 10
693.7676248984565
 20
77.09010446394782
 30
0.0
 10
694.4741195656633
 20
77.06815417667741
 30
0.0
 10
695.8879225977854
 20
77.04186615140766
 30
0.0
 10
696.5953494149182
 20
77.04009312350006
 30
0.0
 10
700.1321852835327
 20
77.02477470709499
 30
0.0
 10
702.9616643491659
 20
77.01265570426351
 30
0.0
 10
711.4501044489048
 20
76.97732217039353
 30
0.0
 10
717.1090717076142
 20
76.95513726497475
 30
0.0
 10
734.0860247732013
 20
76.89841245543928
 30
0.0
 10
745.4040976382448
 20
76.87499714429076
 30
0.0
 10
768.0402160246772
 20
76.87520794229512
 30
0.0
 10
779.3582714717973
 20
76.89881699185962
 30
0.0
 10
796.3352282564101
 20
76.9556225262494
 30
0.0
 10
801.9941998410083
 20
76.97780504832026
 30
0.0
 10
810.4826428070857
 20
77.01310720918035
 30
0.0
 10
813.3121232856321
 20
77.0252113240645
 30
0.0
 10
816.8489612826054
 20
77.04050799532624
 30
0.0
 10
817.5563605044832
 20
77.0429156713014
 30
0.0
 10
818.9700460709504
 20
77.07068779187877
 30
0.0
 10
819.6764663520851
 20
77.09328854639281
 30
0.0
 10
821.7944468266995
 20
77.18744279317166
 30
0.0
 10
823.2047303684378
 20
77.28529987753242
 30
0.0
 10
824.6128693819502
 20
77.42693650762374
 30
0.0
  0
SPLINE
  5
285
330
1F
100
AcDbEntity
  8
0
  6
Continuous
 62
     7
370
    15
100
AcDbSpline
210
0.0
220
0.0
230
1.0
 70
     8
 71
     3
 72
    32
 73
    28
 74
     0
 42
0.00000001
 43
0.00000001
 40
0.0
 40
0.0
 40
0.0
 40
0.0
 40
0.0625000000000007
 40
0.0625000000000007
 40
0.1250000000000014
 40
0.1250000000000014
 40
0.250000000000002
 40
0.250000000000002
 40
0.3750000000000026
 40
0.3750000000000026
 40
0.4375000000000026
 40
0.4375000000000026
 40
0.4687500000000023
 40
0.4687500000000023
 40
0.500000000000002
 40
0.500000000000002
 40
0.6250000000000016
 40
0.6250000000000016
 40
0.6875000000000011
 40
0.6875000000000011
 40
0.7187500000000007
 40
0.7187500000000007
 40
0.7500000000000002
 40
0.7500000000000002
 40
0.8750000000000001
 40
0.8750000000000001
 40
1.0
 40
1.0
 40
1.0
 40
1.0
 10
688.8304150423847
 20
77.4217086507354
 30
0.0
 10
687.2869806312447
 20
78.14473269072163
 30
0.0
 10
685.7556144965579
 20
78.88060789679389
 30
0.0
 10
682.7270511759102
 20
80.37264299225035
 30
0.0
 10
681.2328925916966
 20
81.127272649883
 30
0.0
 10
676.8129761805337
 20
83.41370722121243
 30
0.0
 10
673.9496572097181
 20
84.96822643861805
 30
0.0
 10
668.4036935844753
 20
88.11677482905831
 30
0.0
 10
665.720963205946
 20
89.71090834803726
 30
0.0
 10
661.8464876042935
 20
92.11118337738876
 30
0.0
 10
660.5799771498762
 20
92.9127271700657
 30
0.0
 10
658.7200190356558
 20
94.1139177988511
 30
0.0
 10
658.1061224481381
 20
94.51449606416224
 30
0.0
 10
656.8999134428212
 20
95.30941058674048
 30
0.0
 10
656.3066754017673
 20
95.70433658266649
 30
0.0
 10
653.3903632626069
 20
97.66447533077987
 30
0.0
 10
651.2164612234789
 20
99.18669253034344
 30
0.0
 10
648.2096312130052
 20
101.3608464540828
 30
0.0
 10
647.2497771330816
 20
102.0672794923033
 30
0.0
 10
645.876686074833
 20
103.0933278468786
 30
0.0
 10
645.4301140391017
 20
103.4297341323163
 30
0.0
 10
644.5598747034394
 20
104.0901604274783
 30
0.0
 10
644.1358666988922
 20
104.4144553134818
 30
0.0
 10
642.0952698796818
 20
105.9860521495148
 30
0.0
 10
640.6983854810705
 20
107.0973613705504
 30
0.0
 10
638.3760764087248
 20
108.9766512425876
 30
0.0
 10
637.4499433043918
 20
109.745184873408
 30
0.0
 10
636.7791147891671
 20
110.3064214526406
 30
0.0
  0
SPLINE
  5
286
330
1F
100
AcDbEntity
  8
0
  6
Continuous
 62
     7
370
    15
100
AcDbSpline
210
0.0
220
0.0
230
1.0
 70
     8
 71
     3
 72
    20
 73
    16
 74
     0
 42
0.00000001
 43
0.00000001
 40
0.0
 40
0.0
 40
0.0
 40
0.0
 40
0.2499999999999992
 40
0.2499999999999992
 40
0.3749999999999992
 40
0.3749999999999992
 40
0.4999999999999992
 40
0.4999999999999992
 40
0.6249999999999992
 40
0.6249999999999992
 40
0.6874999999999999
 40
0.6874999999999999
 40
0.7500000000000006
 40
0.7500000000000006
 40
1.0
 40
1.0
 40
1.0
 40
1.0
 10
676.2583578760464
 20
72.10795286169473
 30
0.0
 10
676.7324696597627
 20
71.82182804838747
 30
0.0
 10
677.4042088605205
 20
71.7160641027026
 30
0.0
 10
678.6572217692512
 20
71.84472492942719
 30
0.0
 10
679.1149568909142
 20
71.93515965103136
 30
0.0
 10
680.1019605548433
 20
72.21164070358049
 30
0.0
 10
680.627326499131
 20
72.39647812419959
 30
0.0
 10
681.7367171622456
 20
72.85799346902095
 30
0.0
 10
682.3234541471157
 20
73.13616210235712
 30
0.0
 10
683.2347134993644
 20
73.61768201870728
 30
0.0
 10
683.5439372290106
 20
73.7889748674528
 30
0.0
 10
684.1731574888154
 20
74.1531946994277
 30
0.0
 10
684.4938785558037
 20
74.34659783637287
 30
0.0
 10
686.1099287500405
 20
75.35923263450407
 30
0.0
 10
687.4484477967619
 20
76.3166018148598
 30
0.0
 10
688.8304150423847
 20
77.4217086507354
 30
0.0
  0
SPLINE
  5
287
330
1F
100
AcDbEntity
  8
0
  6
Continuous
 62
     7
370
    15
100
AcDbSpline
210
0.0
220
0.0
230
1.0
 70
     8
 71
     3
 72
    30
 73
    26
 74
     0
 42
0.00000001
 43
0.00000001
 40
0.0
 40
0.0
 40
0.0
 40
0.0
 40
0.1250000000000004
 40
0.1250000000000004
 40
0.2500000000000012
 40
0.2500000000000012
 40
0.3125000000000015
 40
0.3125000000000015
 40
0.3750000000000018
 40
0.3750000000000018
 40
0.5000000000000018
 40
0.5000000000000018
 40
0.5625000000000017
 40
0.5625000000000017
 40
0.5937500000000017
 40
0.5937500000000017
 40
0.6250000000000017
 40
0.6250000000000017
 40
0.7500000000000009
 40
0.7500000000000009
 40
0.8750000000000002
 40
0.8750000000000002
 40
0.9375000000000001
 40
0.9375000000000001
 40
1.0
 40
1.0
 40
1.0
 40
1.0
 10
620.7508866114432
 20
116.9578879155556
 30
0.0
 10
621.4434862290192
 20
116.2212346546596
 30
0.0
 10
622.3878706316341
 20
115.2245953481594
 30
0.0
 10
624.7507718542425
 20
112.7885673653253
 30
0.0
 10
626.1697942425665
 20
111.3486411479398
 30
0.0
 10
628.661065520392
 20
108.8961817502983
 30
0.0
 10
629.555875093561
 20
108.0263673878
 30
0.0
 10
631.4373499180566
 20
106.2260188046794
 30
0.0
 10
632.426452669048
 20
105.2930029758869
 30
0.0
 10
635.5348454542129
 20
102.4098996996087
 30
0.0
 10
637.7948266195095
 20
100.376134449605
 30
0.0
 10
641.4600469479403
 20
97.20600724960624
 30
0.0
 10
642.7277740587217
 20
96.1292744338727
 30
0.0
 10
644.6983650115322
 20
94.48939113646841
 30
0.0
 10
645.3659299999641
 20
93.93931667809795
 30
0.0
 10
646.7155064730329
 20
92.83862766368246
 30
0.0
 10
647.3984641904366
 20
92.28722292949448
 30
0.0
 10
650.8533817569026
 20
89.52680455575619
 30
0.0
 10
653.74546463891
 20
87.30800567134219
 30
0.0
 10
659.7723512111086
 20
82.89108110690334
 30
0.0
 10
662.9072424887584
 20
80.69282420886618
 30
0.0
 10
667.7853581301581
 20
77.43616270405252
 30
0.0
 10
669.4407242456471
 20
76.35734839634766
 30
0.0
 10
672.8093587358613
 20
74.21696510836372
 30
0.0
 10
674.5235676866532
 20
73.15489271030313
 30
0.0
 10
676.2583578760464
 20
72.10795286169476
 30
0.0
  0
SPLINE
  5
288
330
1F
100
AcDbEntity
  8
0
  6
Continuous
 62
     7
370
    15
100
AcDbSpline
210
0.0
220
0.0
230
1.0
 70
     8
 71
     3
 72
    12
 73
     8
 74
     0
 42
0.00000001
 43
0.00000001
 40
0.0
 40
0.0
 40
0.0
 40
0.0
 40
0.2500000000000016
 40
0.2500000000000016
 40
0.500000000000001
 40
0.500000000000001
 40
1.0
 40
1.0
 40
1.0
 40
1.0
 10
696.3430917035714
 20
69.34814466308984
 30
0.0
 10
695.540871247191
 20
69.31364189230106
 30
0.0
 10
694.7361869450122
 20
69.28922278357534
 30
0.0
 10
693.1278696523889
 20
69.26667319583316
 30
0.0
 10
692.3226228625599
 20
69.26851691528542
 30
0.0
 10
689.9087382549419
 20
69.30681807645152
 30
0.0
 10
688.2994406191524
 20
69.37954694216332
 30
0.0
 10
686.6965120031995
 20
69.50368469151323
 30
0.0
  0
ARC
  5
289
330
1F
100
AcDbEntity
  8
0
  6
Continuous
 62
     7
370
    15
100
AcDbCircle
 10
656.8875108893
 20
81.7837682975
 30
0.0
 40
32.23936910765192
100
AcDbArc
 50
337.610356976
 51
352.2238912597
  0
ARC
  5
28A
330
1F
100
AcDbEntity
  8
0
  6
Continuous
 62
     7
370
    15
100
AcDbCircle
 10
856.4139555804
 20
81.7352196976
 30
0.0
 40
32.09159518702521
100
AcDbArc
 50
187.7152346436
 51
202.4096808887
  0
SPLINE
  5
28B
330
1F
100
AcDbEntity
  8
0
  6
Continuous
 62
     7
370
    15
100
AcDbSpline
210
0.0
220
0.0
230
1.0
 70
     8
 71
     3
 72
    14
 73
    10
 74
     0
 42
0.00000001
 43
0.00000001
 40
0.0
 40
0.0
 40
0.0
 40
0.0
 40
0.2500000000000006
 40
0.2500000000000006
 40
0.5000000000000011
 40
0.5000000000000011
 40
0.7500000000000017
 40
0.7500000000000017
 40
1.0
 40
1.0
 40
1.0
 40
1.0
 10
826.7458634722691
 20
69.5010558501202
 30
0.0
 10
825.9366685252847
 20
69.43846023878729
 30
0.0
 10
825.1254805449377
 20
69.38857332670207
 30
0.0
 10
823.5023920009052
 20
69.3143925323703
 30
0.0
 10
822.6899407670189
 20
69.28944157715218
 30
0.0
 10
821.065216169371
 20
69.26407105420242
 30
0.0
 10
820.2523036617998
 20
69.26262324232883
 30
0.0
 10
818.6286926228497
 20
69.28635496579037
 30
0.0
 10
817.8163243905759
 20
69.31157598321221
 30
0.0
 10
817.0067794586791
 20
69.34755660683815
 30
0.0
  0
SPLINE
  5
28C
330
1F
100
AcDbEntity
  8
0
  6
Continuous
 62
     7
370
    15
100
AcDbSpline
210
0.0
220
0.0
230
1.0
 70
     8
 71
     3
 72
    18
 73
    14
 74
     0
 42
0.00000001
 43
0.00000001
 40
0.0
 40
0.0
 40
0.0
 40
0.0
 40
0.25
 40
0.25
 40
0.375
 40
0.375
 40
0.5
 40
0.5
 40
0.625
 40
0.625
 40
0.75
 40
0.75
 40
1.0
 40
1.0
 40
1.0
 40
1.0
 10
817.0067794586791
 20
69.34755660683815
 30
0.0
 10
806.9528407370943
 20
69.37366159242046
 30
0.0
 10
796.8987801561927
 20
69.40825939397875
 30
0.0
 10
781.815981755991
 20
69.45211488096527
 30
0.0
 10
776.7880101767306
 20
69.46505692167544
 30
0.0
 10
766.7316099321844
 20
69.48313375901806
 30
0.0
 10
761.7033397214235
 20
69.48816633717828
 30
0.0
 10
751.6466445742549
 20
69.48839339425245
 30
0.0
 10
746.6180954208446
 20
69.48358539445198
 30
0.0
 10
736.5617755702998
 20
69.46584227054652
 30
0.0
 10
731.5339385987702
 20
69.4530041022788
 30
0.0
 10
716.4511113429996
 20
69.40925305388977
 30
0.0
 10
706.3970096249434
 20
69.37444769964428
 30
0.0
 10
696.3430917035714
 20
69.34814466308984
 30
0.0
  0
ARC
  5
28D
330
1F
100
AcDbEntity
  8
0
  6
Continuous
 62
     7
370
    15
100
AcDbCircle
 10
827.4937952229
 20
88.1890615237
 30
0.0
 40
18.76974276579863
100
AcDbArc
 50
279.9576122302
 51
301.0964442759
  0
SPLINE
  5
28E
330
1F
100
AcDbEntity
  8
0
  6
Continuous
 62
     7
370
    15
100
AcDbSpline
210
0.0
220
0.0
230
1.0
 70
     8
 71
     3
 72
    14
 73
    10
 74
     0
 42
0.00000001
 43
0.00000001
 40
0.0
 40
0.0
 40
0.0
 40
0.0
 40
0.25
 40
0.25
 40
0.5
 40
0.5
 40
0.75
 40
0.75
 40
1.0
 40
1.0
 40
1.0
 40
1.0
 10
830.739453961123
 20
69.70206929240263
 30
0.0
 10
830.644529385451
 20
69.72215386923621
 30
0.0
 10
830.4262773739662
 20
69.72171780988246
 30
0.0
 10
829.8687597386839
 20
69.70412951445417
 30
0.0
 10
829.5311934597746
 20
69.68772016638535
 30
0.0
 10
828.8005502161137
 20
69.64630204159396
 30
0.0
 10
828.4031520750463
 20
69.6206904826123
 30
0.0
 10
827.5906208588153
 20
69.56457293224456
 30
0.0
 10
827.1729200290505
 20
69.53409098750583
 30
0.0
 10
826.7458634722702
 20
69.50105585012024
 30
0.0
  0
SPLINE
  5
28F
330
1F
100
AcDbEntity
  8
0
  6
Continuous
 62
     7
370
    15
100
AcDbSpline
210
0.0
220
0.0
230
1.0
 70
     8
 71
     3
 72
    18
 73
    14
 74
     0
 42
0.00000001
 43
0.00000001
 40
0.0
 40
0.0
 40
0.0
 40
0.0
 40
0.2499999999999979
 40
0.2499999999999979
 40
0.4999999999999958
 40
0.4999999999999958
 40
0.6249999999999968
 40
0.6249999999999968
 40
0.7499999999999979
 40
0.7499999999999979
 40
0.8749999999999989
 40
0.8749999999999989
 40
1.0
 40
1.0
 40
1.0
 40
1.0
 10
686.6965120032007
 20
69.50368469151312
 30
0.0
 10
686.2657617791175
 20
69.53704385848881
 30
0.0
 10
685.8435945314478
 20
69.567936911355
 30
0.0
 10
685.0207122236661
 20
69.62486256215016
 30
0.0
 10
684.6195915879772
 20
69.6507544955748
 30
0.0
 10
684.0657867355485
 20
69.68223528437815
 30
0.0
 10
683.8899062869298
 20
69.69147614768104
 30
0.0
 10
683.5576910045008
 20
69.70720770331423
 30
0.0
 10
683.4011216884028
 20
69.713831440481
 30
0.0
 10
683.1181139139193
 20
69.72295747939224
 30
0.0
 10
682.9920734908411
 20
69.72536834741898
 30
0.0
 10
682.7851396901738
 20
69.72288620346211
 30
0.0
 10
682.7050846951615
 20
69.71801461873949
 30
0.0
 10
682.6571479236044
 20
69.70760635770664
 30
0.0
  0
ARC
  5
290
330
1F
100
AcDbEntity
  8
0
  6
Continuous
 62
     7
370
    15
100
AcDbCircle
 10
685.9147049148
 20
88.1206271178
 30
0.0
 40
18.69895321284064
100
AcDbArc
 50
238.9081870768
 51
259.967279518
  0
SPLINE
  5
291
330
1F
100
AcDbEntity
  8
0
  6
Continuous
 62
     7
370
    15
100
AcDbSpline
210
0.0
220
0.0
230
1.0
 70
     8
 71
     3
 72
    14
 73
    10
 74
     0
 42
0.00000001
 43
0.00000001
 40
0.0
 40
0.0
 40
0.0
 40
0.0
 40
0.25
 40
0.25
 40
0.5
 40
0.5
 40
0.75
 40
0.75
 40
1.0
 40
1.0
 40
1.0
 40
1.0
 10
756.7136001022769
 20
61.75896599684764
 30
0.0
 10
759.9150612430464
 20
61.76059762751652
 30
0.0
 10
763.1156308960542
 20
61.80015586241881
 30
0.0
 10
769.5154045164678
 20
61.93833941717649
 30
0.0
 10
772.7146387092598
 20
62.03577809493348
 30
0.0
 10
779.1124829397609
 20
62.25911463839286
 30
0.0
 10
782.3109832922423
 20
62.3846829310565
 30
0.0
 10
788.707572162376
 20
62.64406189971979
 30
0.0
 10
791.9060749932866
 20
62.77793809262162
 30
0.0
 10
795.1039099485407
 20
62.91066690087401
 30
0.0
  0
SPLINE
  5
292
330
1F
100
AcDbEntity
  8
0
  6
Continuous
 62
     7
370
    15
100
AcDbSpline
210
0.0
220
0.0
230
1.0
 70
     8
 71
     3
 72
    48
 73
    44
 74
     0
 42
0.00000001
 43
0.00000001
 40
0.0
 40
0.0
 40
0.0
 40
0.0
 40
0.00390625
 40
0.00390625
 40
0.0078125
 40
0.015625
 40
0.03125
 40
0.03125
 40
0.0624999999999999
 40
0.0624999999999999
 40
0.1249999999999998
 40
0.1249999999999998
 40
0.1874999999999997
 40
0.1874999999999997
 40
0.2499999999999996
 40
0.2499999999999996
 40
0.3124999999999994
 40
0.3124999999999994
 40
0.3749999999999993
 40
0.3749999999999993
 40
0.4062499999999992
 40
0.4062499999999992
 40
0.4374999999999991
 40
0.4374999999999991
 40
0.4687499999999991
 40
0.4687499999999991
 40
0.4999999999999991
 40
0.4999999999999991
 40
0.5624999999999989
 40
0.5624999999999989
 40
0.6249999999999989
 40
0.6249999999999989
 40
0.6874999999999988
 40
0.6874999999999988
 40
0.7187499999999989
 40
0.7187499999999989
 40
0.749999999999999
 40
0.749999999999999
 40
0.8749999999999994
 40
0.8749999999999994
 40
0.9374999999999998
 40
0.9374999999999998
 40
1.0
 40
1.0
 40
1.0
 40
1.0
 10
710.3810673408298
 20
61.70167517523294
 30
0.0
 10
710.3810673979984
 20
61.70167516367149
 30
0.0
 10
710.3813496638526
 20
61.70164872751173
 30
0.0
 10
710.3824773548716
 20
61.70154304518492
 30
0.0
 10
710.3850134721274
 20
61.70130534579775
 30
0.0
 10
710.396826991126
 20
61.70019779857717
 30
0.0
 10
710.4170071566174
 20
61.6983056530923
 30
0.0
 10
710.4706561990095
 20
61.69328309938611
 30
0.0
 10
710.5241321600253
 20
61.68828186940041
 30
0.0
 10
710.7370661647093
 20
61.66853968020082
 30
0.0
 10
710.9489032679134
 20
61.64903557572694
 30
0.0
 10
711.5121477555963
 20
61.59917317828163
 30
0.0
 10
711.8635535838298
 20
61.56882079109875
 30
0.0
 10
712.7099499413121
 20
61.49948574148954
 30
0.0
 10
713.2067522138899
 20
61.46039573066432
 30
0.0
 10
714.3329093548227
 20
61.37764734915825
 30
0.0
 10
714.9634104456142
 20
61.33388367962105
 30
0.0
 10
716.3614212378299
 20
61.24430419509009
 30
0.0
 10
717.1262689719707
 20
61.19869379517974
 30
0.0
 10
718.3660504150993
 20
61.13119440316643
 30
0.0
 10
718.7950527733552
 20
61.10881786812629
 30
0.0
 10
719.6847804877078
 20
61.06452233284991
 30
0.0
 10
720.1461864744364
 20
61.04257358394409
 30
0.0
 10
721.0968245036438
 20
60.99950522497917
 30
0.0
 10
721.5847233658739
 20
60.97676984305282
 30
0.0
 10
722.5948650431036
 20
60.9392194427268
 30
0.0
 10
723.1180910307851
 20
60.93205239676254
 30
0.0
 10
724.7374282374868
 20
60.94279825298531
 30
0.0
 10
725.8848569177942
 20
60.9873577876235
 30
0.0
 10
728.2741590984931
 20
61.07884085706823
 30
0.0
 10
729.5159184333861
 20
61.12609556248956
 30
0.0
 10
732.0832341059998
 20
61.22163217262556
 30
0.0
 10
733.4033287842332
 20
61.26972845967503
 30
0.0
 10
735.435471966545
 20
61.34058833119878
 30
0.0
 10
736.1216289639606
 20
61.36398785245202
 30
0.0
 10
737.5115211770031
 20
61.40999502628051
 30
0.0
 10
738.2152253048843
 20
61.43259705989483
 30
0.0
 10
741.7500676105819
 20
61.54187519880104
 30
0.0
 10
744.6511868822039
 20
61.61805100186969
 30
0.0
 10
749.1092808582174
 20
61.69905691248938
 30
0.0
 10
750.613174515175
 20
61.72056100808611
 30
0.0
 10
753.6577055124388
 20
61.75020446899364
 30
0.0
 10
755.1841320203215
 20
61.7581865005742
 30
0.0
 10
756.7136001022766
 20
61.7589659968479
 30
0.0
  0
SPLINE
  5
293
330
1F
100
AcDbEntity
  8
0
  6
Continuous
 62
     7
370
    15
100
AcDbSpline
210
0.0
220
0.0
230
1.0
 70
     8
 71
     3
 72
     8
 73
     4
 74
     0
 42
0.00000001
 43
0.00000001
 40
0.0
 40
0.0
 40
0.0
 40
0.0
 40
1.0
 40
1.0
 40
1.0
 40
1.0
 10
710.3810673408298
 20
61.70167517523294
 30
0.0
 10
700.1377880665582
 20
63.77320898624004
 30
0.0
 10
690.0572034353137
 20
66.60023758887542
 30
0.0
 10
680.222513675594
 20
70.16150483925469
 30
0.0
  0
SPLINE
  5
294
330
1F
100
AcDbEntity
  8
0
  6
Continuous
 62
     7
370
    15
100
AcDbSpline
210
0.0
220
0.0
230
1.0
 70
     8
 71
     3
 72
    12
 73
     8
 74
     0
 42
0.00000001
 43
0.00000001
 40
0.0
 40
0.0
 40
0.0
 40
0.0
 40
0.5
 40
0.5
 40
0.75
 40
0.75
 40
1.0
 40
1.0
 40
1.0
 40
1.0
 10
681.2443304411173
 20
69.8897527264885
 30
0.0
 10
680.9805104631448
 20
69.94840343786537
 30
0.0
 10
680.7199468984667
 20
70.0163990923875
 30
0.0
 10
680.4335674412063
 20
70.09757197548743
 30
0.0
 10
680.3559288477912
 20
70.12076259781162
 30
0.0
 10
680.2503295181089
 20
70.15278337319316
 30
0.0
 10
680.222513675594
 20
70.16150483925469
 30
0.0
 10
680.222513675594
 20
70.16150483925469
 30
0.0
  0
SPLINE
  5
295
330
1F
100
AcDbEntity
  8
0
  6
Continuous
 62
     7
370
    15
100
AcDbSpline
210
0.0
220
0.0
230
1.0
 70
     8
 71
     3
 72
    21
 73
    17
 74
     0
 42
0.00000001
 43
0.00000001
 40
0.0
 40
0.0
 40
0.0
 40
0.0
 40
0.2500000000000001
 40
0.2500000000000001
 40
0.5000000000000001
 40
0.5000000000000001
 40
0.7500000000000002
 40
0.7500000000000002
 40
0.8749999999999986
 40
0.8749999999999986
 40
0.9374999999999912
 40
0.9687499999999939
 40
0.984374999999997
 40
0.9921874999999986
 40
0.9921874999999986
 40
1.0
 40
1.0
 40
1.0
 40
1.0
 10
682.6571479236037
 20
69.70760635770677
 30
0.0
 10
682.5925031419694
 20
69.69357037364203
 30
0.0
 10
682.5153879501046
 20
69.6855742520048
 30
0.0
 10
682.3268594883392
 20
69.68555369941113
 30
0.0
 10
682.2204274789276
 20
69.69233791359903
 30
0.0
 10
681.9854715993281
 20
69.72029872510217
 30
0.0
 10
681.855925933873
 20
69.7417206559304
 30
0.0
 10
681.640520040745
 20
69.78723846735254
 30
0.0
 10
681.5655161328934
 20
69.80458562759763
 30
0.0
 10
681.448501590413
 20
69.83395852329578
 30
0.0
 10
681.3888429556737
 20
69.84948826596386
 30
0.0
 10
681.3172446842792
 20
69.86911307309131
 30
0.0
 10
681.2809511274925
 20
69.87930561724028
 30
0.0
 10
681.2652913814666
 20
69.88375566174247
 30
0.0
 10
681.2548282085346
 20
69.88674057612222
 30
0.0
 10
681.2490053575445
 20
69.88717430202267
 30
0.0
 10
681.2443304411173
 20
69.8897527264885
 30
0.0
  0
SPLINE
  5
296
330
1F
100
AcDbEntity
  8
0
  6
Continuous
 62
     7
370
    15
100
AcDbSpline
210
0.0
220
0.0
230
1.0
 70
     8
 71
     3
 72
    16
 73
    12
 74
     0
 42
0.00000001
 43
0.00000001
 40
0.0
 40
0.0
 40
0.0
 40
0.0
 40
0.1249999999999952
 40
0.1249999999999952
 40
0.2499999999999903
 40
0.2499999999999903
 40
0.4999999999999936
 40
0.4999999999999936
 40
0.7499999999999968
 40
0.7499999999999968
 40
1.0
 40
1.0
 40
1.0
 40
1.0
 10
832.0934159863266
 20
69.8693607351944
 30
0.0
 10
832.0142369983284
 20
69.84713554113615
 30
0.0
 10
831.9358633906522
 20
69.82653880727901
 30
0.0
 10
831.7878672347808
 20
69.79033655743332
 30
0.0
 10
831.7170431050915
 20
69.77439377144528
 30
0.0
 10
831.5137294406621
 20
69.7325931858253
 30
0.0
 10
831.3904121465016
 20
69.71275071852516
 30
0.0
 10
831.1652733467332
 20
69.68687860421088
 30
0.0
 10
831.0629144461321
 20
69.6807183950887
 30
0.0
 10
830.8786080764407
 20
69.68089906345556
 30
0.0
 10
830.8027931592359
 20
69.68866769453237
 30
0.0
 10
830.7394539611223
 20
69.70206929240237
 30
0.0
  0
SPLINE
  5
297
330
1F
100
AcDbEntity
  8
0
  6
Continuous
 62
     7
370
    15
100
AcDbSpline
210
0.0
220
0.0
230
1.0
 70
     8
 71
     3
 72
     8
 73
     4
 74
     0
 42
0.00000001
 43
0.00000001
 40
0.0
 40
0.0
 40
0.0
 40
0.0
 40
1.0
 40
1.0
 40
1.0
 40
1.0
 10
832.5359827629413
 20
69.9724100584587
 30
0.0
 10
832.3947216696605
 20
69.93686689338823
 30
0.0
 10
832.2435789623354
 20
69.90152532189902
 30
0.0
 10
832.0934159863266
 20
69.8693607351944
 30
0.0
  0
SPLINE
  5
298
330
1F
100
AcDbEntity
  8
0
  6
Continuous
 62
     7
370
    15
100
AcDbSpline
210
0.0
220
0.0
230
1.0
 70
     8
 71
     3
 72
    20
 73
    16
 74
     0
 42
0.00000001
 43
0.00000001
 40
0.0
 40
0.0
 40
0.0
 40
0.0
 40
0.0039062500000004
 40
0.0039062500000004
 40
0.0078125000000008
 40
0.0156250000000001
 40
0.0312499999999995
 40
0.0624999999999991
 40
0.1249999999999989
 40
0.1249999999999989
 40
0.2499999999999993
 40
0.2499999999999993
 40
0.4999999999999993
 40
0.4999999999999993
 40
1.0
 40
1.0
 40
1.0
 40
1.0
 10
810.3011082383172
 20
64.43657298385321
 30
0.0
 10
810.3304636401866
 20
64.44191629061295
 30
0.0
 10
810.3598519665436
 20
64.44750833978884
 30
0.0
 10
810.4185916439742
 20
64.45846400545031
 30
0.0
 10
810.506697105059
 20
64.47491781576934
 30
0.0
 10
810.7122481176818
 20
64.51345228104756
 30
0.0
 10
811.1232364689176
 20
64.59109063630471
 30
0.0
 10
811.9447577955891
 20
64.74864861466801
 30
0.0
 10
812.6481360434236
 20
64.8876208633336
 30
0.0
 10
814.053843575573
 20
65.17082250297148
 30
0.0
 10
814.9896927954079
 20
65.36665991024344
 30
0.0
 10
817.7914294009539
 20
65.97501418638245
 30
0.0
 10
819.6519142366092
 20
66.40846302792556
 30
0.0
 10
825.2113206620475
 20
67.79262994914866
 30
0.0
 10
828.8881867408628
 20
68.82720298050323
 30
0.0
 10
832.5359827629412
 20
69.97241005845865
 30
0.0
  0
SPLINE
  5
299
330
1F
100
AcDbEntity
  8
0
  6
Continuous
 62
     7
370
    15
100
AcDbSpline
210
0.0
220
0.0
230
1.0
 70
     8
 71
     3
 72
    21
 73
    17
 74
     0
 42
0.00000001
 43
0.00000001
 40
0.0
 40
0.0
 40
0.0
 40
0.0
 40
0.0312499999999996
 40
0.0312499999999996
 40
0.0624999999999992
 40
0.1249999999999985
 40
0.1249999999999985
 40
0.2499999999999983
 40
0.2499999999999983
 40
0.4999999999999993
 40
0.4999999999999993
 40
0.7500000000000004
 40
0.7500000000000004
 40
0.8750000000000002
 40
0.8750000000000002
 40
1.0
 40
1.0
 40
1.0
 40
1.0
 10
795.1039099485407
 20
62.91066690087401
 30
0.0
 10
795.2631247764555
 20
62.91765415312496
 30
0.0
 10
795.4224945553344
 20
62.92456160231584
 30
0.0
 10
795.7410314933269
 20
62.93886901061514
 30
0.0
 10
796.2187886706708
 20
62.9607601308486
 30
0.0
 10
796.696398876709
 20
62.98406706782687
 30
0.0
 10
797.6513992472396
 20
63.03292339520379
 30
0.0
 10
798.2877859840457
 20
63.06841608341361
 30
0.0
 10
800.195789526673
 20
63.18676553668733
 30
0.0
 10
801.4662873927283
 20
63.28136893705387
 30
0.0
 10
804.002883284051
 20
63.51727304610085
 30
0.0
 10
805.2697392459655
 20
63.65878361215639
 30
0.0
 10
807.1629995053884
 20
63.91523059836545
 30
0.0
 10
807.7926472716102
 20
64.00807636493538
 30
0.0
 10
809.0491006124856
 20
64.20995736062977
 30
0.0
 10
809.6768413293352
 20
64.31906047755375
 30
0.0
 10
810.3011082383172
 20
64.43657298385321
 30
0.0
  0
ARC
  5
29A
330
1F
100
AcDbEntity
  8
0
  6
Continuous
 62
     7
370
    15
100
AcDbCircle
 10
687.0320644602
 20
88.9665578334
 30
0.0
 40
20.00000000000006
100
AcDbArc
 50
239.0107068729
 51
250.0940289972
  0
SPLINE
  5
29B
330
1F
100
AcDbEntity
  8
0
  6
Continuous
 62
     7
370
    15
100
AcDbSpline
210
0.0
220
0.0
230
1.0
 70
     8
 71
     3
 72
    22
 73
    18
 74
     0
 42
0.00000001
 43
0.00000001
 40
0.0
 40
0.0
 40
0.0
 40
0.0
 40
0.5000000000000003
 40
0.5000000000000003
 40
0.7500000000000004
 40
0.7500000000000004
 40
0.8750000000000006
 40
0.8750000000000006
 40
0.9375000000000008
 40
0.9687500000000009
 40
0.9765625000000009
 40
0.9765625000000009
 40
0.9804687500000006
 40
0.9804687500000006
 40
0.9843750000000002
 40
0.9843750000000002
 40
1.0
 40
1.0
 40
1.0
 40
1.0
 10
676.7345067220638
 20
71.82128721347534
 30
0.0
 10
676.7345067220638
 20
71.82128721347526
 30
0.0
 10
676.7061112654936
 20
71.83833763295793
 30
0.0
 10
676.6365713309198
 20
71.88013526032354
 30
0.0
 10
676.6092114582231
 20
71.89658528915234
 30
0.0
 10
676.5651116120471
 20
71.92311329113944
 30
0.0
 10
676.5499015612523
 20
71.9322647947203
 30
0.0
 10
676.5266954350882
 20
71.94623069207772
 30
0.0
 10
676.5149937251235
 20
71.95327382722023
 30
0.0
 10
676.5022232826775
 20
71.96096159443559
 30
0.0
 10
676.497301446203
 20
71.96392474557271
 30
0.0
 10
676.4958243592401
 20
71.96481402686382
 30
0.0
 10
676.496877058558
 20
71.96418017733532
 30
0.0
 10
676.4871301765397
 20
71.97004854999743
 30
0.0
 10
676.4781967866735
 20
71.97542734394723
 30
0.0
 10
676.4228122362948
 20
72.00878146982203
 30
0.0
 10
676.3456947254101
 20
72.05524537671475
 30
0.0
 10
676.2583578760465
 20
72.10795286169467
 30
0.0
  0
SPLINE
  5
29C
330
1F
100
AcDbEntity
  8
0
  6
Continuous
 62
     7
370
    15
100
AcDbSpline
210
0.0
220
0.0
230
1.0
 70
     8
 71
     3
 72
     8
 73
     4
 74
     0
 42
0.00000001
 43
0.00000001
 40
0.0
 40
0.0
 40
0.0
 40
0.0
 40
1.0
 40
1.0
 40
1.0
 40
1.0
 10
832.5359827629413
 20
69.97241005845865
 30
0.0
 10
834.0541365816459
 20
70.44902489280179
 30
0.0
 10
835.4943835367501
 20
71.09737777664539
 30
0.0
 10
836.8569178590261
 20
71.91704030448302
 30
0.0
  0
SPLINE
  5
29D
330
1F
100
AcDbEntity
  8
0
  6
Continuous
 62
     7
370
    15
100
AcDbSpline
210
0.0
220
0.0
230
1.0
 70
     8
 71
     3
 72
    18
 73
    14
 74
     0
 42
0.00000001
 43
0.00000001
 40
0.0
 40
0.0
 40
0.0
 40
0.0
 40
0.0312499999999996
 40
0.0312499999999996
 40
0.0624999999999992
 40
0.0624999999999992
 40
0.0937499999999989
 40
0.0937499999999989
 40
0.1249999999999985
 40
0.2499999999999992
 40
0.4999999999999994
 40
0.4999999999999994
 40
1.0
 40
1.0
 40
1.0
 40
1.0
 10
837.18799580368
 20
72.11654029045104
 30
0.0
 10
837.1399200802803
 20
72.08752259817746
 30
0.0
 10
837.0957369536392
 20
72.06087604494567
 30
0.0
 10
837.0209756316352
 20
72.01581029657868
 30
0.0
 10
836.9897293757548
 20
71.99698855619623
 30
0.0
 10
836.9541665566459
 20
71.9755701324346
 30
0.0
 10
836.9585413982142
 20
71.97820551028157
 30
0.0
 10
836.9561894845737
 20
71.97678923117194
 30
0.0
 10
836.9503093754402
 20
71.97324840060472
 30
0.0
 10
836.9350216374254
 20
71.96404338794287
 30
0.0
 10
836.9209544374098
 20
71.95557509493626
 30
0.0
 10
836.893010830785
 20
71.93875572504653
 30
0.0
 10
836.8746311841727
 20
71.9276961453149
 30
0.0
 10
836.8569178590259
 20
71.91704030448291
 30
0.0
  0
ARC
  5
2A3
330
1F
100
AcDbEntity
  8
0
  6
Continuous
 62
     7
370
    15
100
AcDbCircle
 10
969.3786380513
 20
204.7107346992
 30
0.0
 40
5.000000000000117
100
AcDbArc
 50
91.1644409119
 51
176.0
  0
LINE
  5
2A8
330
1F
100
AcDbEntity
  8
0
  6
Continuous
 62
     7
370
    15
100
AcDbLine
 10
964.3908192668
 20
205.0595178048
 30
0.0
 11
962.8709306274
 21
183.3240805905
 31
0.0
  0
ARC
  5
2B3
330
1F
100
AcDbEntity
  8
0
  6
Continuous
 62
     7
370
    15
100
AcDbCircle
 10
952.8952875008
 20
184.0216450771
 30
0.0
 40
10.00000000000002
100
AcDbArc
 50
337.4679569626
 51
356.0
  0
ARC
  5
2B5
330
1F
100
AcDbEntity
  8
0
  6
Continuous
 62
     7
370
    15
100
AcDbCircle
 10
685.0323302462
 20
295.1496619352
 30
0.0
 40
300.0
100
AcDbArc
 50
306.2874740368
 51
337.4679569626
  0
ARC
  5
2B8
330
1F
100
AcDbEntity
  8
0
  6
Continuous
 62
     7
370
    15
100
AcDbCircle
 10
709.3899642005
 20
56.8008880379
 30
0.0
 40
5.000000000000057
100
AcDbArc
 50
4.0
 51
78.5670745411
  0
SPLINE
  5
2BC
330
1F
100
AcDbEntity
  8
0
  6
Continuous
 62
     7
370
    15
100
AcDbSpline
210
0.0
220
0.0
230
1.0
 70
    24
 71
     1
 72
     4
 73
     2
 74
     0
 42
0.00000001
 43
0.00000001
 40
0.0
 40
0.0
 40
1.0
 40
1.0
 10
791.2928586158878
 20
36.71073231502907
 30
0.0
 10
790.9452070746547
 20
36.6929850320472
 30
0.0
  0
ARC
  5
2BF
330
1F
100
AcDbEntity
  8
0
  6
Continuous
 62
     7
370
    15
100
AcDbCircle
 10
831.2160626207
 20
96.0534128769
 30
0.0
 40
52.99999999999999
100
AcDbArc
 50
290.8345190337
 51
306.2874740368
  0
ARC
  5
2C1
330
1F
100
AcDbEntity
  8
0
  6
Continuous
 62
     7
370
    15
100
AcDbCircle
 10
796.7160626207
 20
186.7107346992
 30
0.0
 40
150.0
100
AcDbArc
 50
270.0
 51
290.8345190337
  0
LINE
  5
2C3
330
1F
100
AcDbEntity
  8
0
  6
Continuous
 62
     7
370
    15
100
AcDbLine
 10
796.7160617266
 20
36.710732315
 30
0.0
 11
791.2928586159
 21
36.710732315
 31
0.0
  0
LINE
  5
2C4
330
1F
100
AcDbEntity
  8
0
  6
Continuous
 62
     7
370
    15
100
AcDbLine
 10
793.918517724
 20
23.7107357721
 30
0.0
 11
719.5136075173
 21
23.7107357721
 31
0.0
  0
SPLINE
  5
2C5
330
1F
100
AcDbEntity
  8
0
  6
Continuous
 62
     7
370
    15
100
AcDbSpline
210
0.0
220
0.0
230
1.0
 70
     8
 71
     3
 72
    15
 73
    11
 74
     0
 42
0.00000001
 43
0.00000001
 40
0.0
 40
0.0
 40
0.0
 40
0.0
 40
0.1184777654276013
 40
0.2475805162571241
 40
0.4256771876437101
 40
0.6040287500008356
 40
0.7819238913022237
 40
0.9366226718580604
 40
0.9988705563727698
 40
1.0
 40
1.0
 40
1.0
 40
1.0
 10
790.9452070746547
 20
36.6929850320472
 30
0.0
 10
789.6431376912808
 20
36.64857318876543
 30
0.0
 10
786.9222304478428
 20
36.55576668580731
 30
0.0
 10
782.2155213232427
 20
35.89826453973126
 30
0.0
 10
776.7681555137077
 20
34.97335465823791
 30
0.0
 10
770.6561875460158
 20
33.74905892162229
 30
0.0
 10
764.7035353491005
 20
32.49521125576467
 30
0.0
 10
760.0488822249856
 20
31.51433818335615
 30
0.0
 10
757.4766807277618
 20
30.96595787827509
 30
0.0
 10
756.729380218949
 20
30.80652966122395
 30
0.0
 10
756.7160626206523
 20
30.80368850036995
 30
0.0
  0
ENDSEC
  0
SECTION
  2
OBJECTS
  0
DICTIONARY
  5
C
330
0
100
AcDbDictionary
281
     1
  3
ACAD_COLOR
350
6C
  3
ACAD_GROUP
350
D
  3
ACAD_LAYOUT
350
1A
  3
ACAD_MATERIAL
350
6B
  3
ACAD_MLEADERSTYLE
350
2CB
  3
ACAD_MLINESTYLE
350
17
  3
ACAD_PLOTSETTINGS
350
19
  3
ACAD_PLOTSTYLENAME
350
E
  3
ACAD_SCALELIST
350
3B
  3
ACAD_TABLESTYLE
350
92
  3
ACAD_VISUALSTYLE
350
2A
  3
AcDbVariableDictionary
350
59
  0
DICTIONARY
  5
6C
102
{ACAD_REACTORS
330
C
102
}
330
C
100
AcDbDictionary
281
     1
  0
DICTIONARY
  5
D
102
{ACAD_REACTORS
330
C
102
}
330
C
100
AcDbDictionary
281
     1
  0
DICTIONARY
  5
1A
102
{ACAD_REACTORS
330
C
102
}
330
C
100
AcDbDictionary
281
     1
  3
Layout1
350
74
  3
Layout2
350
26
  3
Model
350
22
  0
DICTIONARY
  5
6B
102
{ACAD_REACTORS
330
C
102
}
330
C
100
AcDbDictionary
281
     1
  0
DICTIONARY
  5
2CB
102
{ACAD_REACTORS
330
C
102
}
330
C
100
AcDbDictionary
281
     1
  0
DICTIONARY
  5
17
102
{ACAD_REACTORS
330
C
102
}
330
C
100
AcDbDictionary
281
     1
  3
Standard
350
18
  0
DICTIONARY
  5
19
102
{ACAD_REACTORS
330
C
102
}
330
C
100
AcDbDictionary
281
     1
  0
ACDBDICTIONARYWDFLT
  5
E
102
{ACAD_REACTORS
330
C
102
}
330
C
100
AcDbDictionary
281
     1
  3
Normal
350
F
100
AcDbDictionaryWithDefault
340
F
  0
DICTIONARY
  5
3B
102
{ACAD_REACTORS
330
C
102
}
330
C
100
AcDbDictionary
281
     1
  3
A0
350
3C
  3
A1
350
3D
  3
A2
350
3E
  3
A3
350
3F
  3
A4
350
40
  3
A5
350
41
  3
A6
350
42
  3
A7
350
43
  3
A8
350
44
  3
A9
350
45
  3
B0
350
46
  3
B1
350
47
  3
B2
350
48
  3
B3
350
49
  3
B4
350
4A
  3
B5
350
4B
  3
B6
350
4C
  3
B7
350
4D
  3
B8
350
4E
  3
B9
350
4F
  3
C0
350
50
  3
C1
350
51
  3
C2
350
52
  3
C3
350
53
  3
C4
350
54
  3
C5
350
55
  3
C6
350
56
  3
C7
350
57
  3
C8
350
58
  3
C9
350
2D8
  3
D0
350
2D9
  3
D1
350
5B
  3
D2
350
5C
  0
DICTIONARY
  5
92
102
{ACAD_REACTORS
330
C
102
}
330
C
100
AcDbDictionary
281
     1
  3
Standard
350
93
  0
DICTIONARY
  5
2A
102
{ACAD_REACTORS
330
C
102
}
330
C
100
AcDbDictionary
281
     1
  3
2DWIREFRAME
350
2F
  3
3D HIDDEN
350
31
  3
3DWIREFRAME
350
30
  3
BASIC
350
32
  3
BRIGHTEN
350
36
  3
COLORCHANGE
350
3A
  3
CONCEPTUAL
350
34
  3
DIM
350
35
  3
FACEPATTERN
350
39
  3
FLAT
350
2B
  3
FLATWITHEDGES
350
2C
  3
GOURAUD
350
2D
  3
GOURAUDWITHEDGES
350
2E
  3
LINEPATTERN
350
38
  3
REALISTIC
350
33
  3
THICKEN
350
37
  0
DICTIONARY
  5
59
102
{ACAD_REACTORS
330
C
102
}
330
C
100
AcDbDictionary
281
     1
  3
CTABLESTYLE
350
98
  3
DIMASSOC
350
2CF
  3
HIDETEXT
350
5E
  0
LAYOUT
  5
74
102
{ACAD_REACTORS
330
1A
102
}
330
1A
100
AcDbPlotSettings
  1

  2
none_device
  4
ISO_C5_(229.00_x_162.00_MM)
  6

 40
0.0
 41
0.0
 42
0.0
 43
0.0
 44
229.0
 45
162.0
 46
0.0
 47
0.0
 48
0.0
 49
0.0
140
0.0
141
0.0
142
1.0
143
1.0
 70
   688
 72
     1
 73
     0
 74
     5
  7

 75
    16
 76
     0
 77
     2
 78
   300
147
1.0
148
0.0
149
0.0
100
AcDbLayout
  1
Layout1
 70
     1
 71
     1
 10
0.0
 20
0.0
 11
420.0
 21
297.0
 12
0.0
 22
0.0
 32
0.0
 14
1.000000000000000E+20
 24
1.000000000000000E+20
 34
1.000000000000000E+20
 15
-1.000000000000000E+20
 25
-1.000000000000000E+20
 35
-1.000000000000000E+20
146
0.0
 13
0.0
 23
0.0
 33
0.0
 16
1.0
 26
0.0
 36
0.0
 17
0.0
 27
1.0
 37
0.0
 76
     0
330
73
  0
LAYOUT
  5
26
102
{ACAD_REACTORS
330
1A
102
}
330
1A
100
AcDbPlotSettings
  1

  2
none_device
  4
ISO_C5_(229.00_x_162.00_MM)
  6

 40
0.0
 41
0.0
 42
0.0
 43
0.0
 44
229.0
 45
162.0
 46
0.0
 47
0.0
 48
0.0
 49
0.0
140
0.0
141
0.0
142
1.0
143
1.0
 70
   688
 72
     1
 73
     0
 74
     5
  7

 75
    16
 76
     0
 77
     2
 78
   300
147
1.0
148
0.0
149
0.0
100
AcDbLayout
  1
Layout2
 70
     1
 71
     2
 10
0.0
 20
0.0
 11
0.0
 21
0.0
 12
0.0
 22
0.0
 32
0.0
 14
0.0
 24
0.0
 34
0.0
 15
0.0
 25
0.0
 35
0.0
146
0.0
 13
0.0
 23
0.0
 33
0.0
 16
1.0
 26
0.0
 36
0.0
 17
0.0
 27
1.0
 37
0.0
 76
     0
330
23
  0
LAYOUT
  5
22
102
{ACAD_REACTORS
330
1A
102
}
330
1A
100
AcDbPlotSettings
  1

  2
none_device
  4
ISO_C5_(229.00_x_162.00_MM)
  6

 40
0.0
 41
0.0
 42
0.0
 43
0.0
 44
229.0
 45
162.0
 46
0.0
 47
0.0
 48
0.0
 49
0.0
140
0.0
141
0.0
142
1.0
143
5.744239614366051
 70
 11952
 72
     1
 73
     0
 74
     0
  7

 75
     0
 76
     0
 77
     2
 78
   300
147
0.1740874453598786
148
0.0
149
0.0
100
AcDbLayout
  1
Model
 70
     1
 71
     0
 10
0.0
 20
0.0
 11
1000.0
 21
750.0
 12
0.0
 22
0.0
 32
0.0
 14
23.16983802119994
 24
23.7107346992
 34
0.0
 15
972.2160626207001
 25
710.7668454371002
 35
0.0
146
0.0
 13
0.0
 23
0.0
 33
0.0
 16
1.0
 26
0.0
 36
0.0
 17
0.0
 27
1.0
 37
0.0
 76
     0
330
1F
331
97
  0
MLINESTYLE
  5
18
102
{ACAD_REACTORS
330
17
102
}
330
17
100
AcDbMlineStyle
  2
Standard
 70
     0
  3

 62
   256
 51
90.0
 52
90.0
 71
     2
 49
0.5
 62
   256
  6
BYLAYER
 49
-0.5
 62
   256
  6
BYLAYER
  0
ACDBPLACEHOLDER
  5
F
102
{ACAD_REACTORS
330
E
102
}
330
E
  0
SCALE
  5
3C
102
{ACAD_REACTORS
330
3B
102
}
330
3B
100
AcDbScale
 70
     0
300
1:1
140
1.0
141
1.0
290
     1
  0
SCALE
  5
3D
102
{ACAD_REACTORS
330
3B
102
}
330
3B
100
AcDbScale
 70
     0
300
1:2
140
1.0
141
2.0
290
     1
  0
SCALE
  5
3E
102
{ACAD_REACTORS
330
3B
102
}
330
3B
100
AcDbScale
 70
     0
300
1:4
140
1.0
141
4.0
290
     1
  0
SCALE
  5
3F
102
{ACAD_REACTORS
330
3B
102
}
330
3B
100
AcDbScale
 70
     0
300
1:5
140
1.0
141
5.0
290
     1
  0
SCALE
  5
40
102
{ACAD_REACTORS
330
3B
102
}
330
3B
100
AcDbScale
 70
     0
300
1:8
140
1.0
141
8.0
290
     1
  0
SCALE
  5
41
102
{ACAD_REACTORS
330
3B
102
}
330
3B
100
AcDbScale
 70
     0
300
1:10
140
1.0
141
10.0
290
     1
  0
SCALE
  5
42
102
{ACAD_REACTORS
330
3B
102
}
330
3B
100
AcDbScale
 70
     0
300
1:16
140
1.0
141
16.0
290
     1
  0
SCALE
  5
43
102
{ACAD_REACTORS
330
3B
102
}
330
3B
100
AcDbScale
 70
     0
300
1:20
140
1.0
141
20.0
290
     1
  0
SCALE
  5
44
102
{ACAD_REACTORS
330
3B
102
}
330
3B
100
AcDbScale
 70
     0
300
1:30
140
1.0
141
30.0
290
     1
  0
SCALE
  5
45
102
{ACAD_REACTORS
330
3B
102
}
330
3B
100
AcDbScale
 70
     0
300
1:40
140
1.0
141
40.0
290
     1
  0
SCALE
  5
46
102
{ACAD_REACTORS
330
3B
102
}
330
3B
100
AcDbScale
 70
     0
300
1:50
140
1.0
141
50.0
290
     1
  0
SCALE
  5
47
102
{ACAD_REACTORS
330
3B
102
}
330
3B
100
AcDbScale
 70
     0
300
1:100
140
1.0
141
100.0
290
     1
  0
SCALE
  5
48
102
{ACAD_REACTORS
330
3B
102
}
330
3B
100
AcDbScale
 70
     0
300
2:1
140
2.0
141
1.0
290
     1
  0
SCALE
  5
49
102
{ACAD_REACTORS
330
3B
102
}
330
3B
100
AcDbScale
 70
     0
300
4:1
140
4.0
141
1.0
290
     1
  0
SCALE
  5
4A
102
{ACAD_REACTORS
330
3B
102
}
330
3B
100
AcDbScale
 70
     0
300
8:1
140
8.0
141
1.0
290
     1
  0
SCALE
  5
4B
102
{ACAD_REACTORS
330
3B
102
}
330
3B
100
AcDbScale
 70
     0
300
10:1
140
10.0
141
1.0
290
     1
  0
SCALE
  5
4C
102
{ACAD_REACTORS
330
3B
102
}
330
3B
100
AcDbScale
 70
     0
300
100:1
140
100.0
141
1.0
290
     1
  0
SCALE
  5
4D
102
{ACAD_REACTORS
330
3B
102
}
330
3B
100
AcDbScale
 70
     0
300
1/128" = 1'-0"
140
0.0078125
141
12.0
290
     1
  0
SCALE
  5
4E
102
{ACAD_REACTORS
330
3B
102
}
330
3B
100
AcDbScale
 70
     0
300
1/64" = 1'-0"
140
0.015625
141
12.0
290
     1
  0
SCALE
  5
4F
102
{ACAD_REACTORS
330
3B
102
}
330
3B
100
AcDbScale
 70
     0
300
1/32" = 1'-0"
140
0.03125
141
12.0
290
     1
  0
SCALE
  5
50
102
{ACAD_REACTORS
330
3B
102
}
330
3B
100
AcDbScale
 70
     0
300
1/16" = 1'-0"
140
0.0625
141
12.0
290
     1
  0
SCALE
  5
51
102
{ACAD_REACTORS
330
3B
102
}
330
3B
100
AcDbScale
 70
     0
300
3/32" = 1'-0"
140
0.09375
141
12.0
290
     1
  0
SCALE
  5
52
102
{ACAD_REACTORS
330
3B
102
}
330
3B
100
AcDbScale
 70
     0
300
1/8" = 1'-0"
140
0.125
141
12.0
290
     1
  0
SCALE
  5
53
102
{ACAD_REACTORS
330
3B
102
}
330
3B
100
AcDbScale
 70
     0
300
3/16" = 1'-0"
140
0.1875
141
12.0
290
     1
  0
SCALE
  5
54
102
{ACAD_REACTORS
330
3B
102
}
330
3B
100
AcDbScale
 70
     0
300
1/4" = 1'-0"
140
0.25
141
12.0
290
     1
  0
SCALE
  5
55
102
{ACAD_REACTORS
330
3B
102
}
330
3B
100
AcDbScale
 70
     0
300
3/8" = 1'-0"
140
0.375
141
12.0
290
     1
  0
SCALE
  5
56
102
{ACAD_REACTORS
330
3B
102
}
330
3B
100
AcDbScale
 70
     0
300
1/2" = 1'-0"
140
0.5
141
12.0
290
     1
  0
SCALE
  5
57
102
{ACAD_REACTORS
330
3B
102
}
330
3B
100
AcDbScale
 70
     0
300
3/4" = 1'-0"
140
0.75
141
12.0
290
     1
  0
SCALE
  5
58
102
{ACAD_REACTORS
330
3B
102
}
330
3B
100
AcDbScale
 70
     0
300
1" = 1'-0"
140
1.0
141
12.0
290
     1
  0
SCALE
  5
2D8
102
{ACAD_REACTORS
330
3B
102
}
330
3B
100
AcDbScale
 70
     0
300
1-1/2" = 1'-0"
140
1.5
141
12.0
290
     1
  0
SCALE
  5
2D9
102
{ACAD_REACTORS
330
3B
102
}
330
3B
100
AcDbScale
 70
     0
300
3" = 1'-0"
140
3.0
141
12.0
290
     1
  0
SCALE
  5
5B
102
{ACAD_REACTORS
330
3B
102
}
330
3B
100
AcDbScale
 70
     0
300
6" = 1'-0"
140
6.0
141
12.0
290
     1
  0
SCALE
  5
5C
102
{ACAD_REACTORS
330
3B
102
}
330
3B
100
AcDbScale
 70
     0
300
1'-0" = 1'-0"
140
12.0
141
12.0
290
     1
  0
TABLESTYLE
  5
93
102
{ACAD_REACTORS
330
92
102
}
102
{ACAD_XDICTIONARY
360
2E6
102
}
330
92
100
AcDbTableStyle
  3
Standard
 70
     0
 71
     0
 40
0.06
 41
0.06
280
     0
281
     0
  7
Standard
140
0.18
170
     2
 62
     0
 63
     7
283
     0
274
    -2
284
     1
 64
     0
275
    -2
285
     1
 65
     0
276
    -2
286
     1
 66
     0
277
    -2
287
     1
 67
     0
278
    -2
288
     1
 68
     0
279
    -2
289
     1
 69
     0
  7
Standard
140
0.25
170
     5
 62
     0
 63
     7
283
     0
274
    -2
284
     1
 64
     0
275
    -2
285
     1
 65
     0
276
    -2
286
     1
 66
     0
277
    -2
287
     1
 67
     0
278
    -2
288
     1
 68
     0
279
    -2
289
     1
 69
     0
  7
Standard
140
0.18
170
     5
 62
     0
 63
     7
283
     0
274
    -2
284
     1
 64
     0
275
    -2
285
     1
 65
     0
276
    -2
286
     1
 66
     0
277
    -2
287
     1
 67
     0
278
    -2
288
     1
 68
     0
279
    -2
289
     1
 69
     0
  0
VISUALSTYLE
  5
2F
102
{ACAD_REACTORS
330
2A
102
}
330
2A
100
AcDbVisualStyle
  2
2dWireframe
 70
     4
 71
     0
 72
     2
 73
     0
 90
        0
 40
-0.6
 41
-30.0
 62
     5
 63
     7
 74
     1
 91
        4
 64
     7
 65
   257
 75
     1
175
     1
 42
1.0
 92
        0
 66
   257
 43
1.0
 76
     1
 77
     6
 78
     2
 67
     7
 79
     5
170
     0
171
     0
290
     1
174
     0
 93
        1
 44
0.0
173
     0
291
     1
 45
0.0
1001
ACAD
1000
AcDbSavedByObjectVersion
1070
     0
  0
VISUALSTYLE
  5
31
102
{ACAD_REACTORS
330
2A
102
}
330
2A
100
AcDbVisualStyle
  2
3D Hidden
 70
     6
 71
     1
 72
     2
 73
     2
 90
        0
 40
-0.6
 41
-30.0
 62
     5
 63
     7
 74
     2
 91
        2
 64
     7
 65
   257
 75
     2
175
     1
 42
40.0
 92
        0
 66
   257
 43
1.0
 76
     1
 77
     6
 78
     2
 67
     7
 79
     3
170
     0
171
     0
290
     1
174
     0
 93
        1
 44
0.0
173
     0
291
     1
 45
0.0
1001
ACAD
1000
AcDbSavedByObjectVersion
1070
     0
  0
VISUALSTYLE
  5
30
102
{ACAD_REACTORS
330
2A
102
}
330
2A
100
AcDbVisualStyle
  2
3dWireframe
 70
     5
 71
     0
 72
     2
 73
     0
 90
        0
 40
-0.6
 41
-30.0
 62
     5
 63
     7
 74
     1
 91
        4
 64
     7
 65
   257
 75
     1
175
     1
 42
1.0
 92
        0
 66
   257
 43
1.0
 76
     1
 77
     6
 78
     2
 67
     7
 79
     5
170
     0
171
     0
290
     1
174
     0
 93
        1
 44
0.0
173
     0
291
     1
 45
0.0
1001
ACAD
1000
AcDbSavedByObjectVersion
1070
     0
  0
VISUALSTYLE
  5
32
102
{ACAD_REACTORS
330
2A
102
}
330
2A
100
AcDbVisualStyle
  2
Basic
 70
     7
 71
     1
 72
     0
 73
     1
 90
        0
 40
-0.6
 41
-30.0
 62
     5
 63
     7
 74
     0
 91
        4
 64
     7
 65
   257
 75
     1
175
     1
 42
1.0
 92
        8
 66
     7
 43
1.0
 76
     1
 77
     6
 78
     2
 67
     7
 79
     5
170
     0
171
     0
290
     1
174
     0
 93
        1
 44
0.0
173
     0
291
     1
 45
0.0
1001
ACAD
1000
AcDbSavedByObjectVersion
1070
     0
  0
VISUALSTYLE
  5
36
102
{ACAD_REACTORS
330
2A
102
}
330
2A
100
AcDbVisualStyle
  2
Brighten
 70
    12
 71
     2
 72
     2
 73
     0
 90
        0
 40
-0.6
 41
-30.0
 62
     5
 63
     7
 74
     1
 91
        4
 64
     7
 65
   257
 75
     1
175
     1
 42
1.0
 92
        8
 66
     7
 43
1.0
 76
     1
 77
     6
 78
     2
 67
     7
 79
     5
170
     0
171
     0
290
     1
174
     0
 93
        1
 44
50.0
173
     0
291
     1
 45
0.0
1001
ACAD
1000
AcDbSavedByObjectVersion
1070
     0
  0
VISUALSTYLE
  5
3A
102
{ACAD_REACTORS
330
2A
102
}
330
2A
100
AcDbVisualStyle
  2
ColorChange
 70
    16
 71
     2
 72
     2
 73
     3
 90
        0
 40
-0.6
 41
-30.0
 62
     5
 63
     8
 74
     1
 91
        4
 64
     7
 65
   257
 75
     1
175
     1
 42
1.0
 92
        8
 66
     8
 43
1.0
 76
     1
 77
     6
 78
     2
 67
     7
 79
     5
170
     0
171
     0
290
     1
174
     0
 93
        1
 44
0.0
173
     0
291
     1
 45
0.0
1001
ACAD
1000
AcDbSavedByObjectVersion
1070
     0
  0
VISUALSTYLE
  5
34
102
{ACAD_REACTORS
330
2A
102
}
330
2A
100
AcDbVisualStyle
  2
Conceptual
 70
     9
 71
     3
 72
     2
 73
     0
 90
        0
 40
-0.6
 41
-30.0
 62
     5
 63
     7
 74
     2
 91
        2
 64
     7
 65
   257
 75
     1
175
     1
 42
40.0
 92
        8
 66
     7
 43
1.0
 76
     1
 77
     6
 78
     2
 67
     7
 79
     3
170
     0
171
     0
290
     1
174
     0
 93
        1
 44
0.0
173
     0
291
     1
 45
0.0
1001
ACAD
1000
AcDbSavedByObjectVersion
1070
     0
  0
VISUALSTYLE
  5
35
102
{ACAD_REACTORS
330
2A
102
}
330
2A
100
AcDbVisualStyle
  2
Dim
 70
    11
 71
     2
 72
     2
 73
     0
 90
        0
 40
-0.6
 41
-30.0
 62
     5
 63
     7
 74
     1
 91
        4
 64
     7
 65
   257
 75
     1
175
     1
 42
1.0
 92
        8
 66
     7
 43
1.0
 76
     1
 77
     6
 78
     2
 67
     7
 79
     5
170
     0
171
     0
290
     1
174
     0
 93
        1
 44
-50.0
173
     0
291
     1
 45
0.0
1001
ACAD
1000
AcDbSavedByObjectVersion
1070
     0
  0
VISUALSTYLE
  5
39
102
{ACAD_REACTORS
330
2A
102
}
330
2A
100
AcDbVisualStyle
  2
Facepattern
 70
    15
 71
     2
 72
     2
 73
     0
 90
        0
 40
-0.6
 41
-30.0
 62
     5
 63
     7
 74
     1
 91
        4
 64
     7
 65
   257
 75
     1
175
     1
 42
1.0
 92
        8
 66
     7
 43
1.0
 76
     1
 77
     6
 78
     2
 67
     7
 79
     5
170
     0
171
     0
290
     1
174
     0
 93
        1
 44
0.0
173
     0
291
     1
 45
0.0
1001
ACAD
1000
AcDbSavedByObjectVersion
1070
     0
  0
VISUALSTYLE
  5
2B
102
{ACAD_REACTORS
330
2A
102
}
330
2A
100
AcDbVisualStyle
  2
Flat
 70
     0
 71
     2
 72
     1
 73
     1
 90
        2
 40
-0.6
 41
30.0
 62
     5
 63
     7
 74
     0
 91
        4
 64
     7
 65
   257
 75
     1
175
     1
 42
1.0
 92
        8
 66
     7
 43
1.0
 76
     1
 77
     6
 78
     2
 67
     7
 79
     5
170
     0
171
     0
290
     1
174
     0
 93
       13
 44
0.0
173
     0
291
     1
 45
0.0
1001
ACAD
1000
AcDbSavedByObjectVersion
1070
     0
  0
VISUALSTYLE
  5
2C
102
{ACAD_REACTORS
330
2A
102
}
330
2A
100
AcDbVisualStyle
  2
FlatWithEdges
 70
     1
 71
     2
 72
     1
 73
     1
 90
        2
 40
-0.6
 41
30.0
 62
     5
 63
     7
 74
     1
 91
        4
 64
     7
 65
   257
 75
     1
175
     1
 42
1.0
 92
        0
 66
   257
 43
1.0
 76
     1
 77
     6
 78
     2
 67
     7
 79
     5
170
     0
171
     0
290
     1
174
     0
 93
       13
 44
0.0
173
     0
291
     1
 45
0.0
1001
ACAD
1000
AcDbSavedByObjectVersion
1070
     0
  0
VISUALSTYLE
  5
2D
102
{ACAD_REACTORS
330
2A
102
}
330
2A
100
AcDbVisualStyle
  2
Gouraud
 70
     2
 71
     2
 72
     2
 73
     1
 90
        2
 40
-0.6
 41
30.0
 62
     5
 63
     7
 74
     0
 91
        4
 64
     7
 65
   257
 75
     1
175
     1
 42
1.0
 92
        0
 66
     7
 43
1.0
 76
     1
 77
     6
 78
     2
 67
     7
 79
     5
170
     0
171
     0
290
     1
174
     0
 93
       13
 44
0.0
173
     0
291
     1
 45
0.0
1001
ACAD
1000
AcDbSavedByObjectVersion
1070
     0
  0
VISUALSTYLE
  5
2E
102
{ACAD_REACTORS
330
2A
102
}
330
2A
100
AcDbVisualStyle
  2
GouraudWithEdges
 70
     3
 71
     2
 72
     2
 73
     1
 90
        2
 40
-0.6
 41
30.0
 62
     5
 63
     7
 74
     1
 91
        4
 64
     7
 65
   257
 75
     1
175
     1
 42
1.0
 92
        0
 66
   257
 43
1.0
 76
     1
 77
     6
 78
     2
 67
     7
 79
     5
170
     0
171
     0
290
     1
174
     0
 93
       13
 44
0.0
173
     0
291
     1
 45
0.0
1001
ACAD
1000
AcDbSavedByObjectVersion
1070
     0
  0
VISUALSTYLE
  5
38
102
{ACAD_REACTORS
330
2A
102
}
330
2A
100
AcDbVisualStyle
  2
Linepattern
 70
    14
 71
     2
 72
     2
 73
     0
 90
        0
 40
-0.6
 41
-30.0
 62
     5
 63
     7
 74
     1
 91
        4
 64
     7
 65
   257
 75
     7
175
     7
 42
1.0
 92
        8
 66
     7
 43
1.0
 76
     1
 77
     6
 78
     2
 67
     7
 79
     5
170
     0
171
     0
290
     1
174
     0
 93
        1
 44
0.0
173
     0
291
     1
 45
0.0
1001
ACAD
1000
AcDbSavedByObjectVersion
1070
     0
  0
VISUALSTYLE
  5
33
102
{ACAD_REACTORS
330
2A
102
}
330
2A
100
AcDbVisualStyle
  2
Realistic
 70
     8
 71
     2
 72
     2
 73
     0
 90
        0
 40
-0.6
 41
-30.0
 62
     5
 63
     7
 74
     1
 91
        0
 64
     7
 65
   257
 75
     1
175
     1
 42
1.0
 92
        8
 66
     8
 43
1.0
 76
     1
 77
     6
 78
     2
 67
     7
 79
     5
170
     0
171
     0
290
     1
174
     0
 93
       13
 44
0.0
173
     0
291
     1
 45
0.0
1001
ACAD
1000
AcDbSavedByObjectVersion
1070
     0
  0
VISUALSTYLE
  5
37
102
{ACAD_REACTORS
330
2A
102
}
330
2A
100
AcDbVisualStyle
  2
Thicken
 70
    13
 71
     2
 72
     2
 73
     0
 90
        0
 40
-0.6
 41
-30.0
 62
     5
 63
     7
 74
     1
 91
        4
 64
     7
 65
   257
 75
     1
175
     1
 42
1.0
 92
       12
 66
     7
 43
1.0
 76
     1
 77
     6
 78
     2
 67
     7
 79
     5
170
     0
171
     0
290
     1
174
     0
 93
        1
 44
0.0
173
     0
291
     1
 45
0.0
1001
ACAD
1000
AcDbSavedByObjectVersion
1070
     0
  0
DICTIONARYVAR
  5
98
102
{ACAD_REACTORS
330
59
102
}
330
59
100
DictionaryVariables
280
     0
  1
Standard
  0
DICTIONARYVAR
  5
2CF
102
{ACAD_REACTORS
330
59
102
}
330
59
100
DictionaryVariables
280
     0
  1
2
  0
DICTIONARYVAR
  5
5E
102
{ACAD_REACTORS
330
59
102
}
330
59
100
DictionaryVariables
280
     0
  1
1
  0
DICTIONARY
  5
2E6
330
93
100
AcDbDictionary
280
     1
281
     1
  3
ACAD_XREC_ROUNDTRIP
360
2E7
  0
XRECORD
  5
2E7
102
{ACAD_REACTORS
330
2E6
102
}
330
2E6
100
AcDbXrecord
280
     1
102
ACAD_ROUNDTRIP_PRE2007_TABLESTYLE
 90
      512
 91
        0
  1

 92
      512
 93
        0
  2

 94
      512
 95
        0
  3

  0
ENDSEC
  0
EOF
