  0
SECTION
  2
HEADER
  9
$ACADVER
  1
AC1015
  9
$ACADMAINTVER
 70
    20
  9
$DWGCODEPAGE
  3
ANSI_1252
  9
$INSBASE
 10
0.0
 20
0.0
 30
0.0
  9
$EXTMIN
 10
32.24182365490333
 20
11.077882618501
 30
-0.0000000349181948
  9
$EXTMAX
 10
989.4256614956839
 20
721.0121171909991
 30
0.0000000814935746
  9
$LIMMIN
 10
0.0
 20
0.0
  9
$LIMMAX
 10
1000.0
 20
750.0
  9
$ORTHOMODE
 70
     0
  9
$REGENMODE
 70
     1
  9
$FILLMODE
 70
     1
  9
$QTEXTMODE
 70
     0
  9
$MIRRTEXT
 70
     1
  9
$LTSCALE
 40
1.0
  9
$ATTMODE
 70
     1
  9
$TEXTSIZE
 40
2.5
  9
$TRACEWID
 40
1.0
  9
$TEXTSTYLE
  7
Standard
  9
$CLAYER
  8
0
  9
$CELTYPE
  6
ByLayer
  9
$CECOLOR
 62
   256
  9
$CELTSCALE
 40
1.0
  9
$DISPSILH
 70
     0
  9
$DIMSCALE
 40
1.0
  9
$DIMASZ
 40
6.0
  9
$DIMEXO
 40
1.0
  9
$DIMDLI
 40
3.75
  9
$DIMRND
 40
0.0
  9
$DIMDLE
 40
0.0
  9
$DIMEXE
 40
1.0
  9
$DIMTP
 40
0.0
  9
$DIMTM
 40
0.0
  9
$DIMTXT
 40
3.5
  9
$DIMCEN
 40
2.5
  9
$DIMTSZ
 40
0.0
  9
$DIMTOL
 70
     0
  9
$DIMLIM
 70
     0
  9
$DIMTIH
 70
     1
  9
$DIMTOH
 70
     1
  9
$DIMSE1
 70
     0
  9
$DIMSE2
 70
     0
  9
$DIMTAD
 70
     1
  9
$DIMZIN
 70
     0
  9
$DIMBLK
  1

  9
$DIMASO
 70
     1
  9
$DIMSHO
 70
     1
  9
$DIMPOST
  1

  9
$DIMAPOST
  1

  9
$DIMALT
 70
     0
  9
$DIMALTD
 70
     3
  9
$DIMALTF
 40
0.0393700787401575
  9
$DIMLFAC
 40
2.0
  9
$DIMTOFL
 70
     1
  9
$DIMTVP
 40
0.0
  9
$DIMTIX
 70
     0
  9
$DIMSOXD
 70
     0
  9
$DIMSAH
 70
     0
  9
$DIMBLK1
  1

  9
$DIMBLK2
  1

  9
$DIMSTYLE
  2
ISO-25
  9
$DIMCLRD
 70
     0
  9
$DIMCLRE
 70
     0
  9
$DIMCLRT
 70
     0
  9
$DIMTFAC
 40
1.0
  9
$DIMGAP
 40
1.524
  9
$DIMJUST
 70
     0
  9
$DIMSD1
 70
     0
  9
$DIMSD2
 70
     0
  9
$DIMTOLJ
 70
     0
  9
$DIMTZIN
 70
     0
  9
$DIMALTZ
 70
     0
  9
$DIMALTTZ
 70
     0
  9
$DIMUPT
 70
     0
  9
$DIMDEC
 70
     2
  9
$DIMTDEC
 70
     2
  9
$DIMALTU
 70
     2
  9
$DIMALTTD
 70
     3
  9
$DIMTXSTY
  7
Standard
  9
$DIMAUNIT
 70
     0
  9
$DIMADEC
 70
     0
  9
$DIMALTRND
 40
0.0
  9
$DIMAZIN
 70
     0
  9
$DIMDSEP
 70
    44
  9
$DIMATFIT
 70
     3
  9
$DIMFRAC
 70
     0
  9
$DIMLDRBLK
  1

  9
$DIMLUNIT
 70
     2
  9
$DIMLWD
 70
    -2
  9
$DIMLWE
 70
    -2
  9
$DIMTMOVE
 70
     0
  9
$LUNITS
 70
     2
  9
$LUPREC
 70
     1
  9
$SKETCHINC
 40
1.0
  9
$FILLETRAD
 40
10.0
  9
$AUNITS
 70
     0
  9
$AUPREC
 70
     0
  9
$MENU
  1
.
  9
$ELEVATION
 40
0.0
  9
$PELEVATION
 40
0.0
  9
$THICKNESS
 40
0.0
  9
$LIMCHECK
 70
     0
  9
$CHAMFERA
 40
10.0
  9
$CHAMFERB
 40
10.0
  9
$CHAMFERC
 40
20.0
  9
$CHAMFERD
 40
0.0
  9
$SKPOLY
 70
     0
  9
$TDCREATE
 40
2454965.360704965
  9
$TDUCREATE
 40
2454965.652371632
  9
$TDUPDATE
 40
2454966.461450961
  9
$TDUUPDATE
 40
2454966.753117628
  9
$TDINDWG
 40
0.0158042130
  9
$TDUSRTIMER
 40
0.0158042130
  9
$USRTIMER
 70
     1
  9
$ANGBASE
 50
0.0
  9
$ANGDIR
 70
     0
  9
$PDMODE
 70
     0
  9
$PDSIZE
 40
-1.0
  9
$PLINEWID
 40
0.0
  9
$SPLFRAME
 70
     0
  9
$SPLINETYPE
 70
     6
  9
$SPLINESEGS
 70
     8
  9
$HANDSEED
  5
2FC
  9
$SURFTAB1
 70
     6
  9
$SURFTAB2
 70
     6
  9
$SURFTYPE
 70
     6
  9
$SURFU
 70
     6
  9
$SURFV
 70
     6
  9
$UCSBASE
  2

  9
$UCSNAME
  2

  9
$UCSORG
 10
0.0
 20
0.0
 30
0.0
  9
$UCSXDIR
 10
1.0
 20
0.0
 30
0.0
  9
$UCSYDIR
 10
0.0
 20
1.0
 30
0.0
  9
$UCSORTHOREF
  2

  9
$UCSORTHOVIEW
 70
     0
  9
$UCSORGTOP
 10
0.0
 20
0.0
 30
0.0
  9
$UCSORGBOTTOM
 10
0.0
 20
0.0
 30
0.0
  9
$UCSORGLEFT
 10
0.0
 20
0.0
 30
0.0
  9
$UCSORGRIGHT
 10
0.0
 20
0.0
 30
0.0
  9
$UCSORGFRONT
 10
0.0
 20
0.0
 30
0.0
  9
$UCSORGBACK
 10
0.0
 20
0.0
 30
0.0
  9
$PUCSBASE
  2

  9
$PUCSNAME
  2

  9
$PUCSORG
 10
0.0
 20
0.0
 30
0.0
  9
$PUCSXDIR
 10
1.0
 20
0.0
 30
0.0
  9
$PUCSYDIR
 10
0.0
 20
1.0
 30
0.0
  9
$PUCSORTHOREF
  2

  9
$PUCSORTHOVIEW
 70
     0
  9
$PUCSORGTOP
 10
0.0
 20
0.0
 30
0.0
  9
$PUCSORGBOTTOM
 10
0.0
 20
0.0
 30
0.0
  9
$PUCSORGLEFT
 10
0.0
 20
0.0
 30
0.0
  9
$PUCSORGRIGHT
 10
0.0
 20
0.0
 30
0.0
  9
$PUCSORGFRONT
 10
0.0
 20
0.0
 30
0.0
  9
$PUCSORGBACK
 10
0.0
 20
0.0
 30
0.0
  9
$USERI1
 70
     0
  9
$USERI2
 70
     0
  9
$USERI3
 70
     0
  9
$USERI4
 70
     0
  9
$USERI5
 70
     0
  9
$USERR1
 40
0.0
  9
$USERR2
 40
0.0
  9
$USERR3
 40
0.0
  9
$USERR4
 40
0.0
  9
$USERR5
 40
0.0
  9
$WORLDVIEW
 70
     1
  9
$SHADEDGE
 70
     3
  9
$SHADEDIF
 70
    70
  9
$TILEMODE
 70
     1
  9
$MAXACTVP
 70
    64
  9
$PINSBASE
 10
0.0
 20
0.0
 30
0.0
  9
$PLIMCHECK
 70
     0
  9
$PEXTMIN
 10
-28.61300000000006
 20
-21.120315
 30
0.0
  9
$PEXTMAX
 10
285.6130000000001
 20
216.120315
 30
0.0
  9
$PLIMMIN
 10
0.0
 20
0.0
  9
$PLIMMAX
 10
0.0
 20
0.0
  9
$UNITMODE
 70
     0
  9
$VISRETAIN
 70
     1
  9
$PLINEGEN
 70
     0
  9
$PSLTSCALE
 70
     1
  9
$TREEDEPTH
 70
  3020
  9
$CMLSTYLE
  2
Standard
  9
$CMLJUST
 70
     0
  9
$CMLSCALE
 40
20.0
  9
$PROXYGRAPHICS
 70
     1
  9
$MEASUREMENT
 70
     1
  9
$CELWEIGHT
370
    -1
  9
$ENDCAPS
280
     0
  9
$JOINSTYLE
280
     0
  9
$LWDISPLAY
290
     1
  9
$INSUNITS
 70
     4
  9
$HYPERLINKBASE
  1

  9
$STYLESHEET
  1

  9
$XEDIT
290
     1
  9
$CEPSNTYPE
380
     0
  9
$PSTYLEMODE
290
     1
  9
$FINGERPRINTGUID
  2
{ACF137B5-41C2-4358-B546-B7E8762B6146}
  9
$VERSIONGUID
  2
{3774BC36-F171-4B39-ABE6-D3D0020EF53D}
  9
$EXTNAMES
290
     1
  9
$PSVPSCALE
 40
0.0
  9
$OLESTARTUP
290
     0
  0
ENDSEC
  0
SECTION
  2
CLASSES
  0
CLASS
  1
ACDBDICTIONARYWDFLT
  2
AcDbDictionaryWithDefault
  3
ObjectDBX Classes
 90
        0
280
     0
281
     0
  0
CLASS
  1
VISUALSTYLE
  2
AcDbVisualStyle
  3
ObjectDBX Classes
 90
     4095
280
     0
281
     0
  0
CLASS
  1
SCALE
  2
AcDbScale
  3
ObjectDBX Classes
 90
     1153
280
     0
281
     0
  0
CLASS
  1
DICTIONARYVAR
  2
AcDbDictionaryVar
  3
ObjectDBX Classes
 90
        0
280
     0
281
     0
  0
CLASS
  1
ACDBPLACEHOLDER
  2
AcDbPlaceHolder
  3
ObjectDBX Classes
 90
        0
280
     0
281
     0
  0
CLASS
  1
LAYOUT
  2
AcDbLayout
  3
ObjectDBX Classes
 90
        0
280
     0
281
     0
  0
CLASS
  1
TABLESTYLE
  2
AcDbTableStyle
  3
ObjectDBX Classes
 90
     4095
280
     0
281
     0
  0
CLASS
  1
MATERIAL
  2
AcDbMaterial
  3
ObjectDBX Classes
 90
     1024
280
     0
281
     0
  0
ENDSEC
  0
SECTION
  2
TABLES
  0
TABLE
  2
VPORT
  5
8
330
0
100
AcDbSymbolTable
 70
     1
  0
VPORT
  5
2D4
330
8
100
AcDbSymbolTableRecord
100
AcDbViewportTableRecord
  2
*Active
 70
     0
 10
0.0
 20
0.0
 11
1.0
 21
1.0
 12
506.993015029176
 22
226.2989109510542
 13
0.0
 23
0.0
 14
10.0
 24
10.0
 15
10.0
 25
10.0
 16
0.0
 26
0.0
 36
1.0
 17
0.0
 27
0.0
 37
0.0
 40
1161.018023184521
 41
1.373809523809523
 42
50.0
 43
0.0
 44
0.0
 50
0.0
 51
0.0
 71
     0
 72
  2000
 73
     1
 74
     3
 75
     0
 76
     0
 77
     0
 78
     0
281
     0
 65
     1
110
0.0
120
0.0
130
0.0
111
1.0
121
0.0
131
0.0
112
0.0
122
1.0
132
0.0
 79
     0
146
0.0
  0
ENDTAB
  0
TABLE
  2
LTYPE
  5
5
330
0
100
AcDbSymbolTable
 70
     6
  0
LTYPE
  5
14
330
5
100
AcDbSymbolTableRecord
100
AcDbLinetypeTableRecord
  2
ByBlock
 70
     0
  3

 72
    65
 73
     0
 40
0.0
  0
LTYPE
  5
15
330
5
100
AcDbSymbolTableRecord
100
AcDbLinetypeTableRecord
  2
ByLayer
 70
     0
  3

 72
    65
 73
     0
 40
0.0
  0
LTYPE
  5
16
330
5
100
AcDbSymbolTableRecord
100
AcDbLinetypeTableRecord
  2
Continuous
 70
     0
  3
Solid line
 72
    65
 73
     0
 40
0.0
  0
LTYPE
  5
5D
330
5
100
AcDbSymbolTableRecord
100
AcDbLinetypeTableRecord
  2
HIDDEN
 70
     0
  3
Hidden __ __ __ __ __ __ __ __ __ __ __ __ __ __
 72
    65
 73
     2
 40
1.905
 49
1.27
 74
     0
 49
-0.635
 74
     0
  0
LTYPE
  5
5E
330
5
100
AcDbSymbolTableRecord
100
AcDbLinetypeTableRecord
  2
PHANTOM
 70
     0
  3
Phantom ______  __  __  ______  __  __  ______
 72
    65
 73
     6
 40
12.7
 49
6.349999999999999
 74
     0
 49
-1.27
 74
     0
 49
1.27
 74
     0
 49
-1.27
 74
     0
 49
1.27
 74
     0
 49
-1.27
 74
     0
  0
LTYPE
  5
5F
330
5
100
AcDbSymbolTableRecord
100
AcDbLinetypeTableRecord
  2
CENTER
 70
     0
  3
Center ____ _ ____ _ ____ _ ____ _ ____ _ ____
 72
    65
 73
     4
 40
10.16
 49
6.349999999999999
 74
     0
 49
-1.27
 74
     0
 49
1.27
 74
     0
 49
-1.27
 74
     0
  0
LTYPE
  5
60
330
5
100
AcDbSymbolTableRecord
100
AcDbLinetypeTableRecord
  2
CENTERX2
 70
     0
  3
Center (2x) ________  __  ________  __  _____
 72
    65
 73
     4
 40
20.32
 49
12.7
 74
     0
 49
-2.54
 74
     0
 49
2.54
 74
     0
 49
-2.54
 74
     0
  0
LTYPE
  5
61
330
5
100
AcDbSymbolTableRecord
100
AcDbLinetypeTableRecord
  2
DOT2
 70
     0
  3
Dot (.5x) ........................................
 72
    65
 73
     2
 40
0.635
 49
0.0
 74
     0
 49
-0.635
 74
     0
  0
ENDTAB
  0
TABLE
  2
LAYER
  5
2
102
{ACAD_XDICTIONARY
360
2BB
102
}
330
0
100
AcDbSymbolTable
 70
     3
  0
LAYER
  5
10
330
2
100
AcDbSymbolTableRecord
100
AcDbLayerTableRecord
  2
0
 70
     0
 62
     7
  6
Continuous
370
    -3
390
F
  0
LAYER
  5
62
330
2
100
AcDbSymbolTableRecord
100
AcDbLayerTableRecord
  2
FORMAT
 70
     0
 62
     7
  6
Continuous
370
    -3
390
F
  0
LAYER
  5
24E
330
2
100
AcDbSymbolTableRecord
100
AcDbLayerTableRecord
  2
Defpoints
 70
     0
 62
     7
  6
Continuous
290
     0
370
    -3
390
F
  0
ENDTAB
  0
TABLE
  2
STYLE
  5
3
330
0
100
AcDbSymbolTable
 70
     2
  0
STYLE
  5
11
330
3
100
AcDbSymbolTableRecord
100
AcDbTextStyleTableRecord
  2
Standard
 70
     0
 40
0.0
 41
1.0
 50
0.0
 71
     0
 42
2.5
  3
txt
  4

  0
ENDTAB
  0
TABLE
  2
VIEW
  5
6
330
0
100
AcDbSymbolTable
 70
     0
  0
ENDTAB
  0
TABLE
  2
UCS
  5
7
330
0
100
AcDbSymbolTable
 70
     0
  0
ENDTAB
  0
TABLE
  2
APPID
  5
9
330
0
100
AcDbSymbolTable
 70
     2
  0
APPID
  5
12
330
9
100
AcDbSymbolTableRecord
100
AcDbRegAppTableRecord
  2
ACAD
 70
     0
  0
APPID
  5
2A8
330
9
100
AcDbSymbolTableRecord
100
AcDbRegAppTableRecord
  2
ACAD_PSEXT
 70
     0
  0
ENDTAB
  0
TABLE
  2
DIMSTYLE
  5
A
330
0
100
AcDbSymbolTable
 70
     2
100
AcDbDimStyleTable
 71
     1
340
27
  0
DIMSTYLE
105
27
330
A
100
AcDbSymbolTableRecord
100
AcDbDimStyleTableRecord
  2
ISO-25
 70
     0
 41
2.5
 42
0.625
 43
3.75
 44
1.25
 73
     0
 74
     0
 77
     1
 78
     8
140
2.5
141
2.5
143
0.03937007874016
147
0.625
171
     3
172
     1
271
     2
272
     2
274
     3
278
    44
283
     0
284
     8
340
11
  0
ENDTAB
  0
TABLE
  2
BLOCK_RECORD
  5
1
330
0
100
AcDbSymbolTable
 70
     3
  0
BLOCK_RECORD
  5
1F
330
1
100
AcDbSymbolTableRecord
100
AcDbBlockTableRecord
  2
*Model_Space
340
22
  0
BLOCK_RECORD
  5
23
330
1
100
AcDbSymbolTableRecord
100
AcDbBlockTableRecord
  2
*Paper_Space
340
26
  0
ENDTAB
  0
ENDSEC
  0
SECTION
  2
BLOCKS
  0
BLOCK
  5
20
330
1F
100
AcDbEntity
  8
0
100
AcDbBlockBegin
  2
*Model_Space
 70
     0
 10
0.0
 20
0.0
 30
0.0
  3
*Model_Space
  1

  0
ENDBLK
  5
21
330
1F
100
AcDbEntity
  8
0
100
AcDbBlockEnd
  0
BLOCK
  5
24
330
23
100
AcDbEntity
 67
     1
  8
0
100
AcDbBlockBegin
  2
*Paper_Space
 70
     0
 10
0.0
 20
0.0
 30
0.0
  3
*Paper_Space
  1

  0
ENDBLK
  5
25
330
23
100
AcDbEntity
 67
     1
  8
0
100
AcDbBlockEnd
  0
ENDSEC
  0
SECTION
  2
ENTITIES
  0
SPLINE
  5
63
330
1F
100
AcDbEntity
  8
0
  6
Continuous
 62
     7
370
    15
100
AcDbSpline
210
0.0
220
0.0
230
1.0
 70
     8
 71
     3
 72
    11
 73
     7
 74
     0
 42
0.0000000001
 43
0.0000000001
 40
0.0
 40
0.0
 40
0.0
 40
0.0
 40
0.273947735290644
 40
0.5594129503273272
 40
0.8424183803798396
 40
0.9999999999999998
 40
0.9999999999999998
 40
0.9999999999999998
 40
0.9999999999999998
 10
196.8679536703046
 20
57.60797121014761
 30
0.0
 10
199.5631056010744
 20
56.67508715734648
 30
0.0
 10
205.0667207033229
 20
54.77009816469391
 30
0.0
 10
213.4898334917761
 20
52.31865167881644
 30
0.0
 10
220.8096416626133
 20
50.41840739627925
 30
0.0
 10
225.3050106710068
 20
49.50519881957641
 30
0.0
 10
226.9128371599133
 20
49.17857803788351
 30
0.0
  0
SPLINE
  5
64
330
1F
100
AcDbEntity
  8
0
  6
Continuous
 62
     7
370
    15
100
AcDbSpline
210
0.0
220
0.0
230
1.0
 70
     8
 71
     3
 72
    11
 73
     7
 74
     0
 42
0.0000000001
 43
0.0000000001
 40
0.0
 40
0.0
 40
0.0
 40
0.0
 40
0.1482847322360714
 40
0.4296021344027274
 40
0.7133786805319344
 40
1.0
 40
1.0
 40
1.0
 40
1.0
 10
319.5117187323983
 20
49.18200530495809
 30
0.0
 10
321.0463403701117
 20
49.49215053599196
 30
0.0
 10
325.4923593305311
 20
50.39068574739097
 30
0.0
 10
332.7870316578819
 20
52.2803788889975
 30
0.0
 10
341.4239146045195
 20
54.79133447662268
 30
0.0
 10
347.1145574130354
 20
56.76197836280697
 30
0.0
 10
349.9740694287236
 20
57.75221445050405
 30
0.0
  0
SPLINE
  5
65
330
1F
100
AcDbEntity
  8
0
  6
Continuous
 62
     7
370
    15
100
AcDbSpline
210
0.0
220
0.0
230
1.0
 70
     8
 71
     3
 72
     9
 73
     5
 74
     0
 42
0.0000000001
 43
0.0000000001
 40
0.0
 40
0.0
 40
0.0
 40
0.0
 40
0.9676506750871157
 40
1.0
 40
1.0
 40
1.0
 40
1.0
 10
348.8037620308812
 20
57.39530183758901
 30
0.0
 10
349.1119254659312
 20
57.48317655130369
 30
0.0
 10
349.4303910475546
 20
57.57398898597362
 30
0.0
 10
349.7406927733998
 20
57.68879170707456
 30
0.0
 10
349.7507308247502
 20
57.6925054976003
 30
0.0
  0
SPLINE
  5
66
330
1F
100
AcDbEntity
  8
0
  6
Continuous
 62
     7
370
    15
100
AcDbSpline
210
0.0
220
0.0
230
1.0
 70
     8
 71
     3
 72
    15
 73
    11
 74
     0
 42
0.0000000001
 43
0.0000000001
 40
0.0
 40
0.0
 40
0.0
 40
0.0
 40
0.1553375606768893
 40
0.2333105709319799
 40
0.261361952438102
 40
0.2820169307090198
 40
0.3078161817953405
 40
0.3540387167539394
 40
0.474153508893529
 40
1.0
 40
1.0
 40
1.0
 40
1.0
 10
351.2987752082761
 20
58.30035366501974
 30
0.0
 10
351.3509641020562
 20
58.32316439287796
 30
0.0
 10
351.4293496551131
 20
58.35742515966735
 30
0.0
 10
351.5186843005665
 20
58.3981999103777
 30
0.0
 10
351.5546608637351
 20
58.41463793266621
 30
0.0
 10
351.5686621980015
 20
58.42108312654062
 30
0.0
 10
351.5792464287802
 20
58.42591944772859
 30
0.0
 10
351.5901680496978
 20
58.43097274492145
 30
0.0
 10
351.6048869780424
 20
58.43771191069186
 30
0.0
 10
351.63076764535
 20
58.4496640708517
 30
0.0
 10
351.6518358710225
 20
58.45939375844167
 30
0.0
  0
ARC
  5
67
330
1F
100
AcDbEntity
  8
0
  6
Continuous
 62
     7
370
    15
100
AcDbCircle
 10
343.0446555724102
 20
76.51460298981475
 30
0.0
 40
20.0
100
AcDbArc
 50
289.6230029959978
 51
294.681670031385
  0
SPLINE
  5
68
330
1F
100
AcDbEntity
  8
0
  6
Continuous
 62
     7
370
    15
100
AcDbSpline
210
0.0
220
0.0
230
1.0
 70
     8
 71
     3
 72
     9
 73
     5
 74
     0
 42
0.0000000001
 43
0.0000000001
 40
0.0
 40
0.0
 40
0.0
 40
0.0
 40
0.4215084600653237
 40
1.0
 40
1.0
 40
1.0
 40
1.0
 10
194.3828497651036
 20
58.63430358853506
 30
0.0
 10
194.4685826952133
 20
58.59453360032213
 30
0.0
 10
194.6719782097337
 20
58.50018202264148
 30
0.0
 10
194.7955864684732
 20
58.44380318347106
 30
0.0
 10
194.8670928004201
 20
58.41118850197958
 30
0.0
  0
ARC
  5
69
330
1F
100
AcDbEntity
  8
0
  6
Continuous
 62
     7
370
    15
100
AcDbCircle
 10
203.3695305232652
 20
76.51460405320304
 30
0.0
 40
20.00000000000001
100
AcDbArc
 50
245.3057114558128
 51
250.3796954671128
  0
SPLINE
  5
6A
330
1F
100
AcDbEntity
  8
0
  6
Continuous
 62
     7
370
    15
100
AcDbSpline
210
0.0
220
0.0
230
1.0
 70
     8
 71
     3
 72
    14
 73
    10
 74
     0
 42
0.0000000001
 43
0.0000000001
 40
0.0
 40
0.0
 40
0.0
 40
0.0
 40
0.2253583851823309
 40
0.3692415241713153
 40
0.4638709191937877
 40
0.5475856147173119
 40
0.6913081704841156
 40
0.9109880536722005
 40
1.0
 40
1.0
 40
1.0
 40
1.0
 10
194.7878186228688
 20
58.44514824834035
 30
0.0
 10
194.8293362773614
 20
58.42600126517078
 30
0.0
 10
194.8973614454174
 20
58.39462962908501
 30
0.0
 10
195.028823280508
 20
58.33480426623822
 30
0.0
 10
195.2187880635493
 20
58.25017266546637
 30
0.0
 10
195.5576989526059
 20
58.10345267199093
 30
0.0
 10
196.1542324012679
 20
57.86543829945911
 30
0.0
 10
196.7640446956671
 20
57.62936784023226
 30
0.0
 10
197.1985205152694
 20
57.51503842852443
 30
0.0
 10
197.3238025429662
 20
57.48207129922079
 30
0.0
  0
SPLINE
  5
6B
330
1F
100
AcDbEntity
  8
0
  6
Continuous
 62
     7
370
    15
100
AcDbSpline
210
0.0
220
0.0
230
1.0
 70
    24
 71
     1
 72
     4
 73
     2
 74
     0
 42
0.0000000001
 43
0.0000000001
 40
0.0
 40
0.0
 40
1.0
 40
1.0
 10
232.7111062231477
 20
18.19189645733998
 30
0.0
 10
233.0119457664903
 20
13.88967790093587
 30
0.0
  0
SPLINE
  5
6C
330
1F
100
AcDbEntity
  8
0
  6
Continuous
 62
     7
370
    15
100
AcDbSpline
210
0.0
220
0.0
230
1.0
 70
    24
 71
     1
 72
     4
 73
     2
 74
     0
 42
0.0000000001
 43
0.0000000001
 40
0.0
 40
0.0
 40
1.0
 40
1.0
 10
313.4022426429208
 20
13.88967790093587
 30
0.0
 10
313.7030821862634
 20
18.19189645733998
 30
0.0
  0
ARC
  5
6D
330
1F
100
AcDbEntity
  8
0
  6
Continuous
 62
     7
370
    15
100
AcDbCircle
 10
310.4095489462925
 20
14.09894265616945
 30
0.0
 40
3.000000000000003
100
AcDbArc
 50
270.0000000000008
 51
356.0000000000004
  0
ARC
  5
6E
330
1F
100
AcDbEntity
  8
0
  6
Continuous
 62
     7
370
    15
100
AcDbCircle
 10
236.0046394631185
 20
14.09894265616945
 30
0.0
 40
3.000000000000004
100
AcDbArc
 50
184.0000000000011
 51
270.0000000000008
  0
LINE
  5
6F
330
1F
100
AcDbEntity
  8
0
  6
Continuous
 62
     7
370
    15
100
AcDbLine
 10
35.30709041385011
 20
211.0989427511798
 30
0.0
 11
58.30709232119874
 21
211.0989427511798
 31
0.0
  0
ARC
  5
72
330
1F
100
AcDbEntity
  8
0
  6
Continuous
 62
     7
370
    15
100
AcDbCircle
 10
35.30709420470554
 20
208.0989426561849
 30
0.0
 40
3.000000000000007
100
AcDbArc
 50
90.0
 51
180.0
  0
LINE
  5
74
330
1F
100
AcDbEntity
  8
0
  6
Continuous
 62
     7
370
    15
100
AcDbLine
 10
32.30709923533753
 20
200.0989430436151
 30
0.0
 11
32.30709923533753
 21
208.0989426086874
 31
0.0
  0
LINE
  5
76
330
1F
100
AcDbEntity
  8
0
  6
Continuous
 62
     7
370
    15
100
AcDbLine
 10
58.30709232119874
 20
211.0989427511798
 30
0.0
 11
488.1070960882123
 21
211.0989427511798
 31
0.0
  0
LINE
  5
7A
330
1F
100
AcDbEntity
  8
0
  6
Continuous
 62
     7
370
    15
100
AcDbLine
 10
488.1070960882123
 20
211.0989427511798
 30
0.0
 11
511.1070979955609
 21
211.0989427511798
 31
0.0
  0
ARC
  5
7B
330
1F
100
AcDbEntity
  8
0
  6
Continuous
 62
     7
370
    15
100
AcDbCircle
 10
511.1070942047054
 20
208.0989426561849
 30
0.0
 40
3.000000000000056
100
AcDbArc
 50
0.0
 51
90.0
  0
LINE
  5
7E
330
1F
100
AcDbEntity
  8
0
  6
Continuous
 62
     7
370
    15
100
AcDbLine
 10
514.1070891740735
 20
208.0989426086874
 30
0.0
 11
514.1070891740735
 21
200.0989430436151
 31
0.0
  0
LINE
  5
80
330
1F
100
AcDbEntity
  8
0
  6
Continuous
 62
     7
370
    15
100
AcDbLine
 10
488.1070960882123
 20
197.0989425518768
 30
0.0
 11
58.30709232119874
 21
197.0989425518768
 31
0.0
  0
LINE
  5
83
330
1F
100
AcDbEntity
  8
0
  6
Continuous
 62
     7
370
    15
100
AcDbLine
 10
511.1070979955609
 20
197.0989425518768
 30
0.0
 11
488.1070960882123
 21
197.0989425518768
 31
0.0
  0
ARC
  5
84
330
1F
100
AcDbEntity
  8
0
  6
Continuous
 62
     7
370
    15
100
AcDbCircle
 10
511.1070942047054
 20
200.0989426561849
 30
0.0
 40
3.000000000000056
100
AcDbArc
 50
270.0000000000008
 51
0.0
  0
LINE
  5
85
330
1F
100
AcDbEntity
  8
0
  6
Continuous
 62
     7
370
    15
100
AcDbLine
 10
58.30709232119874
 20
197.0989425518768
 30
0.0
 11
35.30709041385011
 21
197.0989425518768
 31
0.0
  0
ARC
  5
86
330
1F
100
AcDbEntity
  8
0
  6
Continuous
 62
     7
370
    15
100
AcDbCircle
 10
35.30709420470554
 20
200.0989426561848
 30
0.0
 40
3.000000000000007
100
AcDbArc
 50
180.0
 51
270.0000000000008
  0
ARC
  5
87
330
1F
100
AcDbEntity
  8
0
  6
Continuous
 62
     7
370
    15
100
AcDbCircle
 10
498.5333087713055
 20
192.0989426561849
 30
0.0
 40
5.0
100
AcDbArc
 50
90.0
 51
147.5745358466483
  0
ARC
  5
8B
330
1F
100
AcDbEntity
  8
0
  6
Continuous
 62
     7
370
    15
100
AcDbCircle
 10
47.88087963810546
 20
192.0989426561848
 30
0.0
 40
5.000000000000007
100
AcDbArc
 50
32.42546415335188
 51
89.99999999999902
  0
SPLINE
  5
8F
330
1F
100
AcDbEntity
  8
0
  6
Continuous
 62
     7
370
    15
100
AcDbSpline
210
0.0
220
0.0
230
1.0
 70
     8
 71
     3
 72
    12
 73
     8
 74
     0
 42
0.0000000001
 43
0.0000000001
 40
0.0
 40
0.0
 40
0.0
 40
0.0
 40
0.4999999999999997
 40
0.4999999999999997
 40
0.7499999999999999
 40
0.7499999999999999
 40
1.0
 40
1.0
 40
1.0
 40
1.0
 10
94.1015515629464
 20
136.5222101056453
 30
0.0
 10
86.64670803787585
 20
145.6780518682323
 30
0.0
 10
79.412239545461
 20
155.1036606271864
 30
0.0
 10
68.90155997739417
 20
169.6691917566329
 30
0.0
 10
65.45429167992245
 20
174.5966104059278
 30
0.0
 10
58.6849302043382
 20
184.5849887170705
 30
0.0
 10
55.36175847790115
 20
189.6473799566571
 30
0.0
 10
52.10132815232382
 20
194.7799526037292
 30
0.0
  0
SPLINE
  5
93
330
1F
100
AcDbEntity
  8
0
  6
Continuous
 62
     7
370
    15
100
AcDbSpline
210
0.0
220
0.0
230
1.0
 70
     8
 71
     3
 72
    12
 73
     8
 74
     0
 42
0.0000000001
 43
0.0000000001
 40
0.0
 40
0.0
 40
0.0
 40
0.0
 40
0.4999999999999997
 40
0.4999999999999997
 40
0.7499999999999999
 40
0.7499999999999999
 40
1.0
 40
1.0
 40
1.0
 40
1.0
 10
452.3126368464645
 20
136.5222101056454
 30
0.0
 10
459.7674803715351
 20
145.6780518682323
 30
0.0
 10
467.0019488639499
 20
155.1036606271865
 30
0.0
 10
477.5126284320168
 20
169.6691917566329
 30
0.0
 10
480.9598967294886
 20
174.5966104059279
 30
0.0
 10
487.7292582050728
 20
184.5849887170705
 30
0.0
 10
491.0524299315098
 20
189.6473799566571
 30
0.0
 10
494.3128602570872
 20
194.7799526037293
 30
0.0
  0
SPLINE
  5
97
330
1F
100
AcDbEntity
  8
0
  6
Continuous
 62
     7
370
    15
100
AcDbSpline
210
0.0
220
0.0
230
1.0
 70
     8
 71
     3
 72
     8
 73
     4
 74
     0
 42
0.0000000001
 43
0.0000000001
 40
0.0
 40
0.0
 40
0.0
 40
0.0
 40
0.0011272319916136
 40
0.0011272319916136
 40
0.0011272319916136
 40
0.0011272319916136
 10
94.74452184449697
 20
135.7354302285155
 30
0.0
 10
94.52973129004801
 20
135.9972975401132
 30
0.0
 10
94.31540739996904
 20
136.2595580194951
 30
0.0
 10
94.10155156294653
 20
136.5222101056454
 30
0.0
  0
SPLINE
  5
99
330
1F
100
AcDbEntity
  8
0
  6
Continuous
 62
     7
370
    15
100
AcDbSpline
210
0.0
220
0.0
230
1.0
 70
     8
 71
     3
 72
     8
 73
     4
 74
     0
 42
0.0000000001
 43
0.0000000001
 40
0.0
 40
0.0
 40
0.0
 40
0.0
 40
0.0011272319916137
 40
0.0011272319916137
 40
0.0011272319916137
 40
0.0011272319916137
 10
451.6696665649139
 20
135.7354302285154
 30
0.0
 10
451.8844571193629
 20
135.9972975401132
 30
0.0
 10
452.0987810094419
 20
136.2595580194951
 30
0.0
 10
452.3126368464644
 20
136.5222101056454
 30
0.0
  0
SPLINE
  5
9B
330
1F
100
AcDbEntity
  8
0
  6
Continuous
 62
     7
370
    15
100
AcDbSpline
210
0.0
220
0.0
230
1.0
 70
     8
 71
     3
 72
    20
 73
    16
 74
     0
 42
0.0000000001
 43
0.0000000001
 40
0.0
 40
0.0
 40
0.0
 40
0.0
 40
0.1249999999999999
 40
0.1249999999999999
 40
0.2499999999999998
 40
0.2499999999999998
 40
0.4999999999999997
 40
0.4999999999999997
 40
0.5624999999999999
 40
0.5624999999999999
 40
0.6249999999999999
 40
0.6249999999999999
 40
0.7499999999999999
 40
0.7499999999999999
 40
1.0
 40
1.0
 40
1.0
 40
1.0
 10
351.9343491499972
 20
58.58979024582272
 30
0.0
 10
356.6515330379132
 20
60.7698036701953
 30
0.0
 10
361.2913767233299
 20
63.07201943561011
 30
0.0
 10
370.4331342858765
 20
67.92519457389179
 30
0.0
 10
374.9349622249096
 20
70.47615506234528
 30
0.0
 10
388.2485712013081
 20
78.51330842985013
 30
0.0
 10
396.87008024064
 20
84.38191690964126
 30
0.0
 10
407.3480514966465
 20
92.41817913918106
 30
0.0
 10
409.4286694620032
 20
94.06079790133016
 30
0.0
 10
413.5451666853206
 20
97.40630799733466
 30
0.0
 10
415.5828991366695
 20
99.11059110668587
 30
0.0
 10
421.6346955839048
 20
104.3197033603024
 30
0.0
 10
425.5874501247993
 20
107.9206856448045
 30
0.0
 10
437.1981674882721
 20
119.1254676712695
 30
0.0
 10
444.6101560472849
 20
127.1286502647009
 30
0.0
 10
451.6696665649139
 20
135.7354302285154
 30
0.0
  0
SPLINE
  5
A2
330
1F
100
AcDbEntity
  8
0
  6
Continuous
 62
     7
370
    15
100
AcDbSpline
210
0.0
220
0.0
230
1.0
 70
     8
 71
     3
 72
    20
 73
    16
 74
     0
 42
0.0000000001
 43
0.0000000001
 40
0.0
 40
0.0
 40
0.0
 40
0.0
 40
0.125
 40
0.125
 40
0.2499999999999999
 40
0.2499999999999999
 40
0.4999999999999999
 40
0.4999999999999999
 40
0.5624999999999999
 40
0.5624999999999999
 40
0.6249999999999999
 40
0.6249999999999999
 40
0.75
 40
0.75
 40
1.0
 40
1.0
 40
1.0
 40
1.0
 10
194.4798392594138
 20
58.58979024582272
 30
0.0
 10
189.7626553714978
 20
60.76980367019533
 30
0.0
 10
185.1228116860811
 20
63.07201943561016
 30
0.0
 10
175.9810541235345
 20
67.92519457389187
 30
0.0
 10
171.4792261845013
 20
70.47615506234528
 30
0.0
 10
158.1656172081029
 20
78.51330842985015
 30
0.0
 10
149.5441081687709
 20
84.38191690964137
 30
0.0
 10
139.0661369127645
 20
92.41817913918112
 30
0.0
 10
136.9855189474078
 20
94.06079790133025
 30
0.0
 10
132.8690217240904
 20
97.40630799733473
 30
0.0
 10
130.8312892727414
 20
99.11059110668588
 30
0.0
 10
124.7794928255061
 20
104.3197033603025
 30
0.0
 10
120.8267382846116
 20
107.9206856448046
 30
0.0
 10
109.2160209211388
 20
119.1254676712695
 30
0.0
 10
101.804032362126
 20
127.128650264701
 30
0.0
 10
94.74452184449697
 20
135.7354302285155
 30
0.0
  0
ARC
  5
AD
330
1F
100
AcDbEntity
  8
0
  6
Continuous
 62
     7
370
    15
100
AcDbCircle
 10
201.8448983323551
 20
74.53686697264075
 30
0.0
 40
17.56568260579475
100
AcDbArc
 50
245.2104385906628
 51
260.8069632147675
  0
SPLINE
  5
AE
330
1F
100
AcDbEntity
  8
0
  6
Continuous
 62
     7
370
    15
100
AcDbSpline
210
0.0
220
0.0
230
1.0
 70
     8
 71
     3
 72
    11
 73
     7
 74
     0
 42
0.0000000001
 43
0.0000000001
 40
0.0
 40
0.0
 40
0.0
 40
0.0
 40
0.1168109340609351
 40
0.5695444469424519
 40
0.9871393355244256
 40
0.9999999999999998
 40
0.9999999999999998
 40
0.9999999999999998
 40
0.9999999999999998
 10
197.429295313638
 20
57.44592108216451
 30
0.0
 10
197.3783558948595
 20
57.45922318192525
 30
0.0
 10
197.129986482107
 20
57.52408129741174
 30
0.0
 10
196.7378598519762
 20
57.64750493210993
 30
0.0
 10
196.708468739721
 20
57.65829943558856
 30
0.0
 10
196.6564726982532
 20
57.67520675126714
 30
0.0
 10
196.6549192192967
 20
57.67571188893484
 30
0.0
  0
SPLINE
  5
AF
330
1F
100
AcDbEntity
  8
0
  6
Continuous
 62
     7
370
    15
100
AcDbSpline
210
0.0
220
0.0
230
1.0
 70
     8
 71
     3
 72
    18
 73
    14
 74
     0
 42
0.0000000001
 43
0.0000000001
 40
0.0
 40
0.0
 40
0.0
 40
0.0
 40
0.2500000000000078
 40
0.2500000000000078
 40
0.5000000000000157
 40
0.5000000000000157
 40
0.7500000000000236
 40
0.7500000000000236
 40
0.875000000000022
 40
0.875000000000022
 40
0.937500000000011
 40
0.937500000000011
 40
1.0
 40
1.0
 40
1.0
 40
1.0
 10
199.0385825520384
 20
57.19680755220757
 30
0.0
 10
198.9640968267748
 20
57.1868063700891
 30
0.0
 10
198.8761493594902
 20
57.18345756462226
 30
0.0
 10
198.6851452764157
 20
57.18799935805965
 30
0.0
 10
198.579963661205
 20
57.19638804313252
 30
0.0
 10
198.3465778186746
 20
57.22733290039955
 30
0.0
 10
198.2178170711268
 20
57.25004749687624
 30
0.0
 10
198.008001769633
 20
57.2955782863114
 30
0.0
 10
197.9353423681079
 20
57.31264995204208
 30
0.0
 10
197.8226759946266
 20
57.34110969442415
 30
0.0
 10
197.7845083974655
 20
57.35107138856029
 30
0.0
 10
197.7070242027144
 20
57.37194358588296
 30
0.0
 10
197.6669149862188
 20
57.38308052625818
 30
0.0
 10
197.6278570160507
 20
57.3942370809642
 30
0.0
  0
SPLINE
  5
B1
330
1F
100
AcDbEntity
  8
0
  6
Continuous
 62
     7
370
    15
100
AcDbSpline
210
0.0
220
0.0
230
1.0
 70
     8
 71
     3
 72
    53
 73
    49
 74
     0
 42
0.0000000001
 43
0.0000000001
 40
0.0
 40
0.0
 40
0.0
 40
0.0
 40
0.1249999999999992
 40
0.1249999999999992
 40
0.1874999999999988
 40
0.1874999999999988
 40
0.2187499999999986
 40
0.2187499999999986
 40
0.2499999999999984
 40
0.2499999999999984
 40
0.3749999999999979
 40
0.3749999999999979
 40
0.4062499999999978
 40
0.4062499999999978
 40
0.4374999999999976
 40
0.4374999999999976
 40
0.4687499999999976
 40
0.4687499999999976
 40
0.4843749999999976
 40
0.4843749999999976
 40
0.4999999999999975
 40
0.4999999999999975
 40
0.5312499999999975
 40
0.5312499999999975
 40
0.5624999999999976
 40
0.5624999999999976
 40
0.6249999999999979
 40
0.6249999999999979
 40
0.6562499999999981
 40
0.6562499999999981
 40
0.6874999999999983
 40
0.6874999999999983
 40
0.7499999999999984
 40
0.7499999999999984
 40
0.8124999999999987
 40
0.8124999999999987
 40
0.8437499999999989
 40
0.8437499999999989
 40
0.8749999999999989
 40
0.8749999999999989
 40
0.9374999999999996
 40
0.9374999999999996
 40
0.9687499999999998
 40
0.9687499999999998
 40
0.9843749999999998
 40
0.9921874999999998
 40
0.9921874999999998
 40
1.0
 40
1.0
 40
1.0
 40
1.0
 10
226.8922978089702
 20
49.13736794761508
 30
0.0
 10
226.8922370816614
 20
49.13859134782001
 30
0.0
 10
227.1809886775267
 20
49.10953692665184
 30
0.0
 10
228.0336202011399
 20
49.03009178213988
 30
0.0
 10
228.3882810139444
 20
48.99775869487196
 30
0.0
 10
229.0290624936536
 20
48.94232032104287
 30
0.0
 10
229.2612719236855
 20
48.92265254308739
 30
0.0
 10
229.7609401689872
 20
48.88153665954991
 30
0.0
 10
230.0273279646676
 20
48.86017654636312
 30
0.0
 10
231.4408385815676
 20
48.75047479743849
 30
0.0
 10
232.8304860173274
 20
48.6536916216839
 30
0.0
 10
234.894989828737
 20
48.53508199201765
 30
0.0
 10
235.3244014169765
 20
48.51145454547665
 30
0.0
 10
236.2169086073254
 20
48.46461234817092
 30
0.0
 10
236.6814422839161
 20
48.44133075292308
 30
0.0
 10
237.6369880237028
 20
48.39575394206177
 30
0.0
 10
238.1276216618497
 20
48.37346879749868
 30
0.0
 10
238.882484311383
 20
48.34088315380672
 30
0.0
 10
239.1375273223976
 20
48.32969032127628
 30
0.0
 10
239.6567529035132
 20
48.3151256067717
 30
0.0
 10
239.9205404738485
 20
48.31151872695946
 30
0.0
 10
240.7237128620712
 20
48.31359411408933
 30
0.0
 10
241.2750973925701
 20
48.33239658596361
 30
0.0
 10
242.4075202900795
 20
48.37618443386382
 30
0.0
 10
242.9860583744414
 20
48.39859452032583
 30
0.0
 10
244.7587334929157
 20
48.4671725865588
 30
0.0
 10
245.9898468986111
 20
48.51471091693612
 30
0.0
 10
247.912309446557
 20
48.58758730496973
 30
0.0
 10
248.5670959985032
 20
48.61218519597249
 30
0.0
 10
249.8879639361511
 20
48.66107799326563
 30
0.0
 10
250.5555060745234
 20
48.68542684795385
 30
0.0
 10
252.5790080528265
 20
48.75767753787635
 30
0.0
 10
253.9557952071947
 20
48.80479071528402
 30
0.0
 10
256.7637680939149
 20
48.89399622179758
 30
0.0
 10
258.1949506996021
 20
48.93608916165076
 30
0.0
 10
260.3828191490553
 20
48.99295623396579
 30
0.0
 10
261.1189699284491
 20
49.01086598575097
 30
0.0
 10
262.6051966621424
 20
49.04418258616538
 30
0.0
 10
263.355239947083
 20
49.05957908167785
 30
0.0
 10
265.6065111103758
 20
49.10110647504517
 30
0.0
 10
267.1154326554835
 20
49.12270040602079
 30
0.0
 10
269.3907806654526
 20
49.14452195582072
 30
0.0
 10
270.151227956787
 20
49.15004143556747
 30
0.0
 10
271.2949103435136
 20
49.15558018746952
 30
0.0
 10
271.8675047377819
 20
49.15766522165113
 30
0.0
 10
272.4412347624642
 20
49.1587105357956
 30
0.0
 10
272.8239746751654
 20
49.15917540982476
 30
0.0
 10
273.0175847461364
 20
49.15929180324311
 30
0.0
 10
273.2070942046785
 20
49.15929182278361
 30
0.0
  0
SPLINE
  5
B2
330
1F
100
AcDbEntity
  8
0
  6
Continuous
 62
     7
370
    15
100
AcDbSpline
210
0.0
220
0.0
230
1.0
 70
     8
 71
     3
 72
    50
 73
    46
 74
     0
 42
0.0000000001
 43
0.0000000001
 40
0.0
 40
0.0
 40
0.0
 40
0.0
 40
0.00390625
 40
0.00390625
 40
0.0078124999999999
 40
0.0156249999999999
 40
0.0312499999999997
 40
0.0312499999999997
 40
0.0624999999999995
 40
0.0624999999999995
 40
0.1249999999999989
 40
0.1249999999999989
 40
0.1874999999999984
 40
0.1874999999999984
 40
0.2499999999999978
 40
0.2499999999999978
 40
0.2812499999999974
 40
0.2812499999999974
 40
0.3124999999999971
 40
0.3124999999999971
 40
0.3749999999999965
 40
0.3749999999999965
 40
0.437499999999996
 40
0.437499999999996
 40
0.4687499999999958
 40
0.4687499999999958
 40
0.4999999999999956
 40
0.4999999999999956
 40
0.5156249999999957
 40
0.5156249999999957
 40
0.5312499999999957
 40
0.5312499999999957
 40
0.562499999999996
 40
0.562499999999996
 40
0.6249999999999965
 40
0.6249999999999965
 40
0.687499999999997
 40
0.687499999999997
 40
0.7499999999999976
 40
0.7499999999999976
 40
0.8749999999999989
 40
0.8749999999999989
 40
0.9374999999999994
 40
0.9374999999999994
 40
1.0
 40
1.0
 40
1.0
 40
1.0
 10
273.2070942047324
 20
49.15929182278361
 30
0.0
 10
273.3018575566059
 20
49.15929181297854
 30
0.0
 10
273.3991071217765
 20
49.15926258903438
 30
0.0
 10
273.5909800935771
 20
49.15914579725908
 30
0.0
 10
273.8786489351686
 20
49.15888312792827
 30
0.0
 10
274.5488946163199
 20
49.15765955346854
 30
0.0
 10
275.1217170038615
 20
49.15557025833186
 30
0.0
 10
276.2651496000408
 20
49.15002705137264
 30
0.0
 10
277.0244897774974
 20
49.14451011907885
 30
0.0
 10
279.2937727385347
 20
49.12275111169304
 30
0.0
 10
280.7949986955829
 20
49.10127444827261
 30
0.0
 10
283.7742537447521
 20
49.04644926901617
 30
0.0
 10
285.2522833984984
 20
49.0131097011983
 30
0.0
 10
288.184511450905
 20
48.9370855554081
 30
0.0
 10
289.6409969379813
 20
48.89431492993074
 30
0.0
 10
291.778968172689
 20
48.82636533917295
 30
0.0
 10
292.4858954605131
 20
48.80302285195975
 30
0.0
 10
293.8776485900456
 20
48.75570505498505
 30
0.0
 10
294.5633138359395
 20
48.73170563487281
 30
0.0
 10
296.5900672276863
 20
48.65925548698835
 30
0.0
 10
297.9009808078701
 20
48.61037943317706
 30
0.0
 10
300.4426972755648
 20
48.51400139727163
 30
0.0
 10
301.6734995070675
 20
48.46647626144643
 30
0.0
 10
303.4583012213356
 20
48.39742640661731
 30
0.0
 10
304.0431429171977
 20
48.37473452350572
 30
0.0
 10
305.1912460559096
 20
48.3304198130618
 30
0.0
 10
305.7529348981144
 20
48.31216497268828
 30
0.0
 10
306.5615843094191
 20
48.31210074709888
 30
0.0
 10
306.8261103374404
 20
48.31651956463453
 30
0.0
 10
307.3447891206161
 20
48.3322969031196
 30
0.0
 10
307.5984339233362
 20
48.34372254612387
 30
0.0
 10
308.3480587017141
 20
48.37622406146058
 30
0.0
 10
308.8327742968193
 20
48.39833530078144
 30
0.0
 10
310.2422959704706
 20
48.46578465219834
 30
0.0
 10
311.1225714592539
 20
48.51225694600106
 30
0.0
 10
312.7645297074528
 20
48.60666721519613
 30
0.0
 10
313.5262230970635
 20
48.65462824351782
 30
0.0
 10
314.9281109320749
 20
48.7495578689027
 30
0.0
 10
315.5587381955284
 20
48.79585906733863
 30
0.0
 10
317.2399699406335
 20
48.92648258372534
 30
0.0
 10
318.0859543987073
 20
49.00266411016627
 30
0.0
 10
318.9444300757281
 20
49.08261891238444
 30
0.0
 10
319.1615948594252
 20
49.10356688981493
 30
0.0
 10
319.4497137324875
 20
49.13119177309161
 30
0.0
 10
319.5219208562666
 20
49.13797747542311
 30
0.0
 10
319.5218906004408
 20
49.13736794761511
 30
0.0
  0
SPLINE
  5
B4
330
1F
100
AcDbEntity
  8
0
  6
Continuous
 62
     7
370
    15
100
AcDbSpline
210
0.0
220
0.0
230
1.0
 70
    24
 71
     1
 72
     4
 73
     2
 74
     0
 42
0.0000000001
 43
0.0000000001
 40
0.0
 40
0.0
 40
1.0
 40
1.0
 10
349.759015870374
 20
57.67562248196767
 30
0.0
 10
349.7546498301442
 20
57.67420687165426
 30
0.0
  0
SPLINE
  5
B5
330
1F
100
AcDbEntity
  8
0
  6
Continuous
 62
     7
370
    15
100
AcDbSpline
210
0.0
220
0.0
230
1.0
 70
     8
 71
     3
 72
     9
 73
     5
 74
     0
 42
0.0000000001
 43
0.0000000001
 40
0.0
 40
0.0
 40
0.0
 40
0.0
 40
0.7605868910685119
 40
1.0
 40
1.0
 40
1.0
 40
1.0
 10
351.9343469860967
 20
58.589793820049
 30
0.0
 10
351.7914521839791
 20
58.52379543216618
 30
0.0
 10
351.6035777888304
 20
58.4370224563788
 30
0.0
 10
351.6208069398719
 20
58.44502134813922
 30
0.0
 10
351.624931824487
 20
58.44693638768362
 30
0.0
  0
SPLINE
  5
B6
330
1F
100
AcDbEntity
  8
0
  6
Continuous
 62
     7
370
    15
100
AcDbSpline
210
0.0
220
0.0
230
1.0
 70
     8
 71
     3
 72
     9
 73
     5
 74
     0
 42
0.0000000001
 43
0.0000000001
 40
0.0
 40
0.0
 40
0.0
 40
0.0
 40
0.2041536833086826
 40
1.0
 40
1.0
 40
1.0
 40
1.0
 10
351.6263101818974
 20
58.44765164342092
 30
0.0
 10
351.6009516094233
 20
58.43597546273593
 30
0.0
 10
351.4767384575311
 20
58.37878236929896
 30
0.0
 10
351.4345253026603
 20
58.35938877960128
 30
0.0
 10
351.4009301188405
 20
58.34395446267294
 30
0.0
  0
SPLINE
  5
B8
330
1F
100
AcDbEntity
  8
0
  6
Continuous
 62
     7
370
    15
100
AcDbSpline
210
0.0
220
0.0
230
1.0
 70
     8
 71
     3
 72
     9
 73
     5
 74
     0
 42
0.0000000001
 43
0.0000000001
 40
0.0
 40
0.0
 40
0.0
 40
0.0
 40
0.8811396574163932
 40
1.0
 40
1.0
 40
1.0
 40
1.0
 10
195.0133849504407
 20
58.34389485802812
 30
0.0
 10
194.9816158405145
 20
58.35847882354928
 30
0.0
 10
194.9455612722531
 20
58.3750300766887
 30
0.0
 10
194.8353943839557
 20
58.42577960298978
 30
0.0
 10
194.8222999098714
 20
58.43181170907186
 30
0.0
  0
SPLINE
  5
B9
330
1F
100
AcDbEntity
  8
0
  6
Continuous
 62
     7
370
    15
100
AcDbSpline
210
0.0
220
0.0
230
1.0
 70
     8
 71
     3
 72
     9
 73
     5
 74
     0
 42
0.0000000001
 43
0.0000000001
 40
0.0
 40
0.0
 40
0.0
 40
0.0
 40
0.3624299822783741
 40
1.0
 40
1.0
 40
1.0
 40
1.0
 10
194.7887648466046
 20
58.44718970742391
 30
0.0
 10
194.799847737727
 20
58.44205063844879
 30
0.0
 10
194.830427136961
 20
58.42787115764867
 30
0.0
 10
194.6163381454353
 20
58.52675099829549
 30
0.0
 10
194.4798414233144
 20
58.58979382004903
 30
0.0
  0
ARC
  5
BC
330
1F
100
AcDbEntity
  8
0
  6
Continuous
 62
     7
370
    15
100
AcDbCircle
 10
320.5368267129259
 20
44.24148503241217
 30
0.0
 40
4.999970467864473
100
AcDbArc
 50
101.711789799439
 51
176.0002648452858
  0
ARC
  5
BE
330
1F
100
AcDbEntity
  8
0
  6
Continuous
 62
     7
370
    15
100
AcDbCircle
 10
225.8773616964851
 20
44.24148503241217
 30
0.0
 40
4.99997046786453
100
AcDbArc
 50
3.9997351547141
 51
78.28821020055999
  0
LINE
  5
BF
330
1F
100
AcDbEntity
  8
0
  6
Continuous
 62
     7
370
    15
100
AcDbLine
 10
230.8651540997441
 20
44.59024228539631
 30
0.0
 11
232.7111062231477
 21
18.19189645733998
 31
0.0
  0
LINE
  5
C0
330
1F
100
AcDbEntity
  8
0
  6
Continuous
 62
     7
370
    15
100
AcDbLine
 10
315.5490343096669
 20
44.59024228539631
 30
0.0
 11
313.7030821862634
 21
18.19189645733998
 31
0.0
  0
LINE
  5
C1
330
1F
100
AcDbEntity
  8
0
  6
Continuous
 62
     7
370
    15
100
AcDbLine
 10
310.4095493081029
 20
11.0989437290685
 30
0.0
 11
236.0046391013082
 21
11.0989437290685
 31
0.0
  0
SPLINE
  5
C2
330
1F
100
AcDbEntity
  8
0
  6
Continuous
 62
     7
370
    15
100
AcDbSpline
210
0.0
220
0.0
230
1.0
 70
     8
 71
     3
 72
    10
 73
     6
 74
     0
 42
0.0000000001
 43
0.0000000001
 40
0.0
 40
0.0
 40
0.0
 40
0.0
 40
0.0000050098897779
 40
0.2762685309200214
 40
1.0
 40
1.0
 40
1.0
 40
1.0
 10
197.6278607371266
 20
57.39424385514421
 30
0.0
 10
197.6278582535788
 20
57.39424385514341
 30
0.0
 10
197.4909039255682
 20
57.39424380963959
 30
0.0
 10
197.6845138885543
 20
57.4213063623366
 30
0.0
 10
197.536452521312
 20
57.4355862362572
 30
0.0
 10
197.429295313638
 20
57.44592108216451
 30
0.0
  0
LWPOLYLINE
  5
C3
330
1F
100
AcDbEntity
  8
0
  6
Continuous
 62
     7
370
    15
100
AcDbPolyline
 90
        7
 70
   128
 43
0.0
 10
349.7546498301442
 20
57.67420687165426
 10
349.604617488664
 20
57.62534596409963
 10
349.1367806318219
 20
57.48609461274313
 10
348.8423858406957
 20
57.40822114434408
 10
348.786335122865
 20
57.39424385514425
 10
348.7863276722844
 20
57.39424385514425
 10
348.7863276722844
 20
57.39424385514425
  0
SPLINE
  5
C5
330
1F
100
AcDbEntity
  8
0
  6
Continuous
 62
     7
370
    15
100
AcDbSpline
210
0.0
220
0.0
230
1.0
 70
     8
 71
     3
 72
    17
 73
    13
 74
     0
 42
0.0000000001
 43
0.0000000001
 40
0.0
 40
0.0
 40
0.0
 40
0.0
 40
0.0805147622364844
 40
0.211353361875488
 40
0.3266997923709995
 40
0.4501502842810336
 40
0.5534972547135081
 40
0.6646461522697185
 40
0.7700308726427948
 40
0.875595943790371
 40
0.976494798421873
 40
1.0
 40
1.0
 40
1.0
 40
1.0
 10
248.2149094912227
 20
677.8799251743841
 30
0.0
 10
248.2128622920746
 20
677.9040198413398
 30
0.0
 10
248.2074883406358
 20
677.9672689738331
 30
0.0
 10
248.261721432309
 20
678.130444693433
 30
0.0
 10
248.4638921681611
 20
678.4501705109789
 30
0.0
 10
248.9250880913314
 20
678.8914194038373
 30
0.0
 10
249.6358685039737
 20
679.3524247257138
 30
0.0
 10
250.5765676978319
 20
679.7767684541553
 30
0.0
 10
251.7336476259691
 20
680.1332088580957
 30
0.0
 10
253.025224654291
 20
680.3565966738637
 30
0.0
 10
254.0468705720492
 20
680.4584826745475
 30
0.0
 10
254.6011443817611
 20
680.4388424615088
 30
0.0
 10
254.7058702084239
 20
680.4351315924215
 30
0.0
  0
SPLINE
  5
C6
330
1F
100
AcDbEntity
  8
0
  6
Continuous
 62
     7
370
    15
100
AcDbSpline
210
0.0
220
0.0
230
1.0
 70
     8
 71
     3
 72
    17
 73
    13
 74
     0
 42
0.0000000001
 43
0.0000000001
 40
0.0
 40
0.0
 40
0.0
 40
0.0
 40
0.0407431441467861
 40
0.141572096413188
 40
0.2428936791191264
 40
0.3449957817490667
 40
0.4487645391916955
 40
0.5578136726319451
 40
0.6685822367738275
 40
0.7888186785924973
 40
0.916126350973059
 40
1.0
 40
1.0
 40
1.0
 40
1.0
 10
291.7075954946692
 20
680.4308251568365
 30
0.0
 10
291.8896687650181
 20
680.4348155335462
 30
0.0
 10
292.5223272189469
 20
680.4486810809437
 30
0.0
 10
293.5930511864585
 20
680.3312905664762
 30
0.0
 10
294.8295001221976
 20
680.0924447639748
 30
0.0
 10
295.9193351171769
 20
679.7453669674625
 30
0.0
 10
296.8219576069093
 20
679.3270005360291
 30
0.0
 10
297.5007158781304
 20
678.8816495782291
 30
0.0
 10
297.9464163748129
 20
678.4532181992597
 30
0.0
 10
298.1523319770608
 20
678.1324090363396
 30
0.0
 10
298.2065104113833
 20
677.9699832818807
 30
0.0
 10
298.2005813387458
 20
677.9054721694222
 30
0.0
 10
298.1982265236791
 20
677.8798506685781
 30
0.0
  0
SPLINE
  5
C7
330
1F
100
AcDbEntity
  8
0
  6
Continuous
 62
     7
370
    15
100
AcDbSpline
210
0.0
220
0.0
230
1.0
 70
    24
 71
     1
 72
     4
 73
     2
 74
     0
 42
0.0000000001
 43
0.0000000001
 40
0.0
 40
0.0
 40
1.0
 40
1.0
 10
254.7070939662869
 20
680.4472611376333
 30
0.0
 10
291.7070944431241
 20
680.4472611376333
 30
0.0
  0
LINE
  5
C8
330
1F
100
AcDbEntity
  8
0
  6
Continuous
 62
     7
370
    15
100
AcDbLine
 10
57.93311787871674
 20
686.9230077692555
 30
0.0
 11
57.93311787871674
 21
324.0564868876027
 31
0.0
  0
LINE
  5
CA
330
1F
100
AcDbEntity
  8
0
  6
Continuous
 62
     7
370
    15
100
AcDbLine
 10
52.52766205100373
 20
324.0564868876027
 30
0.0
 11
52.52766205100373
 21
686.9230077692555
 31
0.0
  0
SPLINE
  5
CC
330
1F
100
AcDbEntity
  8
0
  6
Continuous
 62
     7
370
    15
100
AcDbSpline
210
0.0
220
0.0
230
1.0
 70
     8
 71
     3
 72
    28
 73
    24
 74
     0
 42
0.0000000001
 43
0.0000000001
 40
0.0
 40
0.0
 40
0.0
 40
0.0
 40
0.1250000000000074
 40
0.1250000000000074
 40
0.1875000000000113
 40
0.1875000000000113
 40
0.2500000000000152
 40
0.2500000000000152
 40
0.375000000000016
 40
0.375000000000016
 40
0.4375000000000157
 40
0.4375000000000157
 40
0.5000000000000152
 40
0.5000000000000152
 40
0.6250000000000102
 40
0.6250000000000102
 40
0.750000000000005
 40
0.750000000000005
 40
0.8125000000000024
 40
0.8125000000000024
 40
0.8749999999999998
 40
0.8749999999999998
 40
1.0
 40
1.0
 40
1.0
 40
1.0
 10
57.93311733862622
 20
324.0564862215611
 30
0.0
 10
57.86793180034924
 20
323.4515103877184
 30
0.0
 10
57.85394840322211
 20
322.8416758307363
 30
0.0
 10
57.92690371676362
 20
321.9383168785427
 30
0.0
 10
57.96685364038257
 20
321.6383142686673
 30
0.0
 10
58.08218029863618
 20
321.0408432007292
 30
0.0
 10
58.158328605172
 20
320.7411794236618
 30
0.0
 10
58.44235666024683
 20
319.8655920489167
 30
0.0
 10
58.70342062519526
 20
319.3139365169203
 30
0.0
 10
59.21853638599042
 20
318.5416959148183
 30
0.0
 10
59.41061086132251
 20
318.2950029082595
 30
0.0
 10
59.82349446975451
 20
317.8379145956761
 30
0.0
 10
60.04453114402384
 20
317.6265614376998
 30
0.0
 10
60.74903289463396
 20
317.041256675651
 30
0.0
 10
61.27900782293572
 20
316.7143836216248
 30
0.0
 10
62.39942719669023
 20
316.201660047199
 30
0.0
 10
62.97717550447051
 20
316.0186699079149
 30
0.0
 10
63.85931969110364
 20
315.8286896450338
 30
0.0
 10
64.15627782867
 20
315.7795495785929
 30
0.0
 10
64.755464658839
 20
315.7069745591244
 30
0.0
 10
65.0587216345768
 20
315.6835335283559
 30
0.0
 10
65.96694105185687
 20
315.6491515404801
 30
0.0
 10
66.56997377579881
 20
315.6733637845156
 30
0.0
 10
67.17100594492023
 20
315.7359222567278
 30
0.0
  0
SPLINE
  5
CE
330
1F
100
AcDbEntity
  8
0
  6
Continuous
 62
     7
370
    15
100
AcDbSpline
210
0.0
220
0.0
230
1.0
 70
     8
 71
     3
 72
    30
 73
    26
 74
     0
 42
0.0000000001
 43
0.0000000001
 40
0.0
 40
0.0
 40
0.0
 40
0.0
 40
0.1249999999999982
 40
0.1249999999999982
 40
0.2499999999999964
 40
0.2499999999999964
 40
0.3124999999999955
 40
0.3124999999999955
 40
0.3749999999999946
 40
0.3749999999999946
 40
0.499999999999996
 40
0.499999999999996
 40
0.5624999999999979
 40
0.5624999999999979
 40
0.625
 40
0.625
 40
0.7500000000000009
 40
0.7500000000000009
 40
0.8125000000000007
 40
0.8125000000000007
 40
0.8750000000000003
 40
0.8750000000000003
 40
0.9375000000000001
 40
0.9375000000000001
 40
1.0
 40
1.0
 40
1.0
 40
1.0
 10
67.17100594491923
 20
310.0747564327602
 30
0.0
 10
66.21884148184325
 20
310.0747564327597
 30
0.0
 10
65.27264722132525
 20
310.1461313813072
 30
0.0
 10
63.39363695251421
 20
310.4488209211451
 30
0.0
 10
62.4758788780937
 20
310.6781636545655
 30
0.0
 10
61.14523014524827
 20
311.1457049860651
 30
0.0
 10
60.70881197298891
 20
311.3223266065699
 30
0.0
 10
59.8512147546732
 20
311.7199629740364
 30
0.0
 10
59.42749888239035
 20
311.9425888523362
 30
0.0
 10
58.20438651168869
 20
312.668983155761
 30
0.0
 10
57.45190334077602
 20
313.2294671399342
 30
0.0
 10
56.4200520177372
 20
314.1875358604115
 30
0.0
 10
56.09233216075213
 20
314.5265521993677
 30
0.0
 10
55.47093320393692
 20
315.245818430407
 30
0.0
 10
55.17902636004918
 20
315.6246149422224
 30
0.0
 10
54.377274873328
 20
316.7927756044221
 30
0.0
 10
53.93290780838153
 20
317.6225426707214
 30
0.0
 10
53.39725260672484
 20
318.9412473733637
 30
0.0
 10
53.24079833944731
 20
319.3938662867655
 30
0.0
 10
52.97725402539407
 20
320.3033820941377
 30
0.0
 10
52.86904955097632
 20
320.7627432950405
 30
0.0
 10
52.6970601623136
 20
321.6901418336181
 30
0.0
 10
52.63328346730173
 20
322.1581807766934
 30
0.0
 10
52.54854089065561
 20
323.1026205752705
 30
0.0
 10
52.52766810220502
 20
323.5798192422367
 30
0.0
 10
52.52766810220485
 20
324.0564862215615
 30
0.0
  0
LINE
  5
CF
330
1F
100
AcDbEntity
  8
0
  6
Continuous
 62
     7
370
    15
100
AcDbLine
 10
58.30709232119874
 20
720.9897444674061
 30
0.0
 11
488.1070960882123
 21
720.9897444674061
 31
0.0
  0
ARC
  5
D3
330
1F
100
AcDbEntity
  8
0
  6
Continuous
 62
     7
370
    15
100
AcDbCircle
 10
488.1070942047054
 20
694.989747328429
 30
0.0
 40
26.0
100
AcDbArc
 50
0.0
 51
90.0
  0
ARC
  5
D6
330
1F
100
AcDbEntity
  8
0
  6
Continuous
 62
     7
370
    15
100
AcDbCircle
 10
58.30709420470554
 20
694.989747328429
 30
0.0
 40
26.0
100
AcDbArc
 50
90.0
 51
180.0
  0
ARC
  5
E7
330
1F
100
AcDbEntity
  8
0
  6
Continuous
 62
     7
370
    15
100
AcDbCircle
 10
488.1070942047054
 20
694.989747328429
 30
0.0
 40
16.39315777307331
100
AcDbArc
 50
0.0000000000004096
 51
90.00000000000019
  0
LINE
  5
E9
330
1F
100
AcDbEntity
  8
0
  6
Continuous
 62
     7
370
    15
100
AcDbLine
 10
488.1070960882123
 20
711.3829062410878
 30
0.0
 11
58.30709232119874
 21
711.3829062410878
 31
0.0
  0
ARC
  5
EB
330
1F
100
AcDbEntity
  8
0
  6
Continuous
 62
     7
370
    15
100
AcDbCircle
 10
58.30709420470554
 20
694.989747328429
 30
0.0
 40
16.39315777307342
100
AcDbArc
 50
90.00000000000019
 51
180.0
  0
ARC
  5
ED
330
1F
100
AcDbEntity
  8
0
  6
Continuous
 62
     7
370
    15
100
AcDbCircle
 10
488.1070942047054
 20
694.989747328429
 30
0.0
 40
9.606842226926573
100
AcDbArc
 50
0.0000000000001695
 51
90.0
  0
LINE
  5
F1
330
1F
100
AcDbEntity
  8
0
  6
Continuous
 62
     7
370
    15
100
AcDbLine
 10
58.30709232119874
 20
704.5965896078633
 30
0.0
 11
488.1070960882123
 21
704.5965896078633
 31
0.0
  0
ARC
  5
F4
330
1F
100
AcDbEntity
  8
0
  6
Continuous
 62
     7
370
    15
100
AcDbCircle
 10
58.30709420470554
 20
694.989747328429
 30
0.0
 40
9.606842226926573
100
AcDbArc
 50
90.0
 51
180.0
  0
LINE
  5
F7
330
1F
100
AcDbEntity
  8
0
  6
Continuous
 62
     7
370
    15
100
AcDbLine
 10
479.2431850555356
 20
310.0747571417378
 30
0.0
 11
67.17100335387543
 21
310.0747571417378
 31
0.0
  0
SPLINE
  5
F8
330
1F
100
AcDbEntity
  8
0
  6
Continuous
 62
     7
370
    15
100
AcDbSpline
210
0.0
220
0.0
230
1.0
 70
     8
 71
     3
 72
    30
 73
    26
 74
     0
 42
0.0000000001
 43
0.0000000001
 40
0.0
 40
0.0
 40
0.0
 40
0.0
 40
0.1249999999999993
 40
0.1249999999999993
 40
0.1874999999999993
 40
0.1874999999999993
 40
0.2499999999999993
 40
0.2499999999999993
 40
0.3749999999999958
 40
0.3749999999999958
 40
0.4374999999999952
 40
0.4374999999999952
 40
0.4999999999999945
 40
0.4999999999999945
 40
0.5624999999999938
 40
0.5624999999999938
 40
0.6249999999999931
 40
0.6249999999999931
 40
0.7499999999999919
 40
0.7499999999999919
 40
0.8124999999999927
 40
0.8124999999999927
 40
0.8749999999999936
 40
0.8749999999999936
 40
1.0
 40
1.0
 40
1.0
 40
1.0
 10
493.8865203072061
 20
324.0564862215681
 30
0.0
 10
493.8865203072062
 20
323.1031361322282
 30
0.0
 10
493.8041709522872
 20
322.1591338305612
 30
0.0
 10
493.5443378084069
 20
320.7586033424023
 30
0.0
 10
493.4341950658319
 20
320.2926783211025
 30
0.0
 10
493.1703135091169
 20
319.3845268174495
 30
0.0
 10
493.0163890556285
 20
318.9403546158372
 30
0.0
 10
492.4878841841779
 20
317.6379002670155
 30
0.0
 10
492.0471764023032
 20
316.809408210187
 30
0.0
 10
491.2408666982888
 20
315.6321037324732
 30
0.0
 10
490.9492713636935
 20
315.2535211192234
 30
0.0
 10
490.3327602488539
 20
314.5384545066459
 30
0.0
 10
490.0062839020889
 20
314.1996246801507
 30
0.0
 10
489.3176257103552
 20
313.5586164066097
 30
0.0
 10
488.955442584044
 20
313.2564392748508
 30
0.0
 10
488.1952863222104
 20
312.6888231405881
 30
0.0
 10
487.7963233886013
 20
312.4231700401939
 30
0.0
 10
486.574222983611
 20
311.6981388120716
 30
0.0
 10
485.7175948336372
 20
311.3031469577582
 30
0.0
 10
484.3752277240644
 20
310.831777440109
 30
0.0
 10
483.9167196636422
 20
310.694788562898
 30
0.0
 10
482.9972144755096
 20
310.4643623481012
 30
0.0
 10
482.5344586751113
 20
310.370172480543
 30
0.0
 10
481.1378159267237
 20
310.1462325267525
 30
0.0
 10
480.1956044377067
 20
310.0747564327487
 30
0.0
 10
479.2431824645017
 20
310.0747564327487
 30
0.0
  0
LINE
  5
F9
330
1F
100
AcDbEntity
  8
0
  6
Continuous
 62
     7
370
    15
100
AcDbLine
 10
493.8865263584073
 20
686.9230077692555
 30
0.0
 11
493.8865263584073
 21
324.0564868876027
 31
0.0
  0
SPLINE
  5
FA
330
1F
100
AcDbEntity
  8
0
  6
Continuous
 62
     7
370
    15
100
AcDbSpline
210
0.0
220
0.0
230
1.0
 70
     8
 71
     3
 72
    30
 73
    26
 74
     0
 42
0.0000000001
 43
0.0000000001
 40
0.0
 40
0.0
 40
0.0
 40
0.0
 40
0.1249999999999959
 40
0.1249999999999959
 40
0.2499999999999917
 40
0.2499999999999917
 40
0.3124999999999914
 40
0.3124999999999914
 40
0.374999999999991
 40
0.374999999999991
 40
0.4999999999999922
 40
0.4999999999999922
 40
0.5624999999999916
 40
0.5624999999999916
 40
0.6249999999999911
 40
0.6249999999999911
 40
0.7499999999999917
 40
0.7499999999999917
 40
0.8124999999999937
 40
0.8124999999999937
 40
0.8749999999999957
 40
0.8749999999999957
 40
0.9374999999999978
 40
0.9374999999999978
 40
1.0
 40
1.0
 40
1.0
 40
1.0
 10
479.2431824645003
 20
700.9047382241051
 30
0.0
 10
480.1953469275766
 20
700.9047382241051
 30
0.0
 10
481.1415411880942
 20
700.8333632755501
 30
0.0
 10
483.0205514569051
 20
700.5306737357113
 30
0.0
 10
483.9383095313252
 20
700.3013310022904
 30
0.0
 10
485.2689582641702
 20
699.8337896707901
 30
0.0
 10
485.7053764364295
 20
699.6571680502852
 30
0.0
 10
486.562973654745
 20
699.2595316828182
 30
0.0
 10
486.9866895270278
 20
699.036905804518
 30
0.0
 10
488.2098018977287
 20
698.3105115010928
 30
0.0
 10
488.962285068641
 20
697.7500275169193
 30
0.0
 10
489.9941363916791
 20
696.7919587964412
 30
0.0
 10
490.3218562486641
 20
696.4529424574849
 30
0.0
 10
490.9432552054788
 20
695.7336762264453
 30
0.0
 10
491.2351620493663
 20
695.3548797146298
 30
0.0
 10
492.0369135360865
 20
694.1867190524297
 30
0.0
 10
492.4812806010327
 20
693.3569519861301
 30
0.0
 10
493.0169358026886
 20
692.0382472834876
 30
0.0
 10
493.1733900699659
 20
691.5856283700859
 30
0.0
 10
493.4369343840186
 20
690.6761125627138
 30
0.0
 10
493.5451388584364
 20
690.2167513618109
 30
0.0
 10
493.7171282470987
 20
689.2893528232335
 30
0.0
 10
493.7809049421102
 20
688.8213138801579
 30
0.0
 10
493.8656475187559
 20
687.8768740815807
 30
0.0
 10
493.8865203072062
 20
687.3996754146149
 30
0.0
 10
493.8865203072062
 20
686.9230084352903
 30
0.0
  0
LINE
  5
FB
330
1F
100
AcDbEntity
  8
0
  6
Continuous
 62
     7
370
    15
100
AcDbLine
 10
67.17100335387543
 20
700.9047375151204
 30
0.0
 11
479.2431850555356
 21
700.9047375151204
 31
0.0
  0
SPLINE
  5
FC
330
1F
100
AcDbEntity
  8
0
  6
Continuous
 62
     7
370
    15
100
AcDbSpline
210
0.0
220
0.0
230
1.0
 70
     8
 71
     3
 72
    30
 73
    26
 74
     0
 42
0.0000000001
 43
0.0000000001
 40
0.0
 40
0.0
 40
0.0
 40
0.0
 40
0.1250000000000033
 40
0.1250000000000033
 40
0.1875000000000046
 40
0.1875000000000046
 40
0.2500000000000059
 40
0.2500000000000059
 40
0.3750000000000051
 40
0.3750000000000051
 40
0.4375000000000057
 40
0.4375000000000057
 40
0.5000000000000063
 40
0.5000000000000063
 40
0.5625000000000071
 40
0.5625000000000071
 40
0.6250000000000076
 40
0.6250000000000076
 40
0.7500000000000057
 40
0.7500000000000057
 40
0.812500000000004
 40
0.812500000000004
 40
0.8750000000000024
 40
0.8750000000000024
 40
1.0
 40
1.0
 40
1.0
 40
1.0
 10
52.52766810220489
 20
686.92300843529
 30
0.0
 10
52.52766810220489
 20
687.8763585246302
 30
0.0
 10
52.61001745712435
 20
688.8203608263036
 30
0.0
 10
52.86985060100547
 20
690.2208913144625
 30
0.0
 10
52.97999334358061
 20
690.6868163357622
 30
0.0
 10
53.24387490029611
 20
691.5949678394151
 30
0.0
 10
53.39779935378502
 20
692.0391400410271
 30
0.0
 10
53.926304225236
 20
693.3415943898487
 30
0.0
 10
54.36701200711125
 20
694.1700864466771
 30
0.0
 10
55.17332171112626
 20
695.3473909243906
 30
0.0
 10
55.46491704572179
 20
695.7259735376402
 30
0.0
 10
56.08142816056186
 20
696.4410401502172
 30
0.0
 10
56.40790450732705
 20
696.7798699767124
 30
0.0
 10
57.09656269906113
 20
697.420878250253
 30
0.0
 10
57.45874582537247
 20
697.7230553820117
 30
0.0
 10
58.21890208720656
 20
698.2906715162739
 30
0.0
 10
58.6178650208157
 20
698.5563246166681
 30
0.0
 10
59.83996542580641
 20
699.2813558447898
 30
0.0
 10
60.69659357578017
 20
699.6763476991028
 30
0.0
 10
62.03896068535339
 20
700.1477172167514
 30
0.0
 10
62.49746874577564
 20
700.2847060939621
 30
0.0
 10
63.41697393390838
 20
700.5151323087585
 30
0.0
 10
63.87972973430672
 20
700.6093221763165
 30
0.0
 10
65.27637248269432
 20
700.8332621301065
 30
0.0
 10
66.21858397170441
 20
700.9047382241094
 30
0.0
 10
67.17100594490941
 20
700.9047382241094
 30
0.0
  0
SPLINE
  5
103
330
1F
100
AcDbEntity
  8
0
  6
Continuous
 62
     7
370
    15
100
AcDbSpline
210
0.0
220
0.0
230
1.0
 70
     8
 71
     3
 72
    28
 73
    24
 74
     0
 42
0.0000000001
 43
0.0000000001
 40
0.0
 40
0.0
 40
0.0
 40
0.0
 40
0.1250000000000041
 40
0.1250000000000041
 40
0.1875000000000062
 40
0.1875000000000062
 40
0.2500000000000082
 40
0.2500000000000082
 40
0.3750000000000069
 40
0.3750000000000069
 40
0.4375000000000063
 40
0.4375000000000063
 40
0.5000000000000055
 40
0.5000000000000055
 40
0.5625000000000048
 40
0.5625000000000048
 40
0.6250000000000041
 40
0.6250000000000041
 40
0.7500000000000028
 40
0.7500000000000028
 40
0.8750000000000014
 40
0.8750000000000014
 40
1.0
 40
1.0
 40
1.0
 40
1.0
 10
67.17100594491066
 20
695.243572400134
 30
0.0
 10
66.57029198406426
 20
695.3060977516171
 30
0.0
 10
65.96976635710136
 20
695.3300315337957
 30
0.0
 10
65.06933329639183
 20
695.2965679532431
 30
0.0
 10
64.76924853942498
 20
695.2737879792888
 30
0.0
 10
64.16921698184244
 20
695.2018964534609
 30
0.0
 10
63.86789227869513
 20
695.152486681869
 30
0.0
 10
62.97439157999793
 20
694.9605503393486
 30
0.0
 10
62.39784559414455
 20
694.7765746068192
 30
0.0
 10
61.5681674003364
 20
694.3976996638021
 30
0.0
 10
61.29609466894328
 20
694.2532340400681
 30
0.0
 10
60.77207998211556
 20
693.9282881677379
 30
0.0
 10
60.5230922080972
 20
693.7498623013458
 30
0.0
 10
60.05214235902079
 20
693.359896475249
 30
0.0
 10
59.83017384251554
 20
693.1483644098364
 30
0.0
 10
59.41504830605643
 20
692.689998286126
 30
0.0
 10
59.22275838542129
 20
692.4434933909135
 30
0.0
 10
58.70695874720824
 20
691.6721100672032
 30
0.0
 10
58.44658262578406
 20
691.1229048901851
 30
0.0
 10
58.06834311393486
 20
689.9648437542135
 30
0.0
 10
57.95217684204682
 20
689.3512043123007
 30
0.0
 10
57.85353234358289
 20
688.1355655192928
 30
0.0
 10
57.86783928738009
 20
687.5288428662498
 30
0.0
 10
57.93311733863462
 20
686.92300843529
 30
0.0
  0
SPLINE
  5
104
330
1F
100
AcDbEntity
  8
0
  6
Continuous
 62
     7
370
    15
100
AcDbSpline
210
0.0
220
0.0
230
1.0
 70
     8
 71
     3
 72
    28
 73
    24
 74
     0
 42
0.0000000001
 43
0.0000000001
 40
0.0
 40
0.0
 40
0.0
 40
0.0
 40
0.1249999999999899
 40
0.1249999999999899
 40
0.1874999999999874
 40
0.1874999999999874
 40
0.2499999999999849
 40
0.2499999999999849
 40
0.37499999999998
 40
0.37499999999998
 40
0.4374999999999815
 40
0.4374999999999815
 40
0.4999999999999828
 40
0.4999999999999828
 40
0.6249999999999893
 40
0.6249999999999893
 40
0.7499999999999957
 40
0.7499999999999957
 40
0.8124999999999966
 40
0.8124999999999966
 40
0.8749999999999978
 40
0.8749999999999978
 40
1.0
 40
1.0
 40
1.0
 40
1.0
 10
488.4810710707761
 20
686.9230084352901
 30
0.0
 10
488.5462566090539
 20
687.5279842691321
 30
0.0
 10
488.560240006189
 20
688.1378188261119
 30
0.0
 10
488.4872846926485
 20
689.0411777783054
 30
0.0
 10
488.44733476903
 20
689.3411803881808
 30
0.0
 10
488.3320081107772
 20
689.9386514561189
 30
0.0
 10
488.2558598042419
 20
690.2383152331865
 30
0.0
 10
487.9718317491684
 20
691.1139026079317
 30
0.0
 10
487.7107677842206
 20
691.6655581399287
 30
0.0
 10
487.1956520234271
 20
692.4377987420313
 30
0.0
 10
487.0035775480953
 20
692.6844917485903
 30
0.0
 10
486.590693939664
 20
693.1415800611744
 30
0.0
 10
486.3696572653949
 20
693.352933219151
 30
0.0
 10
485.6651555147858
 20
693.938237981201
 30
0.0
 10
485.1351805864847
 20
694.265111035228
 30
0.0
 10
484.0147612127311
 20
694.7778346096553
 30
0.0
 10
483.4370129049509
 20
694.9608247489402
 30
0.0
 10
482.554868718318
 20
695.1508050118225
 30
0.0
 10
482.2579105807518
 20
695.1999450782635
 30
0.0
 10
481.6587237505831
 20
695.2725200977327
 30
0.0
 10
481.3554667748454
 20
695.2959611285015
 30
0.0
 10
480.4472473575652
 20
695.3303431163782
 30
0.0
 10
479.8442146336221
 20
695.3061308723456
 30
0.0
 10
479.2431824645005
 20
695.2435724001335
 30
0.0
  0
LINE
  5
107
330
1F
100
AcDbEntity
  8
0
  6
Continuous
 62
     7
370
    15
100
AcDbLine
 10
479.2431850555356
 20
695.2435777613209
 30
0.0
 11
67.17100335387543
 21
695.2435777613209
 31
0.0
  0
LINE
  5
108
330
1F
100
AcDbEntity
  8
0
  6
Continuous
 62
     7
370
    15
100
AcDbLine
 10
488.4810705306943
 20
324.0564868876027
 30
0.0
 11
488.4810705306943
 21
686.9230077692555
 31
0.0
  0
LINE
  5
10A
330
1F
100
AcDbEntity
  8
0
  6
Continuous
 62
     7
370
    15
100
AcDbLine
 10
41.91393746165589
 20
694.9897513815449
 30
0.0
 11
41.91393746165589
 21
315.9897432753133
 31
0.0
  0
LINE
  5
10C
330
1F
100
AcDbEntity
  8
0
  6
Continuous
 62
     7
370
    15
100
AcDbLine
 10
497.7139343145307
 20
694.9897513815449
 30
0.0
 11
497.7139343145307
 21
315.9897432753133
 31
0.0
  0
LINE
  5
10E
330
1F
100
AcDbEntity
  8
0
  6
Continuous
 62
     7
370
    15
100
AcDbLine
 10
514.1070891740735
 20
694.9897513815449
 30
0.0
 11
514.1070891740735
 21
315.9897432753133
 31
0.0
  0
LINE
  5
111
330
1F
100
AcDbEntity
  8
0
  6
Continuous
 62
     7
370
    15
100
AcDbLine
 10
32.30709923533753
 20
315.9897432753133
 30
0.0
 11
32.30709923533753
 21
694.9897513815449
 31
0.0
  0
LINE
  5
113
330
1F
100
AcDbEntity
  8
0
  6
Continuous
 62
     7
370
    15
100
AcDbLine
 10
504.5002509477551
 20
315.9897432753133
 30
0.0
 11
504.5002509477551
 21
694.9897513815449
 31
0.0
  0
LINE
  5
115
330
1F
100
AcDbEntity
  8
0
  6
Continuous
 62
     7
370
    15
100
AcDbLine
 10
48.70025409488038
 20
315.9897432753133
 30
0.0
 11
48.70025409488038
 21
694.9897513815449
 31
0.0
  0
SPLINE
  5
116
330
1F
100
AcDbEntity
  8
0
  6
Continuous
 62
     7
370
    15
100
AcDbSpline
210
0.0
220
0.0
230
1.0
 70
     8
 71
     3
 72
    28
 73
    24
 74
     0
 42
0.0000000001
 43
0.0000000001
 40
0.0
 40
0.0
 40
0.0
 40
0.0
 40
0.125000000000001
 40
0.125000000000001
 40
0.1875000000000016
 40
0.1875000000000016
 40
0.2500000000000022
 40
0.2500000000000022
 40
0.3750000000000034
 40
0.3750000000000034
 40
0.4375000000000039
 40
0.4375000000000039
 40
0.5000000000000046
 40
0.5000000000000046
 40
0.5625000000000052
 40
0.5625000000000052
 40
0.6250000000000058
 40
0.6250000000000058
 40
0.7500000000000038
 40
0.7500000000000038
 40
0.8750000000000019
 40
0.8750000000000019
 40
1.0
 40
1.0
 40
1.0
 40
1.0
 10
479.2431824645005
 20
315.7359222567242
 30
0.0
 10
479.843896425346
 20
315.6733969052412
 30
0.0
 10
480.4444220523182
 20
315.6494631230623
 30
0.0
 10
481.3448551130265
 20
315.6829267036154
 30
0.0
 10
481.6449398699929
 20
315.7057066775698
 30
0.0
 10
482.2449714275746
 20
315.7775982033981
 30
0.0
 10
482.5462961307216
 20
315.8270079749903
 30
0.0
 10
483.4397968294172
 20
316.0189443175109
 30
0.0
 10
484.0163428152698
 20
316.2029200500401
 30
0.0
 10
484.8460210090767
 20
316.581794993057
 30
0.0
 10
485.1180937404692
 20
316.726260616791
 30
0.0
 10
485.6421084272963
 20
317.0512064891208
 30
0.0
 10
485.8910962013143
 20
317.2296323555127
 30
0.0
 10
486.3620460503901
 20
317.619598181609
 30
0.0
 10
486.584014566895
 20
317.8311302470212
 30
0.0
 10
486.9991401033536
 20
318.289496370731
 30
0.0
 10
487.1914300239885
 20
318.5360012659432
 30
0.0
 10
487.7072296622012
 20
319.3073845896523
 30
0.0
 10
487.9676057836253
 20
319.8565897666695
 30
0.0
 10
488.3458452954747
 20
321.0146509026389
 30
0.0
 10
488.4620115673632
 20
321.628290344551
 30
0.0
 10
488.5606560658279
 20
322.8439291375573
 30
0.0
 10
488.5463491220296
 20
323.4506517906092
 30
0.0
 10
488.4810710707753
 20
324.0564862215679
 30
0.0
  0
LINE
  5
118
330
1F
100
AcDbEntity
  8
0
  6
Continuous
 62
     7
370
    15
100
AcDbLine
 10
67.17100335387543
 20
315.7359168955373
 30
0.0
 11
479.2431850555356
 21
315.7359168955373
 31
0.0
  0
ARC
  5
119
330
1F
100
AcDbEntity
  8
0
  6
Continuous
 62
     7
370
    15
100
AcDbCircle
 10
58.30709420470554
 20
315.9897473284291
 30
0.0
 40
16.39315777307342
100
AcDbArc
 50
180.0
 51
270.0000000000009
  0
ARC
  5
11B
330
1F
100
AcDbEntity
  8
0
  6
Continuous
 62
     7
370
    15
100
AcDbCircle
 10
488.1070942047054
 20
315.9897473284291
 30
0.0
 40
9.606842226926573
100
AcDbArc
 50
270.0000000000008
 51
0.0000000000000848
  0
ARC
  5
11E
330
1F
100
AcDbEntity
  8
0
  6
Continuous
 62
     7
370
    15
100
AcDbCircle
 10
58.30709420470554
 20
315.9897473284291
 30
0.0
 40
9.606842226926573
100
AcDbArc
 50
180.0
 51
270.0000000000008
  0
ARC
  5
11F
330
1F
100
AcDbEntity
  8
0
  6
Continuous
 62
     7
370
    15
100
AcDbCircle
 10
488.1070942047054
 20
315.9897473284291
 30
0.0
 40
26.00000000000006
100
AcDbArc
 50
270.0000000000008
 51
0.0
  0
ARC
  5
122
330
1F
100
AcDbEntity
  8
0
  6
Continuous
 62
     7
370
    15
100
AcDbCircle
 10
488.1070942047054
 20
315.9897473284291
 30
0.0
 40
16.39315777307342
100
AcDbArc
 50
270.000000000001
 51
0.0000000000000497
  0
ARC
  5
124
330
1F
100
AcDbEntity
  8
0
  6
Continuous
 62
     7
370
    15
100
AcDbCircle
 10
58.30709420470554
 20
315.9897473284291
 30
0.0
 40
26.00000000000006
100
AcDbArc
 50
180.0
 51
270.0000000000008
  0
LINE
  5
125
330
1F
100
AcDbEntity
  8
0
  6
Continuous
 62
     7
370
    15
100
AcDbLine
 10
488.1070960882123
 20
306.3829050489949
 30
0.0
 11
58.30709232119874
 21
306.3829050489949
 31
0.0
  0
LINE
  5
126
330
1F
100
AcDbEntity
  8
0
  6
Continuous
 62
     7
370
    15
100
AcDbLine
 10
58.30709232119874
 20
299.5965884157704
 30
0.0
 11
488.1070960882123
 21
299.5965884157704
 31
0.0
  0
LINE
  5
127
330
1F
100
AcDbEntity
  8
0
  6
Continuous
 62
     7
370
    15
100
AcDbLine
 10
488.1070960882123
 20
289.9897501894521
 30
0.0
 11
58.30709232119874
 21
289.9897501894521
 31
0.0
  0
ARC
  5
128
330
1F
100
AcDbEntity
  8
0
  6
Continuous
 62
     7
370
    15
100
AcDbCircle
 10
488.1070942047054
 20
694.989747328429
 30
0.0
 40
15.27350889359331
100
AcDbArc
 50
0.0000000000004298
 51
90.00000000000021
  0
ARC
  5
12C
330
1F
100
AcDbEntity
  8
0
  6
Continuous
 62
     7
370
    15
100
AcDbCircle
 10
58.30709420470554
 20
694.989747328429
 30
0.0
 40
15.27350889359331
100
AcDbArc
 50
90.00000000000021
 51
180.0
  0
LINE
  5
12E
330
1F
100
AcDbEntity
  8
0
  6
Continuous
 62
     7
370
    15
100
AcDbLine
 10
58.30709232119874
 20
710.2632627913044
 30
0.0
 11
488.1070960882123
 21
710.2632627913044
 31
0.0
  0
LINE
  5
130
330
1F
100
AcDbEntity
  8
0
  6
Continuous
 62
     7
370
    15
100
AcDbLine
 10
503.3806074979718
 20
694.9897513815449
 30
0.0
 11
503.3806074979718
 21
315.9897432753133
 31
0.0
  0
ARC
  5
131
330
1F
100
AcDbEntity
  8
0
  6
Continuous
 62
     7
370
    15
100
AcDbCircle
 10
58.30709420470554
 20
694.989747328429
 30
0.0
 40
10.72649110640658
100
AcDbArc
 50
90.0
 51
180.0
  0
LINE
  5
134
330
1F
100
AcDbEntity
  8
0
  6
Continuous
 62
     7
370
    15
100
AcDbLine
 10
488.1070960882123
 20
705.7162330576466
 30
0.0
 11
58.30709232119874
 21
705.7162330576466
 31
0.0
  0
ARC
  5
136
330
1F
100
AcDbEntity
  8
0
  6
Continuous
 62
     7
370
    15
100
AcDbCircle
 10
488.1070942047054
 20
694.989747328429
 30
0.0
 40
10.72649110640657
100
AcDbArc
 50
0.0
 51
90.0
  0
LINE
  5
138
330
1F
100
AcDbEntity
  8
0
  6
Continuous
 62
     7
370
    15
100
AcDbLine
 10
43.03358091143921
 20
315.9897432753133
 30
0.0
 11
43.03358091143921
 21
694.9897513815449
 31
0.0
  0
LINE
  5
13A
330
1F
100
AcDbEntity
  8
0
  6
Continuous
 62
     7
370
    15
100
AcDbLine
 10
47.58059574393586
 20
694.9897513815449
 30
0.0
 11
47.58059574393586
 21
315.9897432753133
 31
0.0
  0
LINE
  5
13C
330
1F
100
AcDbEntity
  8
0
  6
Continuous
 62
     7
370
    15
100
AcDbLine
 10
498.8335926654752
 20
315.9897432753133
 30
0.0
 11
498.8335926654752
 21
694.9897513815449
 31
0.0
  0
ARC
  5
13E
330
1F
100
AcDbEntity
  8
0
  6
Continuous
 62
     7
370
    15
100
AcDbCircle
 10
58.30709420470554
 20
315.9897473284291
 30
0.0
 40
15.27350889359326
100
AcDbArc
 50
180.0
 51
270.0000000000009
  0
ARC
  5
141
330
1F
100
AcDbEntity
  8
0
  6
Continuous
 62
     7
370
    15
100
AcDbCircle
 10
488.1070942047054
 20
315.9897473284291
 30
0.0
 40
15.27350889359331
100
AcDbArc
 50
270.000000000001
 51
0.0
  0
ARC
  5
142
330
1F
100
AcDbEntity
  8
0
  6
Continuous
 62
     7
370
    15
100
AcDbCircle
 10
58.30709420470554
 20
315.9897473284291
 30
0.0
 40
10.72649110640663
100
AcDbArc
 50
179.9999999999999
 51
270.0000000000008
  0
ARC
  5
144
330
1F
100
AcDbEntity
  8
0
  6
Continuous
 62
     7
370
    15
100
AcDbCircle
 10
488.1070942047054
 20
315.9897473284291
 30
0.0
 40
10.72649110640668
100
AcDbArc
 50
270.0000000000008
 51
0.0000000000001518
  0
LINE
  5
146
330
1F
100
AcDbEntity
  8
0
  6
Continuous
 62
     7
370
    15
100
AcDbLine
 10
488.1070960882123
 20
300.7162318655538
 30
0.0
 11
58.30709232119874
 21
300.7162318655538
 31
0.0
  0
LINE
  5
147
330
1F
100
AcDbEntity
  8
0
  6
Continuous
 62
     7
370
    15
100
AcDbLine
 10
58.30709232119874
 20
305.2632615992116
 30
0.0
 11
488.1070960882123
 21
305.2632615992116
 31
0.0
  0
SPLINE
  5
149
330
1F
100
AcDbEntity
  8
0
  6
Continuous
 62
     7
370
    15
100
AcDbSpline
210
0.0
220
0.0
230
1.0
 70
     8
 71
     3
 72
    12
 73
     8
 74
     0
 42
0.0000000001
 43
0.0000000001
 40
0.0
 40
0.0
 40
0.0
 40
0.0
 40
0.4999999999999996
 40
0.4999999999999996
 40
0.7499999999999999
 40
0.7499999999999999
 40
1.0
 40
1.0
 40
1.0
 40
1.0
 10
435.2524753365734
 20
658.386096243817
 30
0.0
 10
443.1091636698191
 20
664.9780460275291
 30
0.0
 10
450.7131085140079
 20
671.3628746848792
 30
0.0
 10
461.7264476268271
 20
680.5971237016466
 30
0.0
 10
465.3309887463874
 20
683.6170993687166
 30
0.0
 10
472.3948212146054
 20
689.5273833486202
 30
0.0
 10
475.8554626076851
 20
692.4188259755355
 30
0.0
 10
479.2431824645003
 20
695.243572400134
 30
0.0
  0
SPLINE
  5
14A
330
1F
100
AcDbEntity
  8
0
  6
Continuous
 62
     7
370
    15
100
AcDbSpline
210
0.0
220
0.0
230
1.0
 70
     8
 71
     3
 72
    12
 73
     8
 74
     0
 42
0.0000000001
 43
0.0000000001
 40
0.0
 40
0.0
 40
0.0
 40
0.0
 40
0.2499999999999999
 40
0.2499999999999999
 40
0.4999999999999999
 40
0.4999999999999999
 40
1.0
 40
1.0
 40
1.0
 40
1.0
 10
488.4810710707761
 20
686.9230084352901
 30
0.0
 10
484.9846317403308
 20
684.1048312084618
 30
0.0
 10
481.41130784603
 20
681.2185421111942
 30
0.0
 10
474.1145212619629
 20
675.3160361855121
 30
0.0
 10
470.3897552339744
 20
672.2987603150322
 30
0.0
 10
459.0039136591006
 20
663.0682441741247
 30
0.0
 10
451.1381425058983
 20
656.6818003421664
 30
0.0
 10
443.0070942047058
 20
650.0851657430555
 30
0.0
  0
SPLINE
  5
14C
330
1F
100
AcDbEntity
  8
0
  6
Continuous
 62
     7
370
    15
100
AcDbSpline
210
0.0
220
0.0
230
1.0
 70
     8
 71
     3
 72
    12
 73
     8
 74
     0
 42
0.0000000001
 43
0.0000000001
 40
0.0
 40
0.0
 40
0.0
 40
0.0
 40
0.2499999999999999
 40
0.2499999999999999
 40
0.4999999999999999
 40
0.4999999999999999
 40
1.0
 40
1.0
 40
1.0
 40
1.0
 10
67.17100594491914
 20
315.7359222567313
 30
0.0
 10
70.55872580173367
 20
318.5606686813291
 30
0.0
 10
74.01936719481273
 20
321.452111308244
 30
0.0
 10
81.08319966302957
 20
327.3623952881468
 30
0.0
 10
84.68774078258912
 20
330.3823709552164
 30
0.0
 10
95.70107989540607
 20
339.6166199719822
 30
0.0
 10
103.3050247395933
 20
346.0014486293309
 30
0.0
 10
111.1617130728376
 20
352.5933984130416
 30
0.0
  0
SPLINE
  5
14D
330
1F
100
AcDbEntity
  8
0
  6
Continuous
 62
     7
370
    15
100
AcDbSpline
210
0.0
220
0.0
230
1.0
 70
     8
 71
     3
 72
    12
 73
     8
 74
     0
 42
0.0000000001
 43
0.0000000001
 40
0.0
 40
0.0
 40
0.0
 40
0.0
 40
0.4999999999999999
 40
0.4999999999999999
 40
0.75
 40
0.75
 40
1.0
 40
1.0
 40
1.0
 40
1.0
 10
103.4070942047053
 20
360.894328913803
 30
0.0
 10
95.2760459035111
 20
354.2976943146907
 30
0.0
 10
87.4102747503071
 20
347.9112504827312
 30
0.0
 10
76.02443317543117
 20
338.6807343418218
 30
0.0
 10
72.29966714744176
 20
335.6634584713412
 30
0.0
 10
65.00288056337346
 20
329.760952545658
 30
0.0
 10
61.42955666907212
 20
326.8746634483899
 30
0.0
 10
57.93311733862616
 20
324.0564862215612
 30
0.0
  0
SPLINE
  5
14F
330
1F
100
AcDbEntity
  8
0
  6
Continuous
 62
     7
370
    15
100
AcDbSpline
210
0.0
220
0.0
230
1.0
 70
     8
 71
     3
 72
    12
 73
     8
 74
     0
 42
0.0000000001
 43
0.0000000001
 40
0.0
 40
0.0
 40
0.0
 40
0.0
 40
0.2500000000000001
 40
0.2500000000000001
 40
0.5000000000000002
 40
0.5000000000000002
 40
1.0
 40
1.0
 40
1.0
 40
1.0
 10
57.93311733864456
 20
686.9230084352823
 30
0.0
 10
61.42955666908925
 20
684.1048312084545
 30
0.0
 10
65.0028805633893
 20
681.2185421111873
 30
0.0
 10
72.29966714745464
 20
675.3160361855065
 30
0.0
 10
76.02443317544272
 20
672.2987603150273
 30
0.0
 10
87.41027475031406
 20
663.0682441741217
 30
0.0
 10
95.27604590351469
 20
656.6818003421648
 30
0.0
 10
103.4070942047052
 20
650.0851657430555
 30
0.0
  0
SPLINE
  5
150
330
1F
100
AcDbEntity
  8
0
  6
Continuous
 62
     7
370
    15
100
AcDbSpline
210
0.0
220
0.0
230
1.0
 70
     8
 71
     3
 72
    12
 73
     8
 74
     0
 42
0.0000000001
 43
0.0000000001
 40
0.0
 40
0.0
 40
0.0
 40
0.0
 40
0.4999999999999999
 40
0.4999999999999999
 40
0.75
 40
0.75
 40
1.0
 40
1.0
 40
1.0
 40
1.0
 10
111.1617130728376
 20
658.386096243817
 30
0.0
 10
103.3050247395917
 20
664.9780460275289
 30
0.0
 10
95.70107989540305
 20
671.362874684879
 30
0.0
 10
84.68774078258396
 20
680.5971237016466
 30
0.0
 10
81.08319966302355
 20
683.6170993687166
 30
0.0
 10
74.01936719480551
 20
689.5273833486203
 30
0.0
 10
70.55872580172581
 20
692.4188259755356
 30
0.0
 10
67.17100594491066
 20
695.243572400134
 30
0.0
  0
SPLINE
  5
152
330
1F
100
AcDbEntity
  8
0
  6
Continuous
 62
     7
370
    15
100
AcDbSpline
210
0.0
220
0.0
230
1.0
 70
     8
 71
     3
 72
    12
 73
     8
 74
     0
 42
0.0000000001
 43
0.0000000001
 40
0.0
 40
0.0
 40
0.0
 40
0.0
 40
0.5000000000000002
 40
0.5000000000000002
 40
0.7500000000000001
 40
0.7500000000000001
 40
1.0
 40
1.0
 40
1.0
 40
1.0
 10
443.0070942047057
 20
360.894328913803
 30
0.0
 10
451.1381425058983
 20
354.297694314692
 30
0.0
 10
459.0039136591006
 20
347.9112504827337
 30
0.0
 10
470.3897552339744
 20
338.6807343418261
 30
0.0
 10
474.114521261963
 20
335.6634584713461
 30
0.0
 10
481.4113078460301
 20
329.760952545664
 30
0.0
 10
484.9846317403307
 20
326.8746634483965
 30
0.0
 10
488.481071070776
 20
324.0564862215681
 30
0.0
  0
SPLINE
  5
153
330
1F
100
AcDbEntity
  8
0
  6
Continuous
 62
     7
370
    15
100
AcDbSpline
210
0.0
220
0.0
230
1.0
 70
     8
 71
     3
 72
    12
 73
     8
 74
     0
 42
0.0000000001
 43
0.0000000001
 40
0.0
 40
0.0
 40
0.0
 40
0.0
 40
0.25
 40
0.25
 40
0.5
 40
0.5
 40
1.0
 40
1.0
 40
1.0
 40
1.0
 10
479.2431824645086
 20
315.7359222567172
 30
0.0
 10
475.855462607693
 20
318.560668681316
 30
0.0
 10
472.3948212146126
 20
321.452111308232
 30
0.0
 10
465.3309887463933
 20
327.3623952881368
 30
0.0
 10
461.7264476268323
 20
330.3823709552074
 30
0.0
 10
450.713108514011
 20
339.6166199719767
 30
0.0
 10
443.1091636698208
 20
346.0014486293283
 30
0.0
 10
435.2524753365734
 20
352.5933984130416
 30
0.0
  0
SPLINE
  5
156
330
1F
100
AcDbEntity
  8
0
  6
Continuous
 62
     7
370
    15
100
AcDbSpline
210
0.0
220
0.0
230
1.0
 70
     8
 71
     3
 72
     8
 73
     4
 74
     0
 42
0.0000000001
 43
0.0000000001
 40
0.0
 40
0.0
 40
0.0
 40
0.0
 40
0.0010686341482215
 40
0.0010686341482215
 40
0.0010686341482215
 40
0.0010686341482215
 10
111.1617130728377
 20
352.5933984130416
 30
0.0
 10
111.3588812779015
 20
352.7588272618895
 30
0.0
 10
111.556484808978
 20
352.9242777237009
 30
0.0
 10
111.7545225522814
 20
353.0897473284293
 30
0.0
  0
SPLINE
  5
158
330
1F
100
AcDbEntity
  8
0
  6
Continuous
 62
     7
370
    15
100
AcDbSpline
210
0.0
220
0.0
230
1.0
 70
     8
 71
     3
 72
     8
 73
     4
 74
     0
 42
0.0000000001
 43
0.0000000001
 40
0.0
 40
0.0
 40
0.0
 40
0.0
 40
0.0010686341482215
 40
0.0010686341482215
 40
0.0010686341482215
 40
0.0010686341482215
 10
435.2524753365733
 20
352.5933984130416
 30
0.0
 10
435.0553071315094
 20
352.7588272618895
 30
0.0
 10
434.8577036004329
 20
352.9242777237009
 30
0.0
 10
434.6596658571296
 20
353.0897473284293
 30
0.0
  0
SPLINE
  5
159
330
1F
100
AcDbEntity
  8
0
  6
Continuous
 62
     7
370
    15
100
AcDbSpline
210
0.0
220
0.0
230
1.0
 70
     8
 71
     3
 72
     8
 73
     4
 74
     0
 42
0.0000000001
 43
0.0000000001
 40
0.0
 40
0.0
 40
0.0
 40
0.0
 40
0.0010686341482213
 40
0.0010686341482213
 40
0.0010686341482213
 40
0.0010686341482213
 10
434.6596658571297
 20
657.8897473284293
 30
0.0
 10
434.857703600433
 20
658.0552169331577
 30
0.0
 10
435.0553071315094
 20
658.2206673949691
 30
0.0
 10
435.2524753365733
 20
658.386096243817
 30
0.0
  0
SPLINE
  5
15B
330
1F
100
AcDbEntity
  8
0
  6
Continuous
 62
     7
370
    15
100
AcDbSpline
210
0.0
220
0.0
230
1.0
 70
     8
 71
     3
 72
     8
 73
     4
 74
     0
 42
0.0000000001
 43
0.0000000001
 40
0.0
 40
0.0
 40
0.0
 40
0.0
 40
0.0010686341482213
 40
0.0010686341482213
 40
0.0010686341482213
 40
0.0010686341482213
 10
111.7545225522812
 20
657.8897473284293
 30
0.0
 10
111.5564848089779
 20
658.0552169331577
 30
0.0
 10
111.3588812779015
 20
658.2206673949691
 30
0.0
 10
111.1617130728377
 20
658.386096243817
 30
0.0
  0
SPLINE
  5
15C
330
1F
100
AcDbEntity
  8
0
  6
Continuous
 62
     7
370
    15
100
AcDbSpline
210
0.0
220
0.0
230
1.0
 70
     8
 71
     3
 72
    50
 73
    46
 74
     0
 42
0.0000000001
 43
0.0000000001
 40
0.0
 40
0.0
 40
0.0
 40
0.0
 40
0.0625000000000005
 40
0.0625000000000005
 40
0.0937500000000006
 40
0.0937500000000006
 40
0.1250000000000007
 40
0.1250000000000007
 40
0.1562500000000009
 40
0.1562500000000009
 40
0.187500000000001
 40
0.187500000000001
 40
0.2500000000000013
 40
0.2500000000000013
 40
0.2812500000000015
 40
0.2812500000000015
 40
0.3125000000000019
 40
0.3125000000000019
 40
0.3750000000000021
 40
0.3750000000000021
 40
0.4375000000000023
 40
0.4375000000000023
 40
0.5000000000000025
 40
0.5000000000000025
 40
0.5625000000000026
 40
0.5625000000000026
 40
0.6250000000000028
 40
0.6250000000000028
 40
0.6875000000000029
 40
0.6875000000000029
 40
0.7500000000000031
 40
0.7500000000000031
 40
0.7812500000000028
 40
0.7812500000000028
 40
0.8125000000000024
 40
0.8125000000000024
 40
0.8437500000000021
 40
0.8437500000000021
 40
0.8750000000000019
 40
0.8750000000000019
 40
0.937500000000001
 40
0.937500000000001
 40
0.9687500000000007
 40
0.9687500000000007
 40
1.0
 40
1.0
 40
1.0
 40
1.0
 10
291.7070942047055
 20
680.8446910328951
 30
0.0
 10
292.3865782056598
 20
680.844691032895
 30
0.0
 10
293.051586664073
 20
680.8036034284098
 30
0.0
 10
294.0286188174263
 20
680.6837151417225
 30
0.0
 10
294.3521902906606
 20
680.6336948430811
 30
0.0
 10
294.9862714372668
 20
680.5147348901313
 30
0.0
 10
295.2935866058125
 20
680.4464954558434
 30
0.0
 10
295.8899355092666
 20
680.293487529898
 30
0.0
 10
296.1789644730641
 20
680.2087148094324
 30
0.0
 10
296.739245592416
 20
680.023022562028
 30
0.0
 10
297.0118690224525
 20
679.9215010983008
 30
0.0
 10
297.7917260102072
 20
679.5973815136094
 30
0.0
 10
298.2600451360147
 20
679.3566116098162
 30
0.0
 10
298.8922513186294
 20
678.9613424575449
 30
0.0
 10
299.0919977779259
 20
678.823186187669
 30
0.0
 10
299.4633633639244
 20
678.5390220184073
 30
0.0
 10
299.6348895239409
 20
678.3932578935718
 30
0.0
 10
300.1094173355401
 20
677.9454440477535
 30
0.0
 10
300.3726963687429
 20
677.6329553243373
 30
0.0
 10
300.7967222920015
 20
676.9805758238267
 30
0.0
 10
300.9527457099423
 20
676.6476183057092
 30
0.0
 10
301.1591132991516
 20
675.9726979761945
 30
0.0
 10
301.2098178878932
 20
675.6293011325205
 30
0.0
 10
301.204145973068
 20
674.9351403157177
 30
0.0
 10
301.1480790395999
 20
674.5915789630911
 30
0.0
 10
300.9326798043368
 20
673.9113716287902
 30
0.0
 10
300.7733879150533
 20
673.5747213755729
 30
0.0
 10
300.3438901307593
 20
672.9091334750757
 30
0.0
 10
300.0783084777709
 20
672.5879506739285
 30
0.0
 10
299.449024602303
 20
671.975475168211
 30
0.0
 10
299.0848050181517
 20
671.6831557894797
 30
0.0
 10
298.4550101257998
 20
671.2685694237051
 30
0.0
 10
298.2304824942899
 20
671.1342367730289
 30
0.0
 10
297.7621381741244
 20
670.8803505990835
 30
0.0
 10
297.5172018895195
 20
670.7599894712181
 30
0.0
 10
297.0051135355153
 20
670.5329356809457
 30
0.0
 10
296.7379669727558
 20
670.4262394907391
 30
0.0
 10
296.1800207715143
 20
670.2274835037465
 30
0.0
 10
295.8872229573089
 20
670.1349434288028
 30
0.0
 10
294.9914400924851
 20
669.8871768465983
 30
0.0
 10
294.3685052008247
 20
669.7598531112167
 30
0.0
 10
293.3934535415759
 20
669.628990502681
 30
0.0
 10
293.0600544667588
 20
669.5953730782693
 30
0.0
 10
292.3859517955746
 20
669.5504242721758
 30
0.0
 10
292.0473213517913
 20
669.5391219276522
 30
0.0
 10
291.7070942047055
 20
669.5391219276522
 30
0.0
  0
LINE
  5
15D
330
1F
100
AcDbEntity
  8
0
  6
Continuous
 62
     7
370
    15
100
AcDbLine
 10
254.7070939662869
 20
680.8446900078344
 30
0.0
 11
291.7070944431241
 21
680.8446900078344
 31
0.0
  0
SPLINE
  5
15E
330
1F
100
AcDbEntity
  8
0
  6
Continuous
 62
     7
370
    15
100
AcDbSpline
210
0.0
220
0.0
230
1.0
 70
     8
 71
     3
 72
    52
 73
    48
 74
     0
 42
0.0000000001
 43
0.0000000001
 40
0.0
 40
0.0
 40
0.0
 40
0.0
 40
0.0625000000000015
 40
0.0625000000000015
 40
0.0937500000000021
 40
0.0937500000000021
 40
0.1250000000000026
 40
0.1250000000000026
 40
0.1562500000000032
 40
0.1562500000000032
 40
0.1875000000000038
 40
0.1875000000000038
 40
0.2500000000000046
 40
0.2500000000000046
 40
0.2812500000000042
 40
0.2812500000000042
 40
0.3125000000000039
 40
0.3125000000000039
 40
0.3750000000000037
 40
0.3750000000000037
 40
0.4375000000000037
 40
0.4375000000000037
 40
0.5000000000000035
 40
0.5000000000000035
 40
0.5625000000000034
 40
0.5625000000000034
 40
0.6250000000000032
 40
0.6250000000000032
 40
0.6562500000000031
 40
0.6562500000000031
 40
0.6875000000000031
 40
0.6875000000000031
 40
0.7500000000000026
 40
0.7500000000000026
 40
0.7812500000000023
 40
0.7812500000000023
 40
0.8125000000000019
 40
0.8125000000000019
 40
0.875000000000001
 40
0.875000000000001
 40
0.9062500000000007
 40
0.9062500000000007
 40
0.9375000000000005
 40
0.9375000000000005
 40
0.9687500000000001
 40
0.9687500000000001
 40
1.0
 40
1.0
 40
1.0
 40
1.0
 10
254.7070942047055
 20
669.5391219276523
 30
0.0
 10
254.0271453894045
 20
669.5391219276523
 30
0.0
 10
253.3621313920459
 20
669.5838790034204
 30
0.0
 10
252.3856323861024
 20
669.7138868053111
 30
0.0
 10
252.0620561351198
 20
669.7681331143191
 30
0.0
 10
251.429667572417
 20
669.8965137282344
 30
0.0
 10
251.1233162143018
 20
669.9700128702055
 30
0.0
 10
250.5290238985954
 20
670.1343586802208
 30
0.0
 10
250.2410880697127
 20
670.2252102629849
 30
0.0
 10
249.6830318295228
 20
670.4236260970852
 30
0.0
 10
249.4115629209956
 20
670.5318407869533
 30
0.0
 10
248.6367676845555
 20
670.8753508201917
 30
0.0
 10
248.1710756138717
 20
671.1292588303454
 30
0.0
 10
247.5415060571518
 20
671.5434292479201
 30
0.0
 10
247.3424734264622
 20
671.6877644426844
 30
0.0
 10
246.9727855281455
 20
671.9830334307251
 30
0.0
 10
246.8017199619084
 20
672.1341036434436
 30
0.0
 10
246.3275855833523
 20
672.5969527832017
 30
0.0
 10
246.0632515213702
 20
672.9182856900857
 30
0.0
 10
245.6351415103802
 20
673.5853122414539
 30
0.0
 10
245.476502334264
 20
673.9230859259248
 30
0.0
 10
245.2631555618849
 20
674.6051564679191
 30
0.0
 10
245.2083612983905
 20
674.9503518945636
 30
0.0
 10
245.2058703586948
 20
675.6449298452375
 30
0.0
 10
245.2579898472943
 20
675.9867814678722
 30
0.0
 10
245.4666602781674
 20
676.6599492628911
 30
0.0
 10
245.6231617874572
 20
676.991268704478
 30
0.0
 10
245.9426831625
 20
677.4799229311454
 30
0.0
 10
246.0628536624686
 20
677.6403488109181
 30
0.0
 10
246.3275624911964
 20
677.9522354541699
 30
0.0
 10
246.4724991511197
 20
678.1043254494659
 30
0.0
 10
246.9456083586754
 20
678.5489603237768
 30
0.0
 10
247.3116389309711
 20
678.8299966216514
 30
0.0
 10
247.9456608708514
 20
679.2261948537039
 30
0.0
 10
248.1719958837263
 20
679.3542011902395
 30
0.0
 10
248.643008430531
 20
679.5947835349149
 30
0.0
 10
248.8889379748925
 20
679.7082230763273
 30
0.0
 10
249.6584913149768
 20
680.0277870306254
 30
0.0
 10
250.2134543710699
 20
680.2134325308905
 30
0.0
 10
251.1172387309403
 20
680.4457860955509
 30
0.0
 10
251.427989997373
 20
680.5146860748927
 30
0.0
 10
252.0563002423003
 20
680.6326878229424
 30
0.0
 10
252.3756359683644
 20
680.6822614580896
 30
0.0
 10
253.0247924156642
 20
680.7623789135759
 30
0.0
 10
253.3546113729357
 20
680.7929259148593
 30
0.0
 10
254.0252226017484
 20
680.8341363098868
 30
0.0
 10
254.3665328754961
 20
680.8446910328951
 30
0.0
 10
254.7070942047055
 20
680.8446910328951
 30
0.0
  0
LINE
  5
15F
330
1F
100
AcDbEntity
  8
0
  6
Continuous
 62
     7
370
    15
100
AcDbLine
 10
291.7070944431241
 20
669.5391194054174
 30
0.0
 11
254.7070939662869
 21
669.5391194054174
 31
0.0
  0
LINE
  5
182
330
1F
100
AcDbEntity
  8
0
  6
Continuous
 62
     7
370
    15
100
AcDbLine
 10
254.7070939662869
 20
672.0851616093206
 30
0.0
 11
291.7070944431241
 21
672.0851616093206
 31
0.0
  0
SPLINE
  5
183
330
1F
100
AcDbEntity
  8
0
  6
Continuous
 62
     7
370
    15
100
AcDbSpline
210
0.0
220
0.0
230
1.0
 70
     8
 71
     3
 72
     8
 73
     4
 74
     0
 42
0.0000000001
 43
0.0000000001
 40
0.0
 40
0.0
 40
0.0
 40
0.0
 40
0.0010884184846557
 40
0.0010884184846557
 40
0.0010884184846557
 40
0.0010884184846557
 10
443.0070942047056
 20
650.0851657430555
 30
0.0
 10
442.8023382519819
 20
649.9224905815891
 30
0.0
 10
442.5971345436411
 20
649.7597976090205
 30
0.0
 10
442.3914843606682
 20
649.5970893095911
 30
0.0
  0
SPLINE
  5
186
330
1F
100
AcDbEntity
  8
0
  6
Continuous
 62
     7
370
    15
100
AcDbSpline
210
0.0
220
0.0
230
1.0
 70
     8
 71
     3
 72
     8
 73
     4
 74
     0
 42
0.0000000001
 43
0.0000000001
 40
0.0
 40
0.0
 40
0.0
 40
0.0
 40
0.0010884184846557
 40
0.0010884184846557
 40
0.0010884184846557
 40
0.0010884184846557
 10
103.4070942047053
 20
650.0851657430555
 30
0.0
 10
103.611850157429
 20
649.9224905815891
 30
0.0
 10
103.8170538657699
 20
649.7597976090205
 30
0.0
 10
104.0227040487428
 20
649.5970893095911
 30
0.0
  0
SPLINE
  5
187
330
1F
100
AcDbEntity
  8
0
  6
Continuous
 62
     7
370
    15
100
AcDbSpline
210
0.0
220
0.0
230
1.0
 70
     8
 71
     3
 72
     8
 73
     4
 74
     0
 42
0.0000000001
 43
0.0000000001
 40
0.0
 40
0.0
 40
0.0
 40
0.0
 40
0.0010884184846559
 40
0.0010884184846559
 40
0.0010884184846559
 40
0.0010884184846559
 10
104.022704048743
 20
361.3824053472677
 30
0.0
 10
103.81705386577
 20
361.2196970478381
 30
0.0
 10
103.611850157429
 20
361.0570040752695
 30
0.0
 10
103.4070942047053
 20
360.894328913803
 30
0.0
  0
SPLINE
  5
189
330
1F
100
AcDbEntity
  8
0
  6
Continuous
 62
     7
370
    15
100
AcDbSpline
210
0.0
220
0.0
230
1.0
 70
     8
 71
     3
 72
     8
 73
     4
 74
     0
 42
0.0000000001
 43
0.0000000001
 40
0.0
 40
0.0
 40
0.0
 40
0.0
 40
0.0010884184846559
 40
0.0010884184846559
 40
0.0010884184846559
 40
0.0010884184846559
 10
442.391484360668
 20
361.3824053472677
 30
0.0
 10
442.5971345436409
 20
361.2196970478381
 30
0.0
 10
442.8023382519819
 20
361.0570040752695
 30
0.0
 10
443.0070942047057
 20
360.894328913803
 30
0.0
  0
SPLINE
  5
18B
330
1F
100
AcDbEntity
  8
0
  6
Continuous
 62
     7
370
    15
100
AcDbSpline
210
0.0
220
0.0
230
1.0
 70
     8
 71
     3
 72
    20
 73
    16
 74
     0
 42
0.0000000001
 43
0.0000000001
 40
0.0
 40
0.0
 40
0.0
 40
0.0
 40
0.2499999999999998
 40
0.2499999999999998
 40
0.375
 40
0.375
 40
0.4375
 40
0.4375
 40
0.5
 40
0.5
 40
0.75
 40
0.75
 40
0.875
 40
0.875
 40
1.0
 40
1.0
 40
1.0
 40
1.0
 10
442.3914843606681
 20
649.5970893095911
 30
0.0
 10
435.636945589788
 20
644.2529680403914
 30
0.0
 10
428.5527547398467
 20
638.603604144163
 30
0.0
 10
417.4669447958231
 20
629.7599429776888
 30
0.0
 10
413.6947073586269
 20
626.7501717008509
 30
0.0
 10
407.9220021525259
 20
622.1521452680889
 30
0.0
 10
405.978686930466
 20
620.6055689956226
 30
0.0
 10
402.0538079446438
 20
617.4861598718047
 30
0.0
 10
400.0705255752983
 20
615.9119656052824
 30
0.0
 10
390.0831771281588
 20
607.9993537664591
 30
0.0
 10
381.8699362255084
 20
601.53628492349
 30
0.0
 10
369.1918260879373
 20
591.7312866493523
 30
0.0
 10
364.9056946730848
 20
588.4447004641904
 30
0.0
 10
356.2031576465913
 20
581.8540973478818
 30
0.0
 10
351.7868365902944
 20
578.5499707538727
 30
0.0
 10
347.297220510933
 20
575.2495449177778
 30
0.0
  0
ARC
  5
18C
330
1F
100
AcDbEntity
  8
0
  6
Continuous
 62
     7
370
    15
100
AcDbCircle
 10
323.7717618310329
 20
560.4881329540195
 30
0.0
 40
27.77312448380466
100
AcDbArc
 50
32.10685928458192
 51
45.93453807474737
  0
SPLINE
  5
18D
330
1F
100
AcDbEntity
  8
0
  6
Continuous
 62
     7
370
    15
100
AcDbSpline
210
0.0
220
0.0
230
1.0
 70
     8
 71
     3
 72
    20
 73
    16
 74
     0
 42
0.0000000001
 43
0.0000000001
 40
0.0
 40
0.0
 40
0.0
 40
0.0
 40
0.1250000000000004
 40
0.1250000000000004
 40
0.2500000000000008
 40
0.2500000000000008
 40
0.5000000000000018
 40
0.5000000000000018
 40
0.5625000000000019
 40
0.5625000000000019
 40
0.6250000000000018
 40
0.6250000000000018
 40
0.7500000000000011
 40
0.7500000000000011
 40
1.0
 40
1.0
 40
1.0
 40
1.0
 10
343.0874117796071
 20
580.4443885869572
 30
0.0
 10
347.4245544237513
 20
583.8933128888262
 30
0.0
 10
351.687687395049
 20
587.3437278171516
 30
0.0
 10
360.0838975972265
 20
594.2224759883276
 30
0.0
 10
364.2168797707979
 20
597.6509227685839
 30
0.0
 10
376.4370654379351
 20
607.8749226927459
 30
0.0
 10
384.3471014685266
 20
614.608587290377
 30
0.0
 10
393.9613287302978
 20
622.8484253304716
 30
0.0
 10
395.8701788542876
 20
624.4874216321759
 30
0.0
 10
399.6471958646999
 20
627.7347408371594
 30
0.0
 10
401.5170344671281
 20
629.344496407223
 30
0.0
 10
407.0707732857171
 20
634.1297300078697
 30
0.0
 10
410.6989840240257
 20
637.2612011201411
 30
0.0
 10
421.3593583501859
 20
646.460524371344
 30
0.0
 10
428.1687424701342
 20
652.3344632518946
 30
0.0
 10
434.6596658571297
 20
657.8897473284294
 30
0.0
  0
SPLINE
  5
18E
330
1F
100
AcDbEntity
  8
0
  6
Continuous
 62
     7
370
    15
100
AcDbSpline
210
0.0
220
0.0
230
1.0
 70
     8
 71
     3
 72
    20
 73
    16
 74
     0
 42
0.0000000001
 43
0.0000000001
 40
0.0
 40
0.0
 40
0.0
 40
0.0
 40
0.1250000000000005
 40
0.1250000000000005
 40
0.2500000000000011
 40
0.2500000000000011
 40
0.500000000000002
 40
0.500000000000002
 40
0.562500000000002
 40
0.562500000000002
 40
0.6250000000000019
 40
0.6250000000000019
 40
0.7500000000000011
 40
0.7500000000000011
 40
1.0
 40
1.0
 40
1.0
 40
1.0
 10
203.3267766298039
 20
580.4443885869572
 30
0.0
 10
198.9896339856597
 20
583.8933128888262
 30
0.0
 10
194.7265010143621
 20
587.3437278171516
 30
0.0
 10
186.3302908121845
 20
594.2224759883276
 30
0.0
 10
182.1973086386131
 20
597.6509227685839
 30
0.0
 10
169.9771229714759
 20
607.8749226927459
 30
0.0
 10
162.0670869408844
 20
614.608587290377
 30
0.0
 10
152.4528596791133
 20
622.8484253304716
 30
0.0
 10
150.5440095551234
 20
624.4874216321759
 30
0.0
 10
146.7669925447112
 20
627.7347408371594
 30
0.0
 10
144.8971539422829
 20
629.344496407223
 30
0.0
 10
139.3434151236938
 20
634.1297300078696
 30
0.0
 10
135.7152043853853
 20
637.2612011201411
 30
0.0
 10
125.0548300592251
 20
646.4605243713442
 30
0.0
 10
118.2454459392767
 20
652.3344632518946
 30
0.0
 10
111.7545225522812
 20
657.8897473284294
 30
0.0
  0
ARC
  5
18F
330
1F
100
AcDbEntity
  8
0
  6
Continuous
 62
     7
370
    15
100
AcDbCircle
 10
222.6424265783781
 20
560.4881329540195
 30
0.0
 40
27.7731244838046
100
AcDbArc
 50
134.0654619252525
 51
147.893140715418
  0
SPLINE
  5
190
330
1F
100
AcDbEntity
  8
0
  6
Continuous
 62
     7
370
    15
100
AcDbSpline
210
0.0
220
0.0
230
1.0
 70
     8
 71
     3
 72
    20
 73
    16
 74
     0
 42
0.0000000001
 43
0.0000000001
 40
0.0
 40
0.0
 40
0.0
 40
0.0
 40
0.2500000000000003
 40
0.2500000000000003
 40
0.3750000000000005
 40
0.3750000000000005
 40
0.4375000000000006
 40
0.4375000000000006
 40
0.5000000000000006
 40
0.5000000000000006
 40
0.7500000000000004
 40
0.7500000000000004
 40
0.8750000000000001
 40
0.8750000000000001
 40
1.0
 40
1.0
 40
1.0
 40
1.0
 10
104.0227040487429
 20
649.5970893095911
 30
0.0
 10
110.777242819623
 20
644.2529680403915
 30
0.0
 10
117.8614336695642
 20
638.6036041441631
 30
0.0
 10
128.9472436135878
 20
629.7599429776888
 30
0.0
 10
132.719481050784
 20
626.7501717008509
 30
0.0
 10
138.492186256885
 20
622.1521452680888
 30
0.0
 10
140.435501478945
 20
620.6055689956226
 30
0.0
 10
144.3603804647672
 20
617.4861598718047
 30
0.0
 10
146.3436628341127
 20
615.9119656052824
 30
0.0
 10
156.3310112812522
 20
607.9993537664591
 30
0.0
 10
164.5442521839026
 20
601.53628492349
 30
0.0
 10
177.2223623214737
 20
591.7312866493523
 30
0.0
 10
181.5084937363262
 20
588.4447004641905
 30
0.0
 10
190.2110307628196
 20
581.8540973478819
 30
0.0
 10
194.6273518191165
 20
578.5499707538727
 30
0.0
 10
199.1169678984778
 20
575.2495449177778
 30
0.0
  0
SPLINE
  5
191
330
1F
100
AcDbEntity
  8
0
  6
Continuous
 62
     7
370
    15
100
AcDbSpline
210
0.0
220
0.0
230
1.0
 70
     8
 71
     3
 72
    21
 73
    17
 74
     0
 42
0.0000000001
 43
0.0000000001
 40
0.0
 40
0.0
 40
0.0
 40
0.0
 40
0.5000000000000023
 40
0.5000000000000023
 40
0.7500000000000032
 40
0.7500000000000032
 40
0.8750000000000035
 40
0.8750000000000035
 40
0.9375000000000035
 40
0.9453125000000033
 40
0.9453125000000033
 40
0.9531250000000031
 40
0.9531250000000031
 40
0.9687500000000021
 40
0.9687500000000021
 40
1.0
 40
1.0
 40
1.0
 40
1.0
 10
273.2070942047018
 20
579.4661079643907
 30
0.0
 10
284.8569313450537
 20
579.4661079643889
 30
0.0
 10
296.506101954222
 20
579.5010184343745
 30
0.0
 10
313.9792270802021
 20
579.5863934104545
 30
0.0
 10
319.8035047680473
 20
579.6199454559858
 30
0.0
 10
328.5398516720895
 20
579.6739096017497
 30
0.0
 10
331.451955745098
 20
579.6925014500206
 30
0.0
 10
335.8201032872195
 20
579.720835314338
 30
0.0
 10
337.4581569925124
 20
579.7315450286616
 30
0.0
 10
339.0962096784567
 20
579.7423075959264
 30
0.0
 10
339.4602213633056
 20
579.7447004763088
 30
0.0
 10
339.6422667462429
 20
579.7438278013079
 30
0.0
 10
340.1879128514975
 20
579.7668535216738
 30
0.0
 10
340.5511352567543
 20
579.8105497473058
 30
0.0
 10
341.6397648288557
 20
579.9958735488288
 30
0.0
 10
342.3640970851195
 20
580.1936903963859
 30
0.0
 10
343.0874117796072
 20
580.4443885869572
 30
0.0
  0
SPLINE
  5
192
330
1F
100
AcDbEntity
  8
0
  6
Continuous
 62
     7
370
    15
100
AcDbSpline
210
0.0
220
0.0
230
1.0
 70
     8
 71
     3
 72
    20
 73
    16
 74
     0
 42
0.0000000001
 43
0.0000000001
 40
0.0
 40
0.0
 40
0.0
 40
0.0
 40
0.0312500000000031
 40
0.0312500000000031
 40
0.0468750000000044
 40
0.0468750000000044
 40
0.0546875000000047
 40
0.0546875000000047
 40
0.062500000000005
 40
0.1250000000000046
 40
0.2500000000000039
 40
0.2500000000000039
 40
0.5000000000000025
 40
0.5000000000000025
 40
1.0
 40
1.0
 40
1.0
 40
1.0
 10
203.3267766298039
 20
580.4443885869573
 30
0.0
 10
203.9966310856184
 20
580.2122195168436
 30
0.0
 10
204.6782790515311
 20
580.0211563068143
 30
0.0
 10
205.7280107687311
 20
579.8301570855415
 30
0.0
 10
206.0822979949356
 20
579.781838016101
 30
0.0
 10
206.6246881697896
 20
579.7478449949287
 30
0.0
 10
206.8076881614846
 20
579.7456625014468
 30
0.0
 10
207.1725152872996
 20
579.7432636314514
 30
0.0
 10
208.8142374014533
 20
579.7324739887026
 30
0.0
 10
213.3745777372104
 20
579.7026481129164
 30
0.0
 10
217.7525112241159
 20
579.6746784587274
 30
0.0
 10
226.5083920146629
 20
579.6205455701486
 30
0.0
 10
232.3456579869507
 20
579.5868747600555
 30
0.0
 10
249.8575324720962
 20
579.5011763091085
 30
0.0
 10
261.5322257612874
 20
579.4661079643891
 30
0.0
 10
273.2070942047018
 20
579.4661079643909
 30
0.0
  0
SPLINE
  5
193
330
1F
100
AcDbEntity
  8
0
  6
Continuous
 62
     7
370
    15
100
AcDbSpline
210
0.0
220
0.0
230
1.0
 70
     8
 71
     3
 72
    47
 73
    43
 74
     0
 42
0.0000000001
 43
0.0000000001
 40
0.0
 40
0.0
 40
0.0
 40
0.0
 40
0.0039062500000005
 40
0.0039062500000005
 40
0.007812500000001
 40
0.007812500000001
 40
0.0097656250000011
 40
0.0097656250000011
 40
0.0117187500000013
 40
0.0117187500000013
 40
0.0126953125000012
 40
0.0126953125000012
 40
0.0136718750000011
 40
0.0156250000000013
 40
0.0312500000000013
 40
0.0625000000000013
 40
0.1250000000000011
 40
0.1250000000000011
 40
0.2500000000000007
 40
0.2500000000000007
 40
0.4999999999999997
 40
0.4999999999999997
 40
0.7499999999999986
 40
0.7499999999999986
 40
0.8749999999999978
 40
0.8749999999999978
 40
0.9374999999999976
 40
0.9374999999999976
 40
0.9687499999999976
 40
0.9843749999999978
 40
0.9863281249999978
 40
0.987304687499998
 40
0.987304687499998
 40
0.9882812499999984
 40
0.9882812499999984
 40
0.9902343749999985
 40
0.9902343749999985
 40
0.9921874999999985
 40
0.9921874999999985
 40
0.9960937499999992
 40
0.9960937499999992
 40
1.0
 40
1.0
 40
1.0
 40
1.0
 10
199.1004007375502
 20
435.7177705526539
 30
0.0
 10
199.1769938897905
 20
435.8881309595376
 30
0.0
 10
199.250849260763
 20
436.0598366589388
 30
0.0
 10
199.3907598927511
 20
436.4070696120069
 30
0.0
 10
199.4575225709739
 20
436.582965942833
 30
0.0
 10
199.5451280987917
 20
436.8505911275838
 30
0.0
 10
199.5720440800021
 20
436.9399380054411
 30
0.0
 10
199.6183633178108
 20
437.1190865310352
 30
0.0
 10
199.6388085949868
 20
437.2088251367568
 30
0.0
 10
199.6532764270508
 20
437.3444132160694
 30
0.0
 10
199.6527469928535
 20
437.3899330535436
 30
0.0
 10
199.6533550502927
 20
437.4808718741955
 30
0.0
 10
199.654267057917
 20
437.6172801099723
 30
0.0
 10
199.6600415580778
 20
438.4811990311229
 30
0.0
 10
199.6752114572797
 20
440.7546724799828
 30
0.0
 10
199.7089516277669
 20
445.8472578633147
 30
0.0
 10
199.7371560270523
 20
450.2123363996134
 30
0.0
 10
199.7916606046433
 20
458.9425083351328
 30
0.0
 10
199.8254531264636
 20
464.7626365435398
 30
0.0
 10
199.9111388476118
 20
482.2230227063486
 30
0.0
 10
199.9456494156206
 20
493.8633026997884
 30
0.0
 10
199.9456418193118
 20
517.1439314874056
 30
0.0
 10
199.9111270474134
 20
528.7842802782035
 30
0.0
 10
199.8254559244458
 20
546.2448372709102
 30
0.0
 10
199.7916709409249
 20
552.0650028577006
 30
0.0
 10
199.737178029272
 20
560.795210914281
 30
0.0
 10
199.7183789990501
 20
563.705275608086
 30
0.0
 10
199.6897035538329
 20
568.0703691420898
 30
0.0
 10
199.6752454617251
 20
570.2529148511001
 30
0.0
 10
199.6600780998401
 20
572.526398231869
 30
0.0
 10
199.6543045255164
 20
573.3903218095276
 30
0.0
 10
199.6533926631357
 20
573.526730792165
 30
0.0
 10
199.6527847023156
 20
573.6176701132144
 30
0.0
 10
199.6535416599501
 20
573.6631539435729
 30
0.0
 10
199.6416027818257
 20
573.7994156509289
 30
0.0
 10
199.6220366472469
 20
573.8906917861274
 30
0.0
 10
199.5773904944458
 20
574.0688303281302
 30
0.0
 10
199.5513708720144
 20
574.156245449449
 30
0.0
 10
199.4669921783906
 20
574.4156604092916
 30
0.0
 10
199.402237371799
 20
574.5847957913363
 30
0.0
 10
199.2652874398931
 20
574.9197244332001
 30
0.0
 10
199.1926458240987
 20
575.0853180421341
 30
0.0
 10
199.1169678984777
 20
575.2495449177778
 30
0.0
  0
SPLINE
  5
194
330
1F
100
AcDbEntity
  8
0
  6
Continuous
 62
     7
370
    15
100
AcDbSpline
210
0.0
220
0.0
230
1.0
 70
     8
 71
     3
 72
    20
 73
    16
 74
     0
 42
0.0000000001
 43
0.0000000001
 40
0.0
 40
0.0
 40
0.0
 40
0.0
 40
0.1249999999999998
 40
0.1249999999999998
 40
0.2499999999999996
 40
0.2499999999999996
 40
0.5
 40
0.5
 40
0.5625000000000001
 40
0.5625000000000001
 40
0.6250000000000002
 40
0.6250000000000002
 40
0.7500000000000001
 40
0.7500000000000001
 40
1.0
 40
1.0
 40
1.0
 40
1.0
 10
199.1004007375425
 20
435.7177705526372
 30
0.0
 10
194.6116560759622
 20
432.4178422614687
 30
0.0
 10
190.1961714301201
 20
429.114232087317
 30
0.0
 10
181.4952538299934
 20
422.5246790209972
 30
0.0
 10
177.209905311846
 20
419.2386266105345
 30
0.0
 10
164.5340782759153
 20
409.4352360033693
 30
0.0
 10
156.3222731168159
 20
402.9732466080361
 30
0.0
 10
146.3366336747827
 20
395.0619529268942
 30
0.0
 10
144.3537010769347
 20
393.488030615431
 30
0.0
 10
140.4295079257412
 20
390.3691576363506
 30
0.0
 10
138.4865296449635
 20
388.8228462316731
 30
0.0
 10
132.7148176763069
 20
384.2256037149615
 30
0.0
 10
128.9432190034128
 20
381.2163408032651
 30
0.0
 10
117.8592557947095
 20
372.3741536399941
 30
0.0
 10
110.7762042583968
 20
366.7257049175583
 30
0.0
 10
104.022704048743
 20
361.3824053472677
 30
0.0
  0
SPLINE
  5
195
330
1F
100
AcDbEntity
  8
0
  6
Continuous
 62
     7
370
    15
100
AcDbSpline
210
0.0
220
0.0
230
1.0
 70
     8
 71
     3
 72
    20
 73
    16
 74
     0
 42
0.0000000001
 43
0.0000000001
 40
0.0
 40
0.0
 40
0.0
 40
0.0
 40
0.1249999999999998
 40
0.1249999999999998
 40
0.2499999999999996
 40
0.2499999999999996
 40
0.4999999999999991
 40
0.4999999999999991
 40
0.5624999999999991
 40
0.5624999999999991
 40
0.6249999999999991
 40
0.6249999999999991
 40
0.7499999999999995
 40
0.7499999999999995
 40
1.0
 40
1.0
 40
1.0
 40
1.0
 10
347.3137876718683
 20
435.7177705526374
 30
0.0
 10
351.8025323334486
 20
432.4178422614689
 30
0.0
 10
356.2180169792907
 20
429.1142320873172
 30
0.0
 10
364.9189345794174
 20
422.5246790209973
 30
0.0
 10
369.2042830975649
 20
419.2386266105347
 30
0.0
 10
381.8801101334955
 20
409.4352360033694
 30
0.0
 10
390.0919152925949
 20
402.9732466080361
 30
0.0
 10
400.0775547346282
 20
395.0619529268944
 30
0.0
 10
402.0604873324762
 20
393.4880306154312
 30
0.0
 10
405.9846804836698
 20
390.3691576363507
 30
0.0
 10
407.9276587644474
 20
388.8228462316732
 30
0.0
 10
413.6993707331041
 20
384.2256037149616
 30
0.0
 10
417.4709694059981
 20
381.2163408032652
 30
0.0
 10
428.5549326147014
 20
372.3741536399941
 30
0.0
 10
435.6379841510142
 20
366.7257049175582
 30
0.0
 10
442.391484360668
 20
361.3824053472677
 30
0.0
  0
SPLINE
  5
196
330
1F
100
AcDbEntity
  8
0
  6
Continuous
 62
     7
370
    15
100
AcDbSpline
210
0.0
220
0.0
230
1.0
 70
     8
 71
     3
 72
    48
 73
    44
 74
     0
 42
0.0000000001
 43
0.0000000001
 40
0.0
 40
0.0
 40
0.0
 40
0.0
 40
0.0039062500000002
 40
0.0039062500000002
 40
0.0078125000000004
 40
0.0078125000000004
 40
0.0097656250000003
 40
0.0097656250000003
 40
0.0117187500000003
 40
0.0117187500000003
 40
0.0126953125000002
 40
0.0126953125000002
 40
0.0136718750000002
 40
0.0156250000000001
 40
0.0312500000000001
 40
0.0624999999999999
 40
0.125
 40
0.125
 40
0.25
 40
0.25
 40
0.5
 40
0.5
 40
0.7500000000000001
 40
0.7500000000000001
 40
0.8750000000000003
 40
0.8750000000000003
 40
0.9375000000000003
 40
0.9375000000000003
 40
0.9687500000000003
 40
0.9687500000000003
 40
0.9843750000000003
 40
0.9863281250000003
 40
0.9873046875000003
 40
0.9873046875000003
 40
0.9882812500000003
 40
0.9882812500000003
 40
0.9902343750000003
 40
0.9902343750000003
 40
0.9921875000000003
 40
0.9921875000000003
 40
0.9960937500000001
 40
0.9960937500000001
 40
1.0
 40
1.0
 40
1.0
 40
1.0
 10
347.297220510933
 20
575.2495449177778
 30
0.0
 10
347.2215425728105
 20
575.0853180150047
 30
0.0
 10
347.1489009454861
 20
574.9197243785042
 30
0.0
 10
347.0119509937737
 20
574.5847956800478
 30
0.0
 10
346.9471961786493
 20
574.4156602690915
 30
0.0
 10
346.8628174799494
 20
574.1562452624264
 30
0.0
 10
346.8367978569287
 20
574.0688301250067
 30
0.0
 10
346.7921517095714
 20
573.8906915478402
 30
0.0
 10
346.7725855788787
 20
573.7994153961726
 30
0.0
 10
346.7606467383143
 20
573.6631536657792
 30
0.0
 10
346.7614037051871
 20
573.6176698277853
 30
0.0
 10
346.7607957442669
 20
573.5267304917136
 30
0.0
 10
346.7598838817365
 20
573.3903214865422
 30
0.0
 10
346.7541103064598
 20
572.5263977661695
 30
0.0
 10
346.7389429420853
 20
570.2529140098373
 30
0.0
 10
346.7052089143964
 20
565.1603062724619
 30
0.0
 10
346.6770103647135
 20
560.7952085106689
 30
0.0
 10
346.6225174453248
 20
552.0649990119109
 30
0.0
 10
346.5887324471424
 20
546.2448300454005
 30
0.0
 10
346.5030613795421
 20
528.7842828879282
 30
0.0
 10
346.4685466083825
 20
517.1439389748473
 30
0.0
 10
346.468538975514
 20
493.8633148174288
 30
0.0
 10
346.5030495154925
 20
482.2230345762275
 30
0.0
 10
346.5887352329164
 20
464.7626455216503
 30
0.0
 10
346.6225277576241
 20
458.9425161611069
 30
0.0
 10
346.6770323510291
 20
450.2123412803684
 30
0.0
 10
346.6958352897899
 20
447.3022879446256
 30
0.0
 10
346.7245162059066
 20
442.937211669994
 30
0.0
 10
346.7341566958138
 20
441.4821866808235
 30
0.0
 10
346.7486856431031
 20
439.2996503267457
 30
0.0
 10
346.7541468450247
 20
438.4811999756982
 30
0.0
 10
346.7599213471151
 20
437.6172807650704
 30
0.0
 10
346.7608333550439
 20
437.4808724835865
 30
0.0
 10
346.7614414126864
 20
437.3899336324633
 30
0.0
 10
346.7609119489734
 20
437.3444137779618
 30
0.0
 10
346.7753797066881
 20
437.2088256484251
 30
0.0
 10
346.7958249805571
 20
437.1190870120194
 30
0.0
 10
346.8421442076643
 20
436.9399384248092
 30
0.0
 10
346.8690601898555
 20
436.8505915165268
 30
0.0
 10
346.9566657277467
 20
436.5829662409323
 30
0.0
 10
347.0234284255627
 20
436.4070698459681
 30
0.0
 10
347.1633390991317
 20
436.0598367739553
 30
0.0
 10
347.2371944939634
 20
435.8881310166039
 30
0.0
 10
347.3137876718683
 20
435.7177705526371
 30
0.0
  0
SPLINE
  5
197
330
1F
100
AcDbEntity
  8
0
  6
Continuous
 62
     7
370
    15
100
AcDbSpline
210
0.0
220
0.0
230
1.0
 70
     8
 71
     3
 72
    20
 73
    16
 74
     0
 42
0.0000000001
 43
0.0000000001
 40
0.0
 40
0.0
 40
0.0
 40
0.0
 40
0.2499999999999995
 40
0.2499999999999995
 40
0.3749999999999992
 40
0.3749999999999992
 40
0.4374999999999991
 40
0.4374999999999991
 40
0.4999999999999992
 40
0.4999999999999992
 40
0.7499999999999996
 40
0.7499999999999996
 40
0.8749999999999998
 40
0.8749999999999998
 40
1.0
 40
1.0
 40
1.0
 40
1.0
 10
434.6596658571296
 20
353.0897473284292
 30
0.0
 10
428.1697373218242
 20
358.6441799569617
 30
0.0
 10
421.3614450685884
 20
364.5171701209031
 30
0.0
 10
410.7028423200827
 20
373.7149637573182
 30
0.0
 10
407.0752446224559
 20
376.8459070774242
 30
0.0
 10
401.5224596284474
 20
381.6303262770233
 30
0.0
 10
399.6529446917989
 20
383.2398065931628
 30
0.0
 10
395.8765867212157
 20
386.4865684258594
 30
0.0
 10
393.9680731645524
 20
388.1252816045181
 30
0.0
 10
384.3554887313566
 20
396.3637487429705
 30
0.0
 10
376.4468344610154
 20
403.0962891832583
 30
0.0
 10
364.2288517167037
 20
413.3186102357063
 30
0.0
 10
360.0966258584594
 20
416.7464988110344
 30
0.0
 10
351.7019829825835
 20
423.6241466210818
 30
0.0
 10
347.4396608874962
 20
427.0740192420161
 30
0.0
 10
343.1033653419893
 20
430.522419417356
 30
0.0
  0
SPLINE
  5
198
330
1F
100
AcDbEntity
  8
0
  6
Continuous
 62
     7
370
    15
100
AcDbSpline
210
0.0
220
0.0
230
1.0
 70
     8
 71
     3
 72
    20
 73
    16
 74
     0
 42
0.0000000001
 43
0.0000000001
 40
0.0
 40
0.0
 40
0.0
 40
0.0
 40
0.2500000000000009
 40
0.2500000000000009
 40
0.3750000000000014
 40
0.3750000000000014
 40
0.4375000000000015
 40
0.4375000000000015
 40
0.5000000000000014
 40
0.5000000000000014
 40
0.7500000000000006
 40
0.7500000000000006
 40
0.8750000000000003
 40
0.8750000000000003
 40
1.0
 40
1.0
 40
1.0
 40
1.0
 10
111.7545225522814
 20
353.0897473284292
 30
0.0
 10
118.2444510875868
 20
358.6441799569616
 30
0.0
 10
125.0527433408225
 20
364.517170120903
 30
0.0
 10
135.7113460893283
 20
373.7149637573182
 30
0.0
 10
139.3389437869551
 20
376.8459070774243
 30
0.0
 10
144.8917287809635
 20
381.6303262770233
 30
0.0
 10
146.7612437176121
 20
383.2398065931629
 30
0.0
 10
150.5376016881953
 20
386.4865684258594
 30
0.0
 10
152.4461152448586
 20
388.1252816045181
 30
0.0
 10
162.0586996780545
 20
396.3637487429705
 30
0.0
 10
169.9673539483957
 20
403.0962891832583
 30
0.0
 10
182.1853366927074
 20
413.3186102357063
 30
0.0
 10
186.3175625509516
 20
416.7464988110345
 30
0.0
 10
194.7122054268276
 20
423.624146621082
 30
0.0
 10
198.9745275219149
 20
427.0740192420162
 30
0.0
 10
203.3108230674217
 20
430.5224194173561
 30
0.0
  0
SPLINE
  5
199
330
1F
100
AcDbEntity
  8
0
  6
Continuous
 62
     7
370
    15
100
AcDbSpline
210
0.0
220
0.0
230
1.0
 70
     8
 71
     3
 72
    21
 73
    17
 74
     0
 42
0.0000000001
 43
0.0000000001
 40
0.0
 40
0.0
 40
0.0
 40
0.0
 40
0.4999999999999999
 40
0.4999999999999999
 40
0.7499999999999997
 40
0.7499999999999997
 40
0.8749999999999994
 40
0.8749999999999994
 40
0.9374999999999992
 40
0.9453124999999992
 40
0.9453124999999992
 40
0.9531249999999992
 40
0.9531249999999992
 40
0.9687499999999994
 40
0.9687499999999994
 40
1.0
 40
1.0
 40
1.0
 40
1.0
 10
273.2070942047021
 20
431.4355132014598
 30
0.0
 10
261.5549996895696
 20
431.4355132014595
 30
0.0
 10
249.9034684710306
 20
431.4039074507651
 30
0.0
 10
232.4267134054347
 20
431.3261255365079
 30
0.0
 10
226.6012122655604
 20
431.2954961813968
 30
0.0
 10
217.8630228375939
 20
431.2460667145961
 30
0.0
 10
214.9503033624421
 20
431.2290118796998
 30
0.0
 10
210.5812322623791
 20
431.2029766935433
 30
0.0
 10
208.9428321341775
 20
431.1931278309645
 30
0.0
 10
207.3044330479305
 20
431.1832209679129
 30
0.0
 10
206.9403443860825
 20
431.1810181083702
 30
0.0
 10
206.75826957344
 20
431.1816255370503
 30
0.0
 10
206.2124656529228
 20
431.1598725593881
 30
0.0
 10
205.8490286958492
 20
431.1211326843992
 30
0.0
 10
204.7596907762874
 20
430.9504214018623
 30
0.0
 10
204.0347515721768
 20
430.7645789597235
 30
0.0
 10
203.3108230674217
 20
430.5224194173562
 30
0.0
  0
SPLINE
  5
19A
330
1F
100
AcDbEntity
  8
0
  6
Continuous
 62
     7
370
    15
100
AcDbSpline
210
0.0
220
0.0
230
1.0
 70
     8
 71
     3
 72
    20
 73
    16
 74
     0
 42
0.0000000001
 43
0.0000000001
 40
0.0
 40
0.0
 40
0.0
 40
0.0
 40
0.031250000000001
 40
0.031250000000001
 40
0.0468750000000017
 40
0.0468750000000017
 40
0.0546875000000017
 40
0.0546875000000017
 40
0.0625000000000018
 40
0.1250000000000015
 40
0.2500000000000012
 40
0.2500000000000012
 40
0.5000000000000007
 40
0.5000000000000007
 40
1.0
 40
1.0
 40
1.0
 40
1.0
 10
343.1033653419893
 20
430.522419417356
 30
0.0
 10
342.4289193020545
 20
430.7480267022044
 30
0.0
 10
341.7431420498289
 20
430.9285122542659
 30
0.0
 10
340.6908239046196
 20
431.1045475113584
 30
0.0
 10
340.3360660420544
 20
431.1472716628337
 30
0.0
 10
339.7955878700111
 20
431.1779241578917
 30
0.0
 10
339.6134403723984
 20
431.1801730391504
 30
0.0
 10
339.2485744113355
 20
431.1823812728067
 30
0.0
 10
337.6066775386598
 20
431.1923124210669
 30
0.0
 10
333.0458516606987
 20
431.2197390141128
 30
0.0
 10
328.6674531073273
 20
431.2453939877206
 30
0.0
 10
319.9106428409608
 20
431.2949727215197
 30
0.0
 10
314.0727588192167
 20
431.3257063324666
 30
0.0
 10
296.5590427855506
 20
431.4037709277365
 30
0.0
 10
284.8831402462492
 20
431.4355132014593
 30
0.0
 10
273.2070942047021
 20
431.4355132014596
 30
0.0
  0
ARC
  5
19B
330
1F
100
AcDbEntity
  8
0
  6
Continuous
 62
     7
370
    15
100
AcDbCircle
 10
222.622640626439
 20
450.4769065259175
 30
0.0
 40
27.76918814988424
100
AcDbArc
 50
212.106399482819
 51
225.9376655100598
  0
ARC
  5
19C
330
1F
100
AcDbEntity
  8
0
  6
Continuous
 62
     7
370
    15
100
AcDbCircle
 10
323.791547782972
 20
450.4769065259175
 30
0.0
 40
27.76918814988429
100
AcDbArc
 50
314.0623344899419
 51
327.8936005171827
  0
CIRCLE
  5
1BD
330
1F
100
AcDbEntity
  8
0
  6
Continuous
 62
     7
370
    15
100
AcDbCircle
 10
273.2070942047055
 20
505.4897473284296
 30
0.0
 40
21.9999998926412
  0
SPLINE
  5
1BE
330
1F
100
AcDbEntity
  8
0
  6
Continuous
 62
     7
370
    15
100
AcDbSpline
210
0.0
220
0.0
230
1.0
 70
     8
 71
     3
 72
    13
 73
     9
 74
     0
 42
0.0000000001
 43
0.0000000001
 40
0.0
 40
0.0
 40
0.0
 40
0.0
 40
0.0064030160197604
 40
0.2624232488757296
 40
0.4823422199342761
 40
0.668093580092473
 40
0.8364619629171722
 40
1.0
 40
1.0
 40
1.0
 40
1.0
 10
248.2181653949435
 20
677.879150314002
 30
0.0
 10
248.2144956186856
 20
677.8626146075353
 30
0.0
 10
248.0640923391555
 20
677.1849099445967
 30
0.0
 10
248.5386171887029
 20
675.8968241619178
 30
0.0
 10
249.5116158720504
 20
674.2647091654313
 30
0.0
 10
250.9744183940929
 20
673.0628754825918
 30
0.0
 10
252.7224935412189
 20
672.249210541383
 30
0.0
 10
254.0520101252426
 20
672.1393114538824
 30
0.0
 10
254.7070939662869
 20
672.0851616093206
 30
0.0
  0
SPLINE
  5
1C0
330
1F
100
AcDbEntity
  8
0
  6
Continuous
 62
     7
370
    15
100
AcDbSpline
210
0.0
220
0.0
230
1.0
 70
     8
 71
     3
 72
    13
 73
     9
 74
     0
 42
0.0000000001
 43
0.0000000001
 40
0.0
 40
0.0
 40
0.0
 40
0.0
 40
0.0693480134386863
 40
0.2209012950096494
 40
0.2587035011012941
 40
0.4549678751191474
 40
0.7277121582198874
 40
1.0
 40
1.0
 40
1.0
 40
1.0
 10
291.7070944431241
 20
672.0851616093206
 30
0.0
 10
291.9833470425849
 20
672.0948354604062
 30
0.0
 10
292.8633226027303
 20
672.1256505642075
 30
0.0
 10
293.8521418685693
 20
672.3861608220407
 30
0.0
 10
295.1553397904529
 20
672.9305789630622
 30
0.0
 10
296.6038572252404
 20
673.9100571456223
 30
0.0
 10
297.9408790857035
 20
675.7250177057711
 30
0.0
 10
298.1143961054147
 20
677.1615269847001
 30
0.0
 10
298.2010819586928
 20
677.8791801163244
 30
0.0
  0
SPLINE
  5
1C4
330
1F
100
AcDbEntity
  8
0
  6
Continuous
 62
     7
370
    15
100
AcDbSpline
210
0.0
220
0.0
230
1.0
 70
     8
 71
     3
 72
    16
 73
    12
 74
     0
 42
0.0000000001
 43
0.0000000001
 40
0.0
 40
0.0
 40
0.0
 40
0.0
 40
0.1067780109718051
 40
0.36245091333957
 40
0.5803327233052601
 40
0.7517640208661934
 40
0.8609611691607817
 40
0.910157514971075
 40
0.9389269482026334
 40
0.9646955457254577
 40
1.0
 40
1.0
 40
1.0
 40
1.0
 10
849.4234146646071
 20
57.2944805809514
 30
0.0
 10
849.604181246006
 20
57.34441927072498
 30
0.0
 10
850.2177814801088
 20
57.51393285835118
 30
0.0
 10
851.1714775820975
 20
57.87799373014219
 30
0.0
 10
852.210654855577
 20
58.32857440113148
 30
0.0
 10
852.993068370929
 20
58.7209621623582
 30
0.0
 10
853.5001993279461
 20
58.99845746055362
 30
0.0
 10
853.7759522293562
 20
59.15704843526221
 30
0.0
 10
853.8900953324858
 20
59.22401471882615
 30
0.0
 10
853.9536709086181
 20
59.26164896148361
 30
0.0
 10
853.9762969211098
 20
59.27514784538413
 30
0.0
 10
853.9893763235617
 20
59.28295113530325
 30
0.0
  0
SPLINE
  5
1C5
330
1F
100
AcDbEntity
  8
0
  6
Continuous
 62
     7
370
    15
100
AcDbSpline
210
0.0
220
0.0
230
1.0
 70
     8
 71
     3
 72
    15
 73
    11
 74
     0
 42
0.0000000001
 43
0.0000000001
 40
0.0
 40
0.0
 40
0.0
 40
0.0
 40
0.0331584160968228
 40
0.1345066079020619
 40
0.1910454866747812
 40
0.260657007595608
 40
0.3829630118899471
 40
0.5913415361611575
 40
0.9140847827645547
 40
1.0
 40
1.0
 40
1.0
 40
1.0
 10
693.7320740989256
 20
59.31196369614767
 30
0.0
 10
693.7404576126387
 20
59.30695420343724
 30
0.0
 10
693.774465207831
 20
59.28663327285288
 30
0.0
 10
693.8668846993024
 20
59.23184001358084
 30
0.0
 10
694.0993849762141
 20
59.09736318091674
 30
0.0
 10
694.4906806746631
 20
58.87861749576809
 30
0.0
 10
695.1982575876099
 20
58.50775678841488
 30
0.0
 10
696.3895156160922
 20
57.96650689027841
 30
0.0
 10
697.5470598168306
 20
57.50801006741706
 30
0.0
 10
698.3439450573513
 20
57.31054409391586
 30
0.0
 10
698.5114799908209
 20
57.26902939763235
 30
0.0
  0
SPLINE
  5
1C6
330
1F
100
AcDbEntity
  8
0
  6
Continuous
 62
     7
370
    15
100
AcDbSpline
210
0.0
220
0.0
230
1.0
 70
    24
 71
     1
 72
     4
 73
     2
 74
     0
 42
0.0000000001
 43
0.0000000001
 40
0.0
 40
0.0
 40
1.0
 40
1.0
 10
731.541632311683
 20
44.61381592240498
 30
0.0
 10
733.690070556741
 20
13.88967790093587
 30
0.0
  0
SPLINE
  5
1C7
330
1F
100
AcDbEntity
  8
0
  6
Continuous
 62
     7
370
    15
100
AcDbSpline
210
0.0
220
0.0
230
1.0
 70
    24
 71
     1
 72
     4
 73
     2
 74
     0
 42
0.0000000001
 43
0.0000000001
 40
0.0
 40
0.0
 40
1.0
 40
1.0
 10
814.0803674331715
 20
13.88967790093587
 30
0.0
 10
814.3907437196782
 20
18.32830168690847
 30
0.0
  0
ARC
  5
1C8
330
1F
100
AcDbEntity
  8
0
  6
Continuous
 62
     7
370
    15
100
AcDbCircle
 10
811.0876737365433
 20
14.09894265616945
 30
0.0
 40
3.000000000000004
100
AcDbArc
 50
270.0000000000008
 51
356.0000000000004
  0
ARC
  5
1C9
330
1F
100
AcDbEntity
  8
0
  6
Continuous
 62
     7
370
    15
100
AcDbCircle
 10
736.6827642533693
 20
14.09894265616945
 30
0.0
 40
3.000000000000004
100
AcDbArc
 50
184.0000000000011
 51
270.0000000000008
  0
SPLINE
  5
1CA
330
1F
100
AcDbEntity
  8
0
  6
Continuous
 62
     7
370
    15
100
AcDbSpline
210
0.0
220
0.0
230
1.0
 70
     8
 71
     3
 72
    18
 73
    14
 74
     0
 42
0.0000000001
 43
0.0000000001
 40
0.0
 40
0.0
 40
0.0
 40
0.0
 40
0.04916565493237
 40
0.1962354255879888
 40
0.331668180999055
 40
0.456985369727312
 40
0.5725582372693553
 40
0.6780603919184001
 40
0.7725785195476701
 40
0.854634184281496
 40
0.9222280293078982
 40
0.9731319742373052
 40
0.9999999999999998
 40
0.9999999999999998
 40
0.9999999999999998
 40
0.9999999999999998
 10
814.4247183672002
 20
18.33247401204274
 30
0.0
 10
814.424875005014
 20
18.47663216796452
 30
0.0
 10
814.4255001952634
 20
19.05201221971417
 30
0.0
 10
814.7027795321418
 20
19.99967008594749
 30
0.0
 10
815.1932581552154
 20
21.08950947708823
 30
0.0
 10
815.8351453623335
 20
21.99364634898973
 30
0.0
 10
816.5514087848247
 20
22.71643647084906
 30
0.0
 10
817.2971157820546
 20
23.26731833887838
 30
0.0
 10
818.0244441643619
 20
23.66267346168724
 30
0.0
 10
818.6906477862105
 20
23.9258044891055
 30
0.0
 10
819.2567683313431
 20
24.08308817974678
 30
0.0
 10
819.6749694966907
 20
24.16554210009564
 30
0.0
 10
819.900306360598
 20
24.19377711863174
 30
0.0
 10
819.978153901439
 20
24.20353152241872
 30
0.0
  0
LINE
  5
1CD
330
1F
100
AcDbEntity
  8
0
  6
Continuous
 62
     7
370
    15
100
AcDbLine
 10
963.3852230480712
 20
211.0989427511798
 30
0.0
 11
986.3852249554199
 21
211.0989427511798
 31
0.0
  0
ARC
  5
1CE
330
1F
100
AcDbEntity
  8
0
  6
Continuous
 62
     7
370
    15
100
AcDbCircle
 10
986.3852189949556
 20
208.0989426561849
 30
0.0
 40
3.0
100
AcDbArc
 50
0.0
 51
90.0
  0
LINE
  5
1CF
330
1F
100
AcDbEntity
  8
0
  6
Continuous
 62
     7
370
    15
100
AcDbLine
 10
986.3852249554199
 20
197.0989425518768
 30
0.0
 11
963.3852230480712
 21
197.0989425518768
 31
0.0
  0
ARC
  5
1D2
330
1F
100
AcDbEntity
  8
0
  6
Continuous
 62
     7
370
    15
100
AcDbCircle
 10
986.3852189949556
 20
200.0989426561849
 30
0.0
 40
3.0
100
AcDbArc
 50
270.0000000000008
 51
0.0
  0
LINE
  5
1D4
330
1F
100
AcDbEntity
  8
0
  6
Continuous
 62
     7
370
    15
100
AcDbLine
 10
989.3852161339324
 20
208.0989426086874
 30
0.0
 11
989.3852161339324
 21
200.0989430436151
 31
0.0
  0
LINE
  5
1D5
330
1F
100
AcDbEntity
  8
0
  6
Continuous
 62
     7
370
    15
100
AcDbLine
 10
963.3852230480712
 20
197.0989425518768
 30
0.0
 11
584.3852149418396
 21
197.0989425518768
 31
0.0
  0
LINE
  5
1DA
330
1F
100
AcDbEntity
  8
0
  6
Continuous
 62
     7
370
    15
100
AcDbLine
 10
584.3852149418396
 20
211.0989427511798
 30
0.0
 11
963.3852230480712
 21
211.0989427511798
 31
0.0
  0
LINE
  5
1DD
330
1F
100
AcDbEntity
  8
0
  6
Continuous
 62
     7
370
    15
100
AcDbLine
 10
558.3852218559784
 20
200.0989430436151
 30
0.0
 11
558.3852218559784
 21
208.0989426086874
 31
0.0
  0
LINE
  5
1DF
330
1F
100
AcDbEntity
  8
0
  6
Continuous
 62
     7
370
    15
100
AcDbLine
 10
584.3852149418396
 20
197.0989425518768
 30
0.0
 11
561.385213034491
 21
197.0989425518768
 31
0.0
  0
ARC
  5
1E0
330
1F
100
AcDbEntity
  8
0
  6
Continuous
 62
     7
370
    15
100
AcDbCircle
 10
561.3852189949555
 20
200.0989426561849
 30
0.0
 40
3.0
100
AcDbArc
 50
180.0
 51
270.0000000000008
  0
ARC
  5
1E1
330
1F
100
AcDbEntity
  8
0
  6
Continuous
 62
     7
370
    15
100
AcDbCircle
 10
561.3852189949555
 20
208.0989426561849
 30
0.0
 40
3.0
100
AcDbArc
 50
90.0
 51
180.0
  0
LINE
  5
1E2
330
1F
100
AcDbEntity
  8
0
  6
Continuous
 62
     7
370
    15
100
AcDbLine
 10
561.385213034491
 20
211.0989427511798
 30
0.0
 11
584.3852149418396
 21
211.0989427511798
 31
0.0
  0
ARC
  5
1E3
330
1F
100
AcDbEntity
  8
0
  6
Continuous
 62
     7
370
    15
100
AcDbCircle
 10
974.7481276599495
 20
192.0989426561849
 30
0.0
 40
5.000000000000024
100
AcDbArc
 50
90.0
 51
152.2470120434432
  0
ARC
  5
1E8
330
1F
100
AcDbEntity
  8
0
  6
Continuous
 62
     7
370
    15
100
AcDbCircle
 10
573.0223103299618
 20
192.0989426561849
 30
0.0
 40
5.0
100
AcDbArc
 50
27.75298795655712
 51
90.0
  0
SPLINE
  5
1EC
330
1F
100
AcDbEntity
  8
0
  6
Continuous
 62
     7
370
    15
100
AcDbSpline
210
0.0
220
0.0
230
1.0
 70
     8
 71
     3
 72
    12
 73
     8
 74
     0
 42
0.0000000001
 43
0.0000000001
 40
0.0
 40
0.0
 40
0.0
 40
0.0
 40
0.5
 40
0.5
 40
0.75
 40
0.75
 40
1.0
 40
1.0
 40
1.0
 40
1.0
 10
936.7426845112573
 20
138.1451386657542
 30
0.0
 10
942.6978576456471
 20
147.0101442239525
 30
0.0
 10
948.4852807732893
 20
156.1262136498631
 30
0.0
 10
956.8925631210106
 20
170.1969963963384
 30
0.0
 10
959.6500122564808
 20
174.9547260710384
 30
0.0
 10
965.063094184188
 20
184.5950248326219
 30
0.0
 10
967.719352421934
 20
189.4785613612015
 30
0.0
 10
970.323310886892
 20
194.4272460137543
 30
0.0
  0
SPLINE
  5
1EE
330
1F
100
AcDbEntity
  8
0
  6
Continuous
 62
     7
370
    15
100
AcDbSpline
210
0.0
220
0.0
230
1.0
 70
     8
 71
     3
 72
    12
 73
     8
 74
     0
 42
0.0000000001
 43
0.0000000001
 40
0.0
 40
0.0
 40
0.0
 40
0.0
 40
0.2500000000000002
 40
0.2500000000000002
 40
0.5000000000000006
 40
0.5000000000000006
 40
1.0
 40
1.0
 40
1.0
 40
1.0
 10
577.4471271030193
 20
194.4272460137543
 30
0.0
 10
580.0510855679771
 20
189.4785613612015
 30
0.0
 10
582.7073438057233
 20
184.5950248326218
 30
0.0
 10
588.1204257334304
 20
174.9547260710383
 30
0.0
 10
590.8778748689008
 20
170.1969963963384
 30
0.0
 10
599.285157216622
 20
156.1262136498631
 30
0.0
 10
605.0725803442644
 20
147.0101442239525
 30
0.0
 10
611.0277534786543
 20
138.1451386657542
 30
0.0
  0
SPLINE
  5
1F7
330
1F
100
AcDbEntity
  8
0
  6
Continuous
 62
     7
370
    15
100
AcDbSpline
210
0.0
220
0.0
230
1.0
 70
     8
 71
     3
 72
     8
 73
     4
 74
     0
 42
0.0000000001
 43
0.0000000001
 40
0.0
 40
0.0
 40
0.0
 40
0.0
 40
0.0010834746880495
 40
0.0010834746880495
 40
0.0010834746880495
 40
0.0010834746880495
 10
936.2364086175617
 20
137.3926899697035
 30
0.0
 10
936.4051921087305
 20
137.6431422870122
 30
0.0
 10
936.5739515722681
 20
137.893958992513
 30
0.0
 10
936.7426845112573
 20
138.1451386657543
 30
0.0
  0
SPLINE
  5
1F9
330
1F
100
AcDbEntity
  8
0
  6
Continuous
 62
     7
370
    15
100
AcDbSpline
210
0.0
220
0.0
230
1.0
 70
     8
 71
     3
 72
     8
 73
     4
 74
     0
 42
0.0000000001
 43
0.0000000001
 40
0.0
 40
0.0
 40
0.0
 40
0.0
 40
0.0010834746880495
 40
0.0010834746880495
 40
0.0010834746880495
 40
0.0010834746880495
 10
611.0277534786542
 20
138.1451386657543
 30
0.0
 10
611.1964864176433
 20
137.893958992513
 30
0.0
 10
611.3652458811808
 20
137.6431422870123
 30
0.0
 10
611.5340293723496
 20
137.3926899697036
 30
0.0
  0
SPLINE
  5
1FA
330
1F
100
AcDbEntity
  8
0
  6
Continuous
 62
     7
370
    15
100
AcDbSpline
210
0.0
220
0.0
230
1.0
 70
     8
 71
     3
 72
    20
 73
    16
 74
     0
 42
0.0000000001
 43
0.0000000001
 40
0.0
 40
0.0
 40
0.0
 40
0.0
 40
0.1249999999999998
 40
0.1249999999999998
 40
0.2499999999999996
 40
0.2499999999999996
 40
0.4999999999999999
 40
0.4999999999999999
 40
0.5625
 40
0.5625
 40
0.625
 40
0.625
 40
0.75
 40
0.75
 40
1.0
 40
1.0
 40
1.0
 40
1.0
 10
854.4567769084308
 20
59.56491023903218
 30
0.0
 10
858.1154981819647
 20
61.77547031705636
 30
0.0
 10
861.7739012064269
 20
64.10816112681256
 30
0.0
 10
869.0632473864209
 20
69.022020110553
 30
0.0
 10
872.6943191323277
 20
71.60319161042622
 30
0.0
 10
883.5164847034763
 20
79.73054841160091
 30
0.0
 10
890.6359418264974
 20
85.65870345786452
 30
0.0
 10
899.3380547891707
 20
93.76891197844274
 30
0.0
 10
901.0688128072629
 20
95.42634591637854
 30
0.0
 10
904.4964745619664
 20
98.8010415910262
 30
0.0
 10
906.1949549266465
 20
100.5197417369959
 30
0.0
 10
911.2419735890071
 20
105.7715502892079
 30
0.0
 10
914.5421163547009
 20
109.4002578744118
 30
0.0
 10
924.2294960503306
 20
120.6857543437483
 30
0.0
 10
930.4048902761454
 20
128.739490110396
 30
0.0
 10
936.2364086175618
 20
137.3926899697035
 30
0.0
  0
SPLINE
  5
1FD
330
1F
100
AcDbEntity
  8
0
  6
Continuous
 62
     7
370
    15
100
AcDbSpline
210
0.0
220
0.0
230
1.0
 70
     8
 71
     3
 72
    20
 73
    16
 74
     0
 42
0.0000000001
 43
0.0000000001
 40
0.0
 40
0.0
 40
0.0
 40
0.0
 40
0.2499999999999993
 40
0.2499999999999993
 40
0.3749999999999992
 40
0.3749999999999992
 40
0.4374999999999992
 40
0.4374999999999992
 40
0.4999999999999992
 40
0.4999999999999992
 40
0.7499999999999996
 40
0.7499999999999996
 40
0.8749999999999998
 40
0.8749999999999998
 40
1.0
 40
1.0
 40
1.0
 40
1.0
 10
611.5340293723496
 20
137.3926899697036
 30
0.0
 10
617.3638416679767
 20
128.7420216560969
 30
0.0
 10
623.5373294598726
 20
120.6904684933348
 30
0.0
 10
633.2216256808203
 20
109.4078059246894
 30
0.0
 10
636.5207029963674
 20
105.7799689688941
 30
0.0
 10
641.5660751681618
 20
100.5293608734273
 30
0.0
 10
643.2639986473035
 20
98.81104327011257
 30
0.0
 10
646.6905319049579
 20
95.43707806457957
 30
0.0
 10
648.4207193686273
 20
93.7799904993929
 30
0.0
 10
657.1200459538685
 20
85.67134224709493
 30
0.0
 10
664.2371621007249
 20
79.74419259981569
 30
0.0
 10
675.0557455437118
 20
71.61797678693886
 30
0.0
 10
678.6856118965637
 20
69.03712413757052
 30
0.0
 10
685.9725523194108
 20
64.12377540032181
 30
0.0
 10
689.6297546194057
 20
61.79127603260582
 30
0.0
 10
693.2872996873039
 20
59.58083962534832
 30
0.0
  0
ARC
  5
204
330
1F
100
AcDbEntity
  8
0
  6
Continuous
 62
     7
370
    15
100
AcDbCircle
 10
703.0152870517722
 20
75.68903891640158
 30
0.0
 40
18.81775382103776
100
AcDbArc
 50
238.871572841294
 51
260.2951637016478
  0
SPLINE
  5
207
330
1F
100
AcDbEntity
  8
0
  6
Continuous
 62
     7
370
    15
100
AcDbSpline
210
0.0
220
0.0
230
1.0
 70
     8
 71
     3
 72
    14
 73
    10
 74
     0
 42
0.0000000001
 43
0.0000000001
 40
0.0
 40
0.0
 40
0.0
 40
0.0
 40
0.2500000000000002
 40
0.2500000000000002
 40
0.5000000000000005
 40
0.5000000000000005
 40
0.7500000000000004
 40
0.7500000000000004
 40
1.0
 40
1.0
 40
1.0
 40
1.0
 10
773.8871482478571
 20
49.13736794761483
 30
0.0
 10
777.4725579581341
 20
49.13594040993721
 30
0.0
 10
781.0575140020406
 20
49.18147475303105
 30
0.0
 10
788.2261057501191
 20
49.3430305542189
 30
0.0
 10
791.8091216156846
 20
49.45725837655487
 30
0.0
 10
798.9740556267029
 20
49.71587867329127
 30
0.0
 10
802.5559835013664
 20
49.85998611787684
 30
0.0
 10
809.7196370125157
 20
50.15476212485959
 30
0.0
 10
813.301219221277
 20
50.30554379552304
 30
0.0
 10
816.8831862276915
 20
50.45392527557204
 30
0.0
  0
SPLINE
  5
208
330
1F
100
AcDbEntity
  8
0
  6
Continuous
 62
     7
370
    15
100
AcDbSpline
210
0.0
220
0.0
230
1.0
 70
     8
 71
     3
 72
    50
 73
    46
 74
     0
 42
0.0000000001
 43
0.0000000001
 40
0.0
 40
0.0
 40
0.0
 40
0.0
 40
0.00390625
 40
0.00390625
 40
0.0078124999999999
 40
0.0156249999999999
 40
0.0312499999999997
 40
0.0312499999999997
 40
0.0624999999999995
 40
0.0624999999999995
 40
0.1249999999999989
 40
0.1249999999999989
 40
0.1874999999999984
 40
0.1874999999999984
 40
0.2499999999999978
 40
0.2499999999999978
 40
0.2812499999999974
 40
0.2812499999999974
 40
0.3124999999999971
 40
0.3124999999999971
 40
0.3749999999999965
 40
0.3749999999999965
 40
0.437499999999996
 40
0.437499999999996
 40
0.4687499999999958
 40
0.4687499999999958
 40
0.4999999999999956
 40
0.4999999999999956
 40
0.5156249999999957
 40
0.5156249999999957
 40
0.5312499999999957
 40
0.5312499999999957
 40
0.562499999999996
 40
0.562499999999996
 40
0.6249999999999965
 40
0.6249999999999965
 40
0.687499999999997
 40
0.687499999999997
 40
0.7499999999999976
 40
0.7499999999999976
 40
0.8749999999999989
 40
0.8749999999999989
 40
0.9374999999999994
 40
0.9374999999999994
 40
1.0
 40
1.0
 40
1.0
 40
1.0
 10
727.5766716301501
 20
49.15929182278361
 30
0.0
 10
727.5766716307785
 20
49.15929181297854
 30
0.0
 10
727.5769566365348
 20
49.15926258903438
 30
0.0
 10
727.5780950414001
 20
49.15914579725908
 30
0.0
 10
727.5806552503001
 20
49.15888312792827
 30
0.0
 10
727.5925809316295
 20
49.15765955346854
 30
0.0
 10
727.6129524952227
 20
49.15557025833186
 30
0.0
 10
727.6671098803488
 20
49.15002705137264
 30
0.0
 10
727.7210920205582
 20
49.14451011907885
 30
0.0
 10
727.9360385391373
 20
49.12275111169304
 30
0.0
 10
728.1498735519329
 20
49.10127444827261
 30
0.0
 10
728.7184336238883
 20
49.04644926901617
 30
0.0
 10
729.0731560834387
 20
49.0131097011983
 30
0.0
 10
729.927611317493
 20
48.9370855554081
 30
0.0
 10
730.4287543997998
 20
48.89431492993074
 30
0.0
 10
731.2831810283644
 20
48.82636533917295
 30
0.0
 10
731.5858820184642
 20
48.80302285195975
 30
0.0
 10
732.2223695024477
 20
48.75570505498505
 30
0.0
 10
732.5564357103107
 20
48.73170563487281
 30
0.0
 10
733.605526845509
 20
48.65925548698835
 30
0.0
 10
734.3673406521518
 20
48.61037943317706
 30
0.0
 10
736.0153319651772
 20
48.51400139727163
 30
0.0
 10
736.9015091616942
 20
48.46647626144643
 30
0.0
 10
738.3261626725201
 20
48.39742640661731
 30
0.0
 10
738.8167229980216
 20
48.37473452350572
 30
0.0
 10
739.8313848707111
 20
48.3304198130618
 30
0.0
 10
740.3587066273877
 20
48.31216497268828
 30
0.0
 10
741.1687945351793
 20
48.31210074709888
 30
0.0
 10
741.4424238779968
 20
48.31651956463453
 30
0.0
 10
741.9971846495243
 20
48.3322969031196
 30
0.0
 10
742.2786918291732
 20
48.34372254612387
 30
0.0
 10
743.1316801551482
 20
48.37622406146058
 30
0.0
 10
743.7115079212262
 20
48.39833530078144
 30
0.0
 10
745.4841491996664
 20
48.46578465219834
 30
0.0
 10
746.7100498156248
 20
48.51225694600106
 30
0.0
 10
749.2500156320367
 20
48.60666721519613
 30
0.0
 10
750.5640722161861
 20
48.65462824351782
 30
0.0
 10
753.2825872782179
 20
48.7495578689027
 30
0.0
 10
754.66893611205
 20
48.79585906733863
 30
0.0
 10
758.8881916554022
 20
48.92648258372534
 30
0.0
 10
761.7885319280477
 20
49.00266411016627
 30
0.0
 10
766.2702035345538
 20
49.08261891238444
 30
0.0
 10
767.7899537355088
 20
49.10356688981493
 30
0.0
 10
770.8306503534611
 20
49.13119177309161
 30
0.0
 10
772.356255609793
 20
49.13797747542311
 30
0.0
 10
773.8871482478573
 20
49.13736794761511
 30
0.0
  0
SPLINE
  5
209
330
1F
100
AcDbEntity
  8
0
  6
Continuous
 62
     7
370
    15
100
AcDbSpline
210
0.0
220
0.0
230
1.0
 70
     8
 71
     3
 72
     8
 73
     4
 74
     0
 42
0.0000000001
 43
0.0000000001
 40
0.0
 40
0.0
 40
0.0
 40
0.0
 40
1.0
 40
1.0
 40
1.0
 40
1.0
 10
697.6544878526214
 20
57.47206592234038
 30
0.0
 10
707.7710692887084
 20
54.00357631061395
 30
0.0
 10
717.721280411858
 20
51.21899087105127
 30
0.0
 10
727.5766716301501
 20
49.15929182278361
 30
0.0
  0
SPLINE
  5
20A
330
1F
100
AcDbEntity
  8
0
  6
Continuous
 62
     7
370
    15
100
AcDbSpline
210
0.0
220
0.0
230
1.0
 70
     8
 71
     3
 72
    10
 73
     6
 74
     0
 42
0.0000000001
 43
0.0000000001
 40
0.0
 40
0.0
 40
0.0
 40
0.0
 40
0.5
 40
0.5
 40
1.0
 40
1.0
 40
1.0
 40
1.0
 10
698.5692409518633
 20
57.24512644437979
 30
0.0
 10
698.3293185170504
 20
57.29538321633618
 30
0.0
 10
698.0957547579797
 20
57.35248009175192
 30
0.0
 10
697.7559706176762
 20
57.44212361402837
 30
0.0
 10
697.6544878526209
 20
57.47206592234064
 30
0.0
 10
697.6544878526213
 20
57.47206592234046
 30
0.0
  0
SPLINE
  5
20B
330
1F
100
AcDbEntity
  8
0
  6
Continuous
 62
     7
370
    15
100
AcDbSpline
210
0.0
220
0.0
230
1.0
 70
     8
 71
     3
 72
    12
 73
     8
 74
     0
 42
0.0000000001
 43
0.0000000001
 40
0.0
 40
0.0
 40
0.0
 40
0.0
 40
0.5000000000000011
 40
0.5000000000000011
 40
0.7500000000000006
 40
0.7500000000000006
 40
1.0
 40
1.0
 40
1.0
 40
1.0
 10
699.8431326057546
 20
57.14058187736331
 30
0.0
 10
699.6700552459778
 20
57.10787312352877
 30
0.0
 10
699.4827947231674
 20
57.0983507413052
 30
0.0
 10
699.1702525236318
 20
57.12227289208041
 30
0.0
 10
699.0592161159944
 20
57.13706564814846
 30
0.0
 10
698.8272234368231
 20
57.17966386325568
 30
0.0
 10
698.7006290576288
 20
57.20898880067501
 30
0.0
 10
698.5692409518633
 20
57.24512644437979
 30
0.0
  0
SPLINE
  5
20D
330
1F
100
AcDbEntity
  8
0
  6
Continuous
 62
     7
370
    15
100
AcDbSpline
210
0.0
220
0.0
230
1.0
 70
     8
 71
     3
 72
     9
 73
     5
 74
     0
 42
0.0000000001
 43
0.0000000001
 40
0.0
 40
0.0
 40
0.0
 40
0.0
 40
0.0340932766863912
 40
1.0
 40
1.0
 40
1.0
 40
1.0
 10
849.8036401442099
 20
57.38567568745779
 30
0.0
 10
849.7995917045511
 20
57.38462255779728
 30
0.0
 10
849.680845721401
 20
57.3537328996935
 30
0.0
 10
849.5500306204487
 20
57.32313816816303
 30
0.0
 10
849.423675434928
 20
57.29358651127981
 30
0.0
  0
SPLINE
  5
20E
330
1F
100
AcDbEntity
  8
0
  6
Continuous
 62
     7
370
    15
100
AcDbSpline
210
0.0
220
0.0
230
1.0
 70
     8
 71
     3
 72
    10
 73
     6
 74
     0
 42
0.0000000001
 43
0.0000000001
 40
0.0
 40
0.0
 40
0.0
 40
0.0
 40
0.4999999999999996
 40
0.4999999999999996
 40
1.0
 40
1.0
 40
1.0
 40
1.0
 10
827.2603121689387
 20
51.7014501253587
 30
0.0
 10
831.0729763432229
 20
52.40916134895886
 30
0.0
 10
834.8645259738244
 20
53.23664618036971
 30
0.0
 10
842.3845485850785
 20
55.13299071416628
 30
0.0
 10
846.1106993402164
 20
56.20066772675741
 30
0.0
 10
849.8036407511538
 20
57.38567789980916
 30
0.0
  0
SPLINE
  5
20F
330
1F
100
AcDbEntity
  8
0
  6
Continuous
 62
     7
370
    15
100
AcDbSpline
210
0.0
220
0.0
230
1.0
 70
     8
 71
     3
 72
    16
 73
    12
 74
     0
 42
0.0000000001
 43
0.0000000001
 40
0.0
 40
0.0
 40
0.0
 40
0.0
 40
0.125
 40
0.125
 40
0.25
 40
0.25
 40
0.5
 40
0.5
 40
0.75
 40
0.75
 40
1.0
 40
1.0
 40
1.0
 40
1.0
 10
816.8831862276915
 20
50.45392527557204
 30
0.0
 10
817.3183984316288
 20
50.47535549893575
 30
0.0
 10
817.7551418015552
 20
50.50059863026704
 30
0.0
 10
818.6253679172434
 20
50.55879268955585
 30
0.0
 10
819.05987739914
 20
50.59189575236739
 30
0.0
 10
820.3619807258615
 20
50.70313925568159
 30
0.0
 10
821.2280223464789
 20
50.79338516373166
 30
0.0
 10
822.9566413033962
 20
51.00428535132595
 30
0.0
 10
823.8193397474615
 20
51.12476207721095
 30
0.0
 10
825.5419180582567
 20
51.39308570662802
 30
0.0
 10
826.4034604202203
 20
51.54142212886781
 30
0.0
 10
827.2603121689387
 20
51.7014501253587
 30
0.0
  0
SPLINE
  5
210
330
1F
100
AcDbEntity
  8
0
  6
Continuous
 62
     7
370
    15
100
AcDbSpline
210
0.0
220
0.0
230
1.0
 70
     8
 71
     3
 72
    17
 73
    13
 74
     0
 42
0.0000000001
 43
0.0000000001
 40
0.0
 40
0.0
 40
0.0
 40
0.0
 40
0.0624999999999973
 40
0.0624999999999973
 40
0.0937499999999961
 40
0.0937499999999961
 40
0.1249999999999949
 40
0.1249999999999949
 40
0.249999999999996
 40
0.4999999999999974
 40
0.4999999999999974
 40
1.0
 40
1.0
 40
1.0
 40
1.0
 10
854.4567769084308
 20
59.56491023903218
 30
0.0
 10
854.3473183762221
 20
59.49877657007796
 30
0.0
 10
854.2581043032487
 20
59.44498235603054
 30
0.0
 10
854.1634371985677
 20
59.3879362048511
 30
0.0
 10
854.1385348956803
 20
59.37293900589535
 30
0.0
 10
854.1057525645797
 20
59.35319896075491
 30
0.0
 10
854.1004565416123
 20
59.35001135716148
 30
0.0
 10
854.0944595293733
 20
59.34640105930427
 30
0.0
 10
854.080100271248
 20
59.33775718295139
 30
0.0
 10
854.065892535514
 20
59.32920638200475
 30
0.0
 10
854.0378311135592
 20
59.31232022922333
 30
0.0
 10
854.0195917213583
 20
59.3013477830202
 30
0.0
 10
854.0022877353157
 20
59.29094068572609
 30
0.0
  0
SPLINE
  5
211
330
1F
100
AcDbEntity
  8
0
  6
Continuous
 62
     7
370
    15
100
AcDbSpline
210
0.0
220
0.0
230
1.0
 70
     8
 71
     3
 72
    11
 73
     7
 74
     0
 42
0.0000000001
 43
0.0000000001
 40
0.0
 40
0.0
 40
0.0
 40
0.0
 40
0.6352216060246477
 40
0.7989649283439731
 40
0.9671451951263577
 40
1.0
 40
1.0
 40
1.0
 40
1.0
 10
693.8383417299798
 20
59.24873806920217
 30
0.0
 10
693.8056503173752
 20
59.26845714559817
 30
0.0
 10
693.7645319236032
 20
59.29325927813006
 30
0.0
 10
693.7427132504958
 20
59.30613295764079
 30
0.0
 10
693.5967584875773
 20
59.39438002318151
 30
0.0
 10
693.6894994684613
 20
59.33815472219603
 30
0.0
 10
693.7046559623289
 20
59.32896592106985
 30
0.0
  0
SPLINE
  5
212
330
1F
100
AcDbEntity
  8
0
  6
Continuous
 62
     7
370
    15
100
AcDbSpline
210
0.0
220
0.0
230
1.0
 70
     8
 71
     3
 72
     9
 73
     5
 74
     0
 42
0.0000000001
 43
0.0000000001
 40
0.0
 40
0.0
 40
0.0
 40
0.0
 40
0.119710358806807
 40
1.0
 40
1.0
 40
1.0
 40
1.0
 10
693.7321709564733
 20
59.3121127077596
 30
0.0
 10
693.7332692542947
 20
59.31143663599095
 30
0.0
 10
693.7424438807198
 20
59.3057890731952
 30
0.0
 10
693.5003816570509
 20
59.45207035322167
 30
0.0
 10
693.287296789031
 20
59.58084024872942
 30
0.0
  0
ARC
  5
218
330
1F
100
AcDbEntity
  8
0
  6
Continuous
 62
     7
370
    15
100
AcDbCircle
 10
986.5477944256445
 20
192.0989426561849
 30
0.0
 40
5.000000000000001
100
AcDbArc
 50
91.16444091187284
 51
176.0000000000006
  0
LINE
  5
21D
330
1F
100
AcDbEntity
  8
0
  6
Continuous
 62
     7
370
    15
100
AcDbLine
 10
981.5599756411124
 20
192.4477257617967
 30
0.0
 11
980.0400870016623
 21
170.7122885474221
 31
0.0
  0
ARC
  5
228
330
1F
100
AcDbEntity
  8
0
  6
Continuous
 62
     7
370
    15
100
AcDbCircle
 10
970.0644438751368
 20
171.4098530340381
 30
0.0
 40
10.0
100
AcDbArc
 50
337.4679569625786
 51
356.0000000000014
  0
ARC
  5
22A
330
1F
100
AcDbEntity
  8
0
  6
Continuous
 62
     7
370
    15
100
AcDbCircle
 10
702.2014866205213
 20
282.5378698921285
 30
0.0
 40
300.0
100
AcDbArc
 50
306.2874740367622
 51
337.4679569625786
  0
ARC
  5
22D
330
1F
100
AcDbEntity
  8
0
  6
Continuous
 62
     7
370
    15
100
AcDbCircle
 10
726.5538104390149
 20
44.26503447527221
 30
0.0
 40
4.99999999999999
100
AcDbArc
 50
4.000000000000176
 51
78.19554056670502
  0
SPLINE
  5
232
330
1F
100
AcDbEntity
  8
0
  6
Continuous
 62
     7
370
    15
100
AcDbSpline
210
0.0
220
0.0
230
1.0
 70
    24
 71
     1
 72
     4
 73
     2
 74
     0
 42
0.0000000001
 43
0.0000000001
 40
0.0
 40
0.0
 40
1.0
 40
1.0
 10
808.4620149901915
 20
24.09894027199911
 30
0.0
 10
808.1143634489585
 20
24.08119298901723
 30
0.0
  0
ARC
  5
234
330
1F
100
AcDbEntity
  8
0
  6
Continuous
 62
     7
370
    15
100
AcDbCircle
 10
848.3852189949562
 20
83.44162083384116
 30
0.0
 40
53.00000000000006
100
AcDbArc
 50
290.8345190336533
 51
306.2874740367623
  0
ARC
  5
236
330
1F
100
AcDbEntity
  8
0
  6
Continuous
 62
     7
370
    15
100
AcDbCircle
 10
813.8852189949561
 20
174.0989426561849
 30
0.0
 40
150.0
100
AcDbArc
 50
270.0000000000009
 51
290.8345190336532
  0
LINE
  5
238
330
1F
100
AcDbEntity
  8
0
  6
Continuous
 62
     7
370
    15
100
AcDbLine
 10
813.8852181008864
 20
24.09894027199911
 30
0.0
 11
808.4620149901915
 21
24.09894027199911
 31
0.0
  0
LINE
  5
239
330
1F
100
AcDbEntity
  8
0
  6
Continuous
 62
     7
370
    15
100
AcDbLine
 10
811.0876740983536
 20
11.0989437290685
 30
0.0
 11
736.6827638915589
 21
11.0989437290685
 31
0.0
  0
LINE
  5
23A
330
1F
100
AcDbEntity
  8
0
  6
Continuous
 62
     7
370
    15
100
AcDbLine
 10
849.423675434928
 20
57.29358651127981
 30
0.0
 11
849.3817882708121
 21
57.28345372166799
 31
0.0
  0
SPLINE
  5
23D
330
1F
100
AcDbEntity
  8
0
  6
Continuous
 62
     7
370
    15
100
AcDbSpline
210
0.0
220
0.0
230
1.0
 70
     8
 71
     3
 72
    15
 73
    11
 74
     0
 42
0.0000000001
 43
0.0000000001
 40
0.0
 40
0.0
 40
0.0
 40
0.0
 40
0.1184777654276013
 40
0.2475805162571241
 40
0.4256771876437102
 40
0.6040287500008356
 40
0.7819238913022238
 40
0.9366226718580604
 40
0.9988705563727698
 40
1.0
 40
1.0
 40
1.0
 40
1.0
 10
808.1143634489585
 20
24.08119298901723
 30
0.0
 10
806.8122940655847
 20
24.03678114573546
 30
0.0
 10
804.0913868221466
 20
23.94397464277734
 30
0.0
 10
799.3846776975465
 20
23.2864724967013
 30
0.0
 10
793.9373118880115
 20
22.36156261520794
 30
0.0
 10
787.8253439203196
 20
21.13726687859232
 30
0.0
 10
781.8726917234044
 20
19.8834192127347
 30
0.0
 10
777.2180385992893
 20
18.90254614032619
 30
0.0
 10
774.6458371020657
 20
18.35416583524513
 30
0.0
 10
773.8985365932529
 20
18.19473761819398
 30
0.0
 10
773.8852189949562
 20
18.19189645733998
 30
0.0
  0
VIEWPORT
  5
2C4
102
{ACAD_XDICTIONARY
360
2F2
102
}
330
23
100
AcDbEntity
 67
     1
  8
0
100
AcDbViewport
 10
128.5
 20
97.5
 30
0.0
 40
314.2260000000001
 41
237.24063
 68
     1
 69
     1
 12
128.5
 22
97.5
 13
0.0
 23
0.0
 14
0.5
 24
0.5
 15
0.5
 25
0.5
 16
0.0
 26
0.0
 36
1.0
 17
0.0
 27
0.0
 37
0.0
 42
50.0
 43
0.0
 44
0.0
 45
237.24063
 50
0.0
 51
0.0
 72
  2000
 90
    32800
  1

281
     0
 71
     1
 74
     0
110
0.0
120
0.0
130
0.0
111
1.0
121
0.0
131
0.0
112
0.0
122
1.0
132
0.0
 79
     0
146
0.0
  0
VIEWPORT
  5
2C6
102
{ACAD_XDICTIONARY
360
2F4
102
}
330
23
100
AcDbEntity
 67
     1
  8
0
100
AcDbViewport
 10
128.5
 20
97.5
 30
0.0
 40
314.2260000000001
 41
237.24063
 68
     2
 69
     2
 12
510.8337425752936
 22
366.0449999047501
 13
0.0
 23
0.0
 14
10.0
 24
10.0
 15
10.0
 25
10.0
 16
0.0
 26
0.0
 36
1.0
 17
0.0
 27
0.0
 37
0.0
 42
50.0
 43
0.0
 44
0.0
 45
727.0098403552078
 50
0.0
 51
0.0
 72
  2000
 90
    32864
  1

281
     0
 71
     1
 74
     0
110
0.0
120
0.0
130
0.0
111
1.0
121
0.0
131
0.0
112
0.0
122
1.0
132
0.0
 79
     0
146
0.0
  0
ENDSEC
  0
SECTION
  2
OBJECTS
  0
DICTIONARY
  5
C
330
0
100
AcDbDictionary
281
     1
  3
ACAD_COLOR
350
247
  3
ACAD_GROUP
350
D
  3
ACAD_LAYOUT
350
1A
  3
ACAD_MATERIAL
350
246
  3
ACAD_MLEADERSTYLE
350
242
  3
ACAD_MLINESTYLE
350
17
  3
ACAD_PLOTSETTINGS
350
19
  3
ACAD_PLOTSTYLENAME
350
E
  3
ACAD_SCALELIST
350
3B
  3
ACAD_TABLESTYLE
350
241
  3
ACAD_VISUALSTYLE
350
2A
  3
AcDbVariableDictionary
350
23F
  3
DWGPROPS
350
2EC
  0
DICTIONARY
  5
2BB
330
2
100
AcDbDictionary
280
     1
281
     1
  3
ACAD_LAYERSTATES
360
2BC
  0
DICTIONARY
  5
2F2
330
2C4
100
AcDbDictionary
280
     1
281
     1
  3
ACAD_XREC_ROUNDTRIP
360
2F3
  0
DICTIONARY
  5
2F4
330
2C6
100
AcDbDictionary
280
     1
281
     1
  3
ACAD_XREC_ROUNDTRIP
360
2F5
  0
DICTIONARY
  5
247
102
{ACAD_REACTORS
330
C
102
}
330
C
100
AcDbDictionary
281
     1
  0
DICTIONARY
  5
D
102
{ACAD_REACTORS
330
C
102
}
330
C
100
AcDbDictionary
281
     1
  0
DICTIONARY
  5
1A
102
{ACAD_REACTORS
330
C
102
}
330
C
100
AcDbDictionary
281
     1
  3
Layout2
350
26
  3
Model
350
22
  0
DICTIONARY
  5
246
102
{ACAD_REACTORS
330
C
102
}
330
C
100
AcDbDictionary
281
     1
  3
ByBlock
350
2D7
  3
ByLayer
350
2D6
  3
Global
350
2D8
  0
DICTIONARY
  5
242
102
{ACAD_REACTORS
330
C
102
}
330
C
100
AcDbDictionary
281
     1
  0
DICTIONARY
  5
17
102
{ACAD_REACTORS
330
C
102
}
330
C
100
AcDbDictionary
281
     1
  3
Standard
350
18
  0
DICTIONARY
  5
19
102
{ACAD_REACTORS
330
C
102
}
330
C
100
AcDbDictionary
281
     1
  0
ACDBDICTIONARYWDFLT
  5
E
102
{ACAD_REACTORS
330
C
102
}
330
C
100
AcDbDictionary
281
     1
  3
Normal
350
F
100
AcDbDictionaryWithDefault
340
F
  0
DICTIONARY
  5
3B
102
{ACAD_REACTORS
330
C
102
}
330
C
100
AcDbDictionary
281
     1
  3
A0
350
3C
  3
A1
350
3D
  3
A2
350
3E
  3
A3
350
3F
  3
A4
350
40
  3
A5
350
41
  3
A6
350
42
  3
A7
350
43
  3
A8
350
44
  3
A9
350
45
  3
B0
350
46
  3
B1
350
47
  3
B2
350
48
  3
B3
350
49
  3
B4
350
4A
  3
B5
350
4B
  3
B6
350
4C
  3
B7
350
4D
  3
B8
350
4E
  3
B9
350
4F
  3
C0
350
50
  3
C1
350
51
  3
C2
350
52
  3
C3
350
53
  3
C4
350
54
  3
C5
350
55
  3
C6
350
56
  3
C7
350
57
  3
C8
350
58
  3
C9
350
59
  3
D0
350
5A
  3
D1
350
5B
  3
D2
350
5C
  0
DICTIONARY
  5
241
102
{ACAD_REACTORS
330
C
102
}
330
C
100
AcDbDictionary
281
     1
  3
Standard
350
248
  0
DICTIONARY
  5
2A
102
{ACAD_REACTORS
330
C
102
}
330
C
100
AcDbDictionary
281
     1
  3
2dWireframe
350
2F
  3
3D Hidden
350
31
  3
3dWireframe
350
30
  3
Basic
350
32
  3
Brighten
350
36
  3
ColorChange
350
3A
  3
Conceptual
350
34
  3
Dim
350
35
  3
Facepattern
350
39
  3
Flat
350
2B
  3
FlatWithEdges
350
2C
  3
Gouraud
350
2D
  3
GouraudWithEdges
350
2E
  3
Linepattern
350
38
  3
Realistic
350
33
  3
Thicken
350
37
  0
DICTIONARY
  5
23F
102
{ACAD_REACTORS
330
C
102
}
330
C
100
AcDbDictionary
281
     1
  3
CANNOSCALE
350
240
  3
CTABLESTYLE
350
24C
  3
DIMASSOC
350
2E9
  3
INDEXCTL
350
2E8
  3
PSOLHEIGHT
350
2EB
  3
PSOLWIDTH
350
2EA
  3
SORTENTS
350
2E7
  0
XRECORD
  5
2EC
102
{ACAD_REACTORS
330
C
102
}
330
C
100
AcDbXrecord
280
     1
  1
DWGPROPS COOKIE
  2

  3

  4

  6

  7

  8
jgayle
  9

300
=
301
=
302
=
303
=
304
=
305
=
306
=
307
=
308
=
309
=
 40
0.0158040277777778
 41
2454965.360704965
 42
2454966.461450961
  1

 90
        0
  0
DICTIONARY
  5
2BC
102
{ACAD_REACTORS
330
2BB
102
}
330
2BB
100
AcDbDictionary
281
     1
  0
XRECORD
  5
2F3
102
{ACAD_REACTORS
330
2F2
102
}
330
2F2
100
AcDbXrecord
280
     1
102
SHADEPLOT
 70
     0
  0
XRECORD
  5
2F5
102
{ACAD_REACTORS
330
2F4
102
}
330
2F4
100
AcDbXrecord
280
     1
102
SHADEPLOT
 70
     0
  0
LAYOUT
  5
26
102
{ACAD_XDICTIONARY
360
2CB
102
}
102
{ACAD_REACTORS
330
1A
102
}
330
1A
100
AcDbPlotSettings
  1

  2
none_device
  4
ISO_A4_(210.00_x_297.00_MM)
  6

 40
7.5
 41
20.0
 42
7.5
 43
20.0
 44
210.0
 45
297.0
 46
0.0
 47
0.0
 48
0.0
 49
0.0
140
0.0
141
0.0
142
1.0
143
1.0
 70
   688
 72
     1
 73
     1
 74
     5
  7

 75
    16
147
1.0
148
0.0
149
0.0
100
AcDbLayout
  1
Layout2
 70
     1
 71
     1
 10
0.0
 20
0.0
 11
0.0
 21
0.0
 12
0.0
 22
0.0
 32
0.0
 14
-28.61300000000006
 24
-21.120315
 34
0.0
 15
285.6130000000001
 25
216.120315
 35
0.0
146
0.0
 13
0.0
 23
0.0
 33
0.0
 16
1.0
 26
0.0
 36
0.0
 17
0.0
 27
1.0
 37
0.0
 76
     0
330
23
331
2C4
1001
ACAD_PSEXT
1000
None
1000
None
1000
Not applicable
1000
The layout will not be plotted unless a new plotter configuration name is selected.
1070
     0
  0
LAYOUT
  5
22
102
{ACAD_XDICTIONARY
360
2ED
102
}
102
{ACAD_REACTORS
330
1A
102
}
330
1A
100
AcDbPlotSettings
  1

  2
none_device
  4
ISO_A4_(210.00_x_297.00_MM)
  6

 40
7.5
 41
20.0
 42
7.5
 43
20.0
 44
210.0
 45
297.0
 46
0.0
 47
0.0
 48
0.0
 49
0.0
140
0.0
141
0.0
142
1.0
143
6.206294231771993
 70
 11952
 72
     1
 73
     1
 74
     0
  7

 75
     0
147
0.1611267469210019
148
290.515793753525
149
354.2101006412065
100
AcDbLayout
  1
Model
 70
     1
 71
     0
 10
0.0
 20
0.0
 11
1000.0
 21
750.0
 12
0.0
 22
0.0
 32
0.0
 14
0.0
 24
0.0
 34
0.0
 15
1000.0
 25
750.0
 35
0.0
146
0.0
 13
0.0
 23
0.0
 33
0.0
 16
1.0
 26
0.0
 36
0.0
 17
0.0
 27
1.0
 37
0.0
 76
     0
330
1F
331
2D4
1001
ACAD_PSEXT
1000
None
1000
None
1000
Not applicable
1000
The layout will not be plotted unless a new plotter configuration name is selected.
1070
     0
  0
MATERIAL
  5
2D7
102
{ACAD_XDICTIONARY
360
2F8
102
}
102
{ACAD_REACTORS
330
246
102
}
330
246
100
AcDbMaterial
  1
ByBlock
  0
MATERIAL
  5
2D6
102
{ACAD_XDICTIONARY
360
2F6
102
}
102
{ACAD_REACTORS
330
246
102
}
330
246
100
AcDbMaterial
  1
ByLayer
  0
MATERIAL
  5
2D8
102
{ACAD_XDICTIONARY
360
2FA
102
}
102
{ACAD_REACTORS
330
246
102
}
330
246
100
AcDbMaterial
  1
Global
  0
MLINESTYLE
  5
18
102
{ACAD_REACTORS
330
17
102
}
330
17
100
AcDbMlineStyle
  2
STANDARD
 70
     0
  3

 62
   256
 51
90.0
 52
90.0
 71
     2
 49
0.5
 62
   256
  6
BYLAYER
 49
-0.5
 62
   256
  6
BYLAYER
  0
ACDBPLACEHOLDER
  5
F
102
{ACAD_REACTORS
330
E
102
}
330
E
  0
ACAD_PROXY_OBJECT
  5
3C
102
{ACAD_REACTORS
330
3B
102
}
330
3B
100
AcDbProxyObject
 90
      499
 91
      502
 95
   393239
 70
     0
 93
       41
310
903313A315FF
 94
        0
1001
ACAD
1000
AcRTDxfName
1000
SCALE
  0
ACAD_PROXY_OBJECT
  5
3D
102
{ACAD_REACTORS
330
3B
102
}
330
3B
100
AcDbProxyObject
 90
      499
 91
      502
 95
   393239
 70
     0
 93
      105
310
903313A32400000000000000407F
 94
        0
1001
ACAD
1000
AcRTDxfName
1000
SCALE
  0
ACAD_PROXY_OBJECT
  5
3E
102
{ACAD_REACTORS
330
3B
102
}
330
3B
100
AcDbProxyObject
 90
      499
 91
      502
 95
   393239
 70
     0
 93
      105
310
903313A34400000000000010407F
 94
        0
1001
ACAD
1000
AcRTDxfName
1000
SCALE
  0
ACAD_PROXY_OBJECT
  5
3F
102
{ACAD_REACTORS
330
3B
102
}
330
3B
100
AcDbProxyObject
 90
      499
 91
      502
 95
   393239
 70
     0
 93
      105
310
903313A35400000000000014407F
 94
        0
1001
ACAD
1000
AcRTDxfName
1000
SCALE
  0
ACAD_PROXY_OBJECT
  5
40
102
{ACAD_REACTORS
330
3B
102
}
330
3B
100
AcDbProxyObject
 90
      499
 91
      502
 95
   393239
 70
     0
 93
      105
310
903313A38400000000000020407F
 94
        0
1001
ACAD
1000
AcRTDxfName
1000
SCALE
  0
ACAD_PROXY_OBJECT
  5
41
102
{ACAD_REACTORS
330
3B
102
}
330
3B
100
AcDbProxyObject
 90
      499
 91
      502
 95
   393239
 70
     0
 93
      113
310
904313A3130400000000000024407F
 94
        0
1001
ACAD
1000
AcRTDxfName
1000
SCALE
  0
ACAD_PROXY_OBJECT
  5
42
102
{ACAD_REACTORS
330
3B
102
}
330
3B
100
AcDbProxyObject
 90
      499
 91
      502
 95
   393239
 70
     0
 93
      113
310
904313A3136400000000000030407F
 94
        0
1001
ACAD
1000
AcRTDxfName
1000
SCALE
  0
ACAD_PROXY_OBJECT
  5
43
102
{ACAD_REACTORS
330
3B
102
}
330
3B
100
AcDbProxyObject
 90
      499
 91
      502
 95
   393239
 70
     0
 93
      113
310
904313A3230400000000000034407F
 94
        0
1001
ACAD
1000
AcRTDxfName
1000
SCALE
  0
ACAD_PROXY_OBJECT
  5
44
102
{ACAD_REACTORS
330
3B
102
}
330
3B
100
AcDbProxyObject
 90
      499
 91
      502
 95
   393239
 70
     0
 93
      113
310
904313A333040000000000003E407F
 94
        0
1001
ACAD
1000
AcRTDxfName
1000
SCALE
  0
ACAD_PROXY_OBJECT
  5
45
102
{ACAD_REACTORS
330
3B
102
}
330
3B
100
AcDbProxyObject
 90
      499
 91
      502
 95
   393239
 70
     0
 93
      113
310
904313A3430400000000000044407F
 94
        0
1001
ACAD
1000
AcRTDxfName
1000
SCALE
  0
ACAD_PROXY_OBJECT
  5
46
102
{ACAD_REACTORS
330
3B
102
}
330
3B
100
AcDbProxyObject
 90
      499
 91
      502
 95
   393239
 70
     0
 93
      113
310
904313A3530400000000000049407F
 94
        0
1001
ACAD
1000
AcRTDxfName
1000
SCALE
  0
ACAD_PROXY_OBJECT
  5
47
102
{ACAD_REACTORS
330
3B
102
}
330
3B
100
AcDbProxyObject
 90
      499
 91
      502
 95
   393239
 70
     0
 93
      121
310
905313A313030400000000000059407F
 94
        0
1001
ACAD
1000
AcRTDxfName
1000
SCALE
  0
ACAD_PROXY_OBJECT
  5
48
102
{ACAD_REACTORS
330
3B
102
}
330
3B
100
AcDbProxyObject
 90
      499
 91
      502
 95
   393239
 70
     0
 93
      105
310
903323A31000000000000001017F
 94
        0
1001
ACAD
1000
AcRTDxfName
1000
SCALE
  0
ACAD_PROXY_OBJECT
  5
49
102
{ACAD_REACTORS
330
3B
102
}
330
3B
100
AcDbProxyObject
 90
      499
 91
      502
 95
   393239
 70
     0
 93
      105
310
903343A31000000000000041017F
 94
        0
1001
ACAD
1000
AcRTDxfName
1000
SCALE
  0
ACAD_PROXY_OBJECT
  5
4A
102
{ACAD_REACTORS
330
3B
102
}
330
3B
100
AcDbProxyObject
 90
      499
 91
      502
 95
   393239
 70
     0
 93
      105
310
903383A31000000000000081017F
 94
        0
1001
ACAD
1000
AcRTDxfName
1000
SCALE
  0
ACAD_PROXY_OBJECT
  5
4B
102
{ACAD_REACTORS
330
3B
102
}
330
3B
100
AcDbProxyObject
 90
      499
 91
      502
 95
   393239
 70
     0
 93
      113
310
90431303A31000000000000091017F
 94
        0
1001
ACAD
1000
AcRTDxfName
1000
SCALE
  0
ACAD_PROXY_OBJECT
  5
4C
102
{ACAD_REACTORS
330
3B
102
}
330
3B
100
AcDbProxyObject
 90
      499
 91
      502
 95
   393239
 70
     0
 93
      121
310
9053130303A31000000000000165017F
 94
        0
1001
ACAD
1000
AcRTDxfName
1000
SCALE
  0
ACAD_PROXY_OBJECT
  5
4D
102
{ACAD_REACTORS
330
3B
102
}
330
3B
100
AcDbProxyObject
 90
      499
 91
      502
 95
   393239
 70
     0
 93
      257
310
90E312F31323822203D2031272D3022000000000000200FC00000000000028407F
 94
        0
1001
ACAD
1000
AcRTDxfName
1000
SCALE
  0
ACAD_PROXY_OBJECT
  5
4E
102
{ACAD_REACTORS
330
3B
102
}
330
3B
100
AcDbProxyObject
 90
      499
 91
      502
 95
   393239
 70
     0
 93
      249
310
90D312F363422203D2031272D3022000000000000240FC00000000000028407F
 94
        0
1001
ACAD
1000
AcRTDxfName
1000
SCALE
  0
ACAD_PROXY_OBJECT
  5
4F
102
{ACAD_REACTORS
330
3B
102
}
330
3B
100
AcDbProxyObject
 90
      499
 91
      502
 95
   393239
 70
     0
 93
      249
310
90D312F333222203D2031272D3022000000000000280FC00000000000028407F
 94
        0
1001
ACAD
1000
AcRTDxfName
1000
SCALE
  0
ACAD_PROXY_OBJECT
  5
50
102
{ACAD_REACTORS
330
3B
102
}
330
3B
100
AcDbProxyObject
 90
      499
 91
      502
 95
   393239
 70
     0
 93
      249
310
90D312F313622203D2031272D30220000000000002C0FC00000000000028407F
 94
        0
1001
ACAD
1000
AcRTDxfName
1000
SCALE
  0
ACAD_PROXY_OBJECT
  5
51
102
{ACAD_REACTORS
330
3B
102
}
330
3B
100
AcDbProxyObject
 90
      499
 91
      502
 95
   393239
 70
     0
 93
      249
310
90D332F333222203D2031272D30220000000000002E0FC00000000000028407F
 94
        0
1001
ACAD
1000
AcRTDxfName
1000
SCALE
  0
ACAD_PROXY_OBJECT
  5
52
102
{ACAD_REACTORS
330
3B
102
}
330
3B
100
AcDbProxyObject
 90
      499
 91
      502
 95
   393239
 70
     0
 93
      241
310
90C312F3822203D2031272D3022000000000000300FC00000000000028407F
 94
        0
1001
ACAD
1000
AcRTDxfName
1000
SCALE
  0
ACAD_PROXY_OBJECT
  5
53
102
{ACAD_REACTORS
330
3B
102
}
330
3B
100
AcDbProxyObject
 90
      499
 91
      502
 95
   393239
 70
     0
 93
      249
310
90D332F313622203D2031272D3022000000000000320FC00000000000028407F
 94
        0
1001
ACAD
1000
AcRTDxfName
1000
SCALE
  0
ACAD_PROXY_OBJECT
  5
54
102
{ACAD_REACTORS
330
3B
102
}
330
3B
100
AcDbProxyObject
 90
      499
 91
      502
 95
   393239
 70
     0
 93
      241
310
90C312F3422203D2031272D3022000000000000340FC00000000000028407F
 94
        0
1001
ACAD
1000
AcRTDxfName
1000
SCALE
  0
ACAD_PROXY_OBJECT
  5
55
102
{ACAD_REACTORS
330
3B
102
}
330
3B
100
AcDbProxyObject
 90
      499
 91
      502
 95
   393239
 70
     0
 93
      241
310
90C332F3822203D2031272D3022000000000000360FC00000000000028407F
 94
        0
1001
ACAD
1000
AcRTDxfName
1000
SCALE
  0
ACAD_PROXY_OBJECT
  5
56
102
{ACAD_REACTORS
330
3B
102
}
330
3B
100
AcDbProxyObject
 90
      499
 91
      502
 95
   393239
 70
     0
 93
      241
310
90C312F3222203D2031272D3022000000000000380FC00000000000028407F
 94
        0
1001
ACAD
1000
AcRTDxfName
1000
SCALE
  0
ACAD_PROXY_OBJECT
  5
57
102
{ACAD_REACTORS
330
3B
102
}
330
3B
100
AcDbProxyObject
 90
      499
 91
      502
 95
   393239
 70
     0
 93
      241
310
90C332F3422203D2031272D30220000000000003A0FC00000000000028407F
 94
        0
1001
ACAD
1000
AcRTDxfName
1000
SCALE
  0
ACAD_PROXY_OBJECT
  5
58
102
{ACAD_REACTORS
330
3B
102
}
330
3B
100
AcDbProxyObject
 90
      499
 91
      502
 95
   393239
 70
     0
 93
      161
310
90A3122203D2031272D3022400000000000028407F
 94
        0
1001
ACAD
1000
AcRTDxfName
1000
SCALE
  0
ACAD_PROXY_OBJECT
  5
59
102
{ACAD_REACTORS
330
3B
102
}
330
3B
100
AcDbProxyObject
 90
      499
 91
      502
 95
   393239
 70
     0
 93
      257
310
90E312D312F3222203D2031272D30220000000000003E0FC00000000000028407F
 94
        0
1001
ACAD
1000
AcRTDxfName
1000
SCALE
  0
ACAD_PROXY_OBJECT
  5
5A
102
{ACAD_REACTORS
330
3B
102
}
330
3B
100
AcDbProxyObject
 90
      499
 91
      502
 95
   393239
 70
     0
 93
      225
310
90A3322203D2031272D30220000000000000210000000000000028407F
 94
        0
1001
ACAD
1000
AcRTDxfName
1000
SCALE
  0
ACAD_PROXY_OBJECT
  5
5B
102
{ACAD_REACTORS
330
3B
102
}
330
3B
100
AcDbProxyObject
 90
      499
 91
      502
 95
   393239
 70
     0
 93
      225
310
90A3622203D2031272D30220000000000000610000000000000028407F
 94
        0
1001
ACAD
1000
AcRTDxfName
1000
SCALE
  0
ACAD_PROXY_OBJECT
  5
5C
102
{ACAD_REACTORS
330
3B
102
}
330
3B
100
AcDbProxyObject
 90
      499
 91
      502
 95
   393239
 70
     0
 93
      249
310
90D31272D3022203D2031272D30220000000000000A10000000000000028407F
 94
        0
1001
ACAD
1000
AcRTDxfName
1000
SCALE
  0
TABLESTYLE
  5
248
102
{ACAD_XDICTIONARY
360
2F0
102
}
102
{ACAD_REACTORS
330
241
102
}
330
241
100
AcDbTableStyle
  3
Standard
 70
     0
 71
     0
 40
1.5
 41
1.5
280
     0
281
     0
  7
Standard
140
4.5
170
     2
 62
     0
 63
     7
283
     0
274
    -2
284
     1
 64
     0
275
    -2
285
     1
 65
     0
276
    -2
286
     1
 66
     0
277
    -2
287
     1
 67
     0
278
    -2
288
     1
 68
     0
279
    -2
289
     1
 69
     0
  7
Standard
140
6.0
170
     5
 62
     0
 63
     7
283
     0
274
    -2
284
     1
 64
     0
275
    -2
285
     1
 65
     0
276
    -2
286
     1
 66
     0
277
    -2
287
     1
 67
     0
278
    -2
288
     1
 68
     0
279
    -2
289
     1
 69
     0
  7
Standard
140
4.5
170
     5
 62
     0
 63
     7
283
     0
274
    -2
284
     1
 64
     0
275
    -2
285
     1
 65
     0
276
    -2
286
     1
 66
     0
277
    -2
287
     1
 67
     0
278
    -2
288
     1
 68
     0
279
    -2
289
     1
 69
     0
  0
VISUALSTYLE
  5
2F
102
{ACAD_REACTORS
330
2A
102
}
330
2A
100
AcDbVisualStyle
  2
2dWireframe
 70
     4
 71
     0
 72
     2
 73
     0
 90
        0
 40
-0.6
 41
-30.0
 62
     5
 63
     7
 74
     1
 91
        4
 64
     7
 65
   257
 75
     1
175
     1
 42
1.0
 92
        0
 66
   257
 43
1.0
 76
     1
 77
     6
 78
     2
 67
     7
 79
     5
170
     0
171
     0
290
     0
174
     0
 93
        1
 44
0.0
173
     0
291
     0
 45
0.0
1001
ACAD
1000
AcDbSavedByObjectVersion
1070
     0
  0
VISUALSTYLE
  5
31
102
{ACAD_REACTORS
330
2A
102
}
330
2A
100
AcDbVisualStyle
  2
3D Hidden
 70
     6
 71
     1
 72
     2
 73
     2
 90
        0
 40
-0.6
 41
-30.0
 62
     5
 63
     7
 74
     2
 91
        2
 64
     7
 65
   257
 75
     2
175
     1
 42
40.0
 92
        0
 66
   257
 43
1.0
 76
     1
 77
     6
 78
     2
 67
     7
 79
     3
170
     0
171
     0
290
     0
174
     0
 93
        1
 44
0.0
173
     0
291
     0
 45
0.0
1001
ACAD
1000
AcDbSavedByObjectVersion
1070
     0
  0
VISUALSTYLE
  5
30
102
{ACAD_REACTORS
330
2A
102
}
330
2A
100
AcDbVisualStyle
  2
3dWireframe
 70
     5
 71
     0
 72
     2
 73
     0
 90
        0
 40
-0.6
 41
-30.0
 62
     5
 63
     7
 74
     1
 91
        4
 64
     7
 65
   257
 75
     1
175
     1
 42
1.0
 92
        0
 66
   257
 43
1.0
 76
     1
 77
     6
 78
     2
 67
     7
 79
     5
170
     0
171
     0
290
     0
174
     0
 93
        1
 44
0.0
173
     0
291
     0
 45
0.0
1001
ACAD
1000
AcDbSavedByObjectVersion
1070
     0
  0
VISUALSTYLE
  5
32
102
{ACAD_REACTORS
330
2A
102
}
330
2A
100
AcDbVisualStyle
  2
Basic
 70
     7
 71
     1
 72
     0
 73
     1
 90
        0
 40
-0.6
 41
-30.0
 62
     5
 63
     7
 74
     0
 91
        4
 64
     7
 65
   257
 75
     1
175
     1
 42
1.0
 92
        8
 66
     7
 43
1.0
 76
     1
 77
     6
 78
     2
 67
     7
 79
     5
170
     0
171
     0
290
     0
174
     0
 93
        1
 44
0.0
173
     0
291
     1
 45
0.0
1001
ACAD
1000
AcDbSavedByObjectVersion
1070
     0
  0
VISUALSTYLE
  5
36
102
{ACAD_REACTORS
330
2A
102
}
330
2A
100
AcDbVisualStyle
  2
Brighten
 70
    12
 71
     2
 72
     2
 73
     0
 90
        0
 40
-0.6
 41
-30.0
 62
     5
 63
     7
 74
     1
 91
        4
 64
     7
 65
   257
 75
     1
175
     1
 42
1.0
 92
        8
 66
     7
 43
1.0
 76
     1
 77
     6
 78
     2
 67
     7
 79
     5
170
     0
171
     0
290
     0
174
     0
 93
        1
 44
50.0
173
     0
291
     1
 45
0.0
1001
ACAD
1000
AcDbSavedByObjectVersion
1070
     0
  0
VISUALSTYLE
  5
3A
102
{ACAD_REACTORS
330
2A
102
}
330
2A
100
AcDbVisualStyle
  2
ColorChange
 70
    16
 71
     2
 72
     2
 73
     3
 90
        0
 40
-0.6
 41
-30.0
 62
     5
 63
     8
 74
     1
 91
        4
 64
     7
 65
   257
 75
     1
175
     1
 42
1.0
 92
        8
 66
     8
 43
1.0
 76
     1
 77
     6
 78
     2
 67
     7
 79
     5
170
     0
171
     0
290
     0
174
     0
 93
        1
 44
0.0
173
     0
291
     1
 45
0.0
1001
ACAD
1000
AcDbSavedByObjectVersion
1070
     0
  0
VISUALSTYLE
  5
34
102
{ACAD_REACTORS
330
2A
102
}
330
2A
100
AcDbVisualStyle
  2
Conceptual
 70
     9
 71
     3
 72
     2
 73
     0
 90
        0
 40
-0.6
 41
-30.0
 62
     5
 63
     7
 74
     2
 91
        2
 64
     7
 65
   257
 75
     1
175
     1
 42
40.0
 92
        8
 66
     7
 43
1.0
 76
     1
 77
     6
 78
     2
 67
     7
 79
     3
170
     0
171
     0
290
     0
174
     0
 93
        1
 44
0.0
173
     0
291
     0
 45
0.0
1001
ACAD
1000
AcDbSavedByObjectVersion
1070
     0
  0
VISUALSTYLE
  5
35
102
{ACAD_REACTORS
330
2A
102
}
330
2A
100
AcDbVisualStyle
  2
Dim
 70
    11
 71
     2
 72
     2
 73
     0
 90
        0
 40
-0.6
 41
-30.0
 62
     5
 63
     7
 74
     1
 91
        4
 64
     7
 65
   257
 75
     1
175
     1
 42
1.0
 92
        8
 66
     7
 43
1.0
 76
     1
 77
     6
 78
     2
 67
     7
 79
     5
170
     0
171
     0
290
     0
174
     0
 93
        1
 44
-50.0
173
     0
291
     1
 45
0.0
1001
ACAD
1000
AcDbSavedByObjectVersion
1070
     0
  0
VISUALSTYLE
  5
39
102
{ACAD_REACTORS
330
2A
102
}
330
2A
100
AcDbVisualStyle
  2
Facepattern
 70
    15
 71
     2
 72
     2
 73
     0
 90
        0
 40
-0.6
 41
-30.0
 62
     5
 63
     7
 74
     1
 91
        4
 64
     7
 65
   257
 75
     1
175
     1
 42
1.0
 92
        8
 66
     7
 43
1.0
 76
     1
 77
     6
 78
     2
 67
     7
 79
     5
170
     0
171
     0
290
     0
174
     0
 93
        1
 44
0.0
173
     0
291
     1
 45
0.0
1001
ACAD
1000
AcDbSavedByObjectVersion
1070
     0
  0
VISUALSTYLE
  5
2B
102
{ACAD_REACTORS
330
2A
102
}
330
2A
100
AcDbVisualStyle
  2
Flat
 70
     0
 71
     2
 72
     1
 73
     1
 90
        2
 40
-0.6
 41
30.0
 62
     5
 63
     7
 74
     0
 91
        4
 64
     7
 65
   257
 75
     1
175
     1
 42
1.0
 92
        8
 66
     7
 43
1.0
 76
     1
 77
     6
 78
     2
 67
     7
 79
     5
170
     0
171
     0
290
     0
174
     0
 93
       13
 44
0.0
173
     0
291
     1
 45
0.0
1001
ACAD
1000
AcDbSavedByObjectVersion
1070
     0
  0
VISUALSTYLE
  5
2C
102
{ACAD_REACTORS
330
2A
102
}
330
2A
100
AcDbVisualStyle
  2
FlatWithEdges
 70
     1
 71
     2
 72
     1
 73
     1
 90
        2
 40
-0.6
 41
30.0
 62
     5
 63
     7
 74
     1
 91
        4
 64
     7
 65
   257
 75
     1
175
     1
 42
1.0
 92
        0
 66
   257
 43
1.0
 76
     1
 77
     6
 78
     2
 67
     7
 79
     5
170
     0
171
     0
290
     0
174
     0
 93
       13
 44
0.0
173
     0
291
     1
 45
0.0
1001
ACAD
1000
AcDbSavedByObjectVersion
1070
     0
  0
VISUALSTYLE
  5
2D
102
{ACAD_REACTORS
330
2A
102
}
330
2A
100
AcDbVisualStyle
  2
Gouraud
 70
     2
 71
     2
 72
     2
 73
     1
 90
        2
 40
-0.6
 41
30.0
 62
     5
 63
     7
 74
     0
 91
        4
 64
     7
 65
   257
 75
     1
175
     1
 42
1.0
 92
        0
 66
     7
 43
1.0
 76
     1
 77
     6
 78
     2
 67
     7
 79
     5
170
     0
171
     0
290
     0
174
     0
 93
       13
 44
0.0
173
     0
291
     1
 45
0.0
1001
ACAD
1000
AcDbSavedByObjectVersion
1070
     0
  0
VISUALSTYLE
  5
2E
102
{ACAD_REACTORS
330
2A
102
}
330
2A
100
AcDbVisualStyle
  2
GouraudWithEdges
 70
     3
 71
     2
 72
     2
 73
     1
 90
        2
 40
-0.6
 41
30.0
 62
     5
 63
     7
 74
     1
 91
        4
 64
     7
 65
   257
 75
     1
175
     1
 42
1.0
 92
        0
 66
   257
 43
1.0
 76
     1
 77
     6
 78
     2
 67
     7
 79
     5
170
     0
171
     0
290
     0
174
     0
 93
       13
 44
0.0
173
     0
291
     1
 45
0.0
1001
ACAD
1000
AcDbSavedByObjectVersion
1070
     0
  0
VISUALSTYLE
  5
38
102
{ACAD_REACTORS
330
2A
102
}
330
2A
100
AcDbVisualStyle
  2
Linepattern
 70
    14
 71
     2
 72
     2
 73
     0
 90
        0
 40
-0.6
 41
-30.0
 62
     5
 63
     7
 74
     1
 91
        4
 64
     7
 65
   257
 75
     7
175
     7
 42
1.0
 92
        8
 66
     7
 43
1.0
 76
     1
 77
     6
 78
     2
 67
     7
 79
     5
170
     0
171
     0
290
     0
174
     0
 93
        1
 44
0.0
173
     0
291
     1
 45
0.0
1001
ACAD
1000
AcDbSavedByObjectVersion
1070
     0
  0
VISUALSTYLE
  5
33
102
{ACAD_REACTORS
330
2A
102
}
330
2A
100
AcDbVisualStyle
  2
Realistic
 70
     8
 71
     2
 72
     2
 73
     0
 90
        0
 40
-0.6
 41
-30.0
 62
     5
 63
     7
 74
     1
 91
        0
 64
     7
 65
   257
 75
     1
175
     1
 42
1.0
 92
        8
 66
     8
 43
1.0
 76
     1
 77
     6
 78
     2
 67
     7
 79
     5
170
     0
171
     0
290
     0
174
     0
 93
       13
 44
0.0
173
     0
291
     0
 45
0.0
1001
ACAD
1000
AcDbSavedByObjectVersion
1070
     0
  0
VISUALSTYLE
  5
37
102
{ACAD_REACTORS
330
2A
102
}
330
2A
100
AcDbVisualStyle
  2
Thicken
 70
    13
 71
     2
 72
     2
 73
     0
 90
        0
 40
-0.6
 41
-30.0
 62
     5
 63
     7
 74
     1
 91
        4
 64
     7
 65
   257
 75
     1
175
     1
 42
1.0
 92
       12
 66
     7
 43
1.0
 76
     1
 77
     6
 78
     2
 67
     7
 79
     5
170
     0
171
     0
290
     0
174
     0
 93
        1
 44
0.0
173
     0
291
     1
 45
0.0
1001
ACAD
1000
AcDbSavedByObjectVersion
1070
     0
  0
DICTIONARYVAR
  5
240
102
{ACAD_REACTORS
330
23F
102
}
330
23F
100
DictionaryVariables
280
     0
  1
1:1
  0
DICTIONARYVAR
  5
24C
102
{ACAD_REACTORS
330
23F
102
}
330
23F
100
DictionaryVariables
280
     0
  1
STANDARD
  0
DICTIONARYVAR
  5
2E9
102
{ACAD_REACTORS
330
23F
102
}
330
23F
100
DictionaryVariables
280
     0
  1
1
  0
DICTIONARYVAR
  5
2E8
102
{ACAD_REACTORS
330
23F
102
}
330
23F
100
DictionaryVariables
280
     0
  1
0
  0
DICTIONARYVAR
  5
2EB
102
{ACAD_REACTORS
330
23F
102
}
330
23F
100
DictionaryVariables
280
     0
  1
80.000000
  0
DICTIONARYVAR
  5
2EA
102
{ACAD_REACTORS
330
23F
102
}
330
23F
100
DictionaryVariables
280
     0
  1
5.000000
  0
DICTIONARYVAR
  5
2E7
102
{ACAD_REACTORS
330
23F
102
}
330
23F
100
DictionaryVariables
280
     0
  1
127
  0
DICTIONARY
  5
2CB
330
26
100
AcDbDictionary
280
     1
281
     1
  3
ACAD_XREC_ROUNDTRIP
360
2EF
  3
ADSK_XREC_LAYOUTTHUMBNAIL
360
2CC
  0
DICTIONARY
  5
2ED
330
22
100
AcDbDictionary
280
     1
281
     1
  3
ACAD_XREC_ROUNDTRIP
360
2EE
  0
DICTIONARY
  5
2F8
330
2D7
100
AcDbDictionary
280
     1
281
     1
  3
ACAD_XREC_ROUNDTRIP
360
2F9
  0
DICTIONARY
  5
2F6
330
2D6
100
AcDbDictionary
280
     1
281
     1
  3
ACAD_XREC_ROUNDTRIP
360
2F7
  0
DICTIONARY
  5
2FA
330
2D8
100
AcDbDictionary
280
     1
281
     1
  3
ACAD_XREC_ROUNDTRIP
360
2FB
  0
DICTIONARY
  5
2F0
330
248
100
AcDbDictionary
280
     1
281
     1
  3
ACAD_XREC_ROUNDTRIP
360
2F1
  0
XRECORD
  5
2EF
102
{ACAD_REACTORS
330
2CB
102
}
330
2CB
100
AcDbXrecord
280
     1
102
SHADEPLOT
 70
     0
102
SHADEPLOTRESLEVEL
 70
     2
102
SHADEPLOTCUSTOMDPI
 70
   300
  0
XRECORD
  5
2CC
102
{ACAD_REACTORS
330
2CB
102
}
330
2CB
100
AcDbXrecord
280
     1
310
28000000B4000000870000000100080000000000EC5E0000000000000000000000010000000000000000000000000000FFFFFF000000000000000000000000000000000000000000000000000000000000000000330000006600000099000000CC000000FF00000000330000333300006633000099330000CC330000FF3300
310
0000660000336600006666000099660000CC660000FF66000000990000339900006699000099990000CC990000FF99000000CC000033CC000066CC000099CC0000CCCC0000FFCC000000FF000033FF000066FF000099FF0000CCFF0000FFFF000000003300330033006600330099003300CC003300FF003300003333003333
310
33006633330099333300CC333300FF33330000663300336633006666330099663300CC663300FF66330000993300339933006699330099993300CC993300FF99330000CC330033CC330066CC330099CC3300CCCC3300FFCC330000FF330033FF330066FF330099FF3300CCFF3300FFFF330000006600330066006600660099
310
006600CC006600FF00660000336600333366006633660099336600CC336600FF33660000666600336666006666660099666600CC666600FF66660000996600339966006699660099996600CC996600FF99660000CC660033CC660066CC660099CC6600CCCC6600FFCC660000FF660033FF660066FF660099FF6600CCFF6600
310
FFFF660000009900330099006600990099009900CC009900FF00990000339900333399006633990099339900CC339900FF33990000669900336699006666990099669900CC669900FF66990000999900339999006699990099999900CC999900FF99990000CC990033CC990066CC990099CC9900CCCC9900FFCC990000FF99
310
0033FF990066FF990099FF9900CCFF9900FFFF99000000CC003300CC006600CC009900CC00CC00CC00FF00CC000033CC003333CC006633CC009933CC00CC33CC00FF33CC000066CC003366CC006666CC009966CC00CC66CC00FF66CC000099CC003399CC006699CC009999CC00CC99CC00FF99CC0000CCCC0033CCCC0066CC
310
CC0099CCCC00CCCCCC00FFCCCC0000FFCC0033FFCC0066FFCC0099FFCC00CCFFCC00FFFFCC000000FF003300FF006600FF009900FF00CC00FF00FF00FF000033FF003333FF006633FF009933FF00CC33FF00FF33FF000066FF003366FF006666FF009966FF00CC66FF00FF66FF000099FF003399FF006699FF009999FF00CC
310
99FF00FF99FF0000CCFF0033CCFF0066CCFF0099CCFF00CCCCFF00FFCCFF0000FFFF0033FFFF0066FFFF0099FFFF00CCFFFF00FFFFFF00000000000D0D0D001A1A1A00282828003535350043434300505050005D5D5D006B6B6B00787878008686860093939300A1A1A100AEAEAE00BBBBBB00C9C9C900D6D6D600E4E4E400
310
F1F1F100FFFFFF0000000000000000000000000000000000000000000000000000000000000000000000000000000000F5F5F5F5F5F5F5F5F5F5F5F5F5F5F5F5F5F5F5F5F5F5F5F5F5F5F5F5F5F5F5F5F5F5F5F5F5F5F5F5F5F5F5F5F5F5F5F5F5F5F5F5F5F5F5F5F5F5F5F5F5F5F5F5F5F5F5F5F5F5F5F5F5F5F5F5F5F5F5
310
F5F5F5F5F5F5F5F5F5F5F5F5F5F5F5F5F5F5F5F5F5F5F5F5F5F5F5F5F5F5F5F5F5F5F5F5F5F5F5F5F5F5F5F5F5F5F5F5F5F5F5F5F5F5F5F5F5F5F5F5F5F5F5F5F5F5F5F5F5F5F5F5F5F5F5F5F5F5F5F5F5F5F5F5F5F5F5F5F5F5F5F5F5F5F5F5F5F5F5E2E2F5E2E2E2E2E2E2E2E2E2E2E2E2E2E2E2E2E2E2E2E2E2E2E2E2E2
310
E2E2E2E2E2E2E2E2E2E2E2E2E2E2E2E2E2E2E2E2E2E2E2E2E2E2E2E2E2E2E2E2E2E2E2E2E2E2E2E2E2E2E2E2E2E2E2E2E2E2E2E2E2E2E2E2E2E2E2E2E2E2E2E2E2E2E2E2E2E2E2E2E2E2E2E2E2E2E2E2E2E2E2E2E2E2E2E2E2E2E2E2E2E2E2E2E2E2E2E2E2E2E2E2E2E2E2E2E2E2E2E2E2E2E2E2E2E2E2E2E2E2E2E2E2E2E2
310
E2E2E2E2E2E2E2E2E2E2E2E2E2E2E2E2E2E2E2E2E2E2E2E2F5E2E2F5E2E2E2E2E2E2E2E2E2E2E2E2E2E2E2E2E2E2E2E2E2E2E2E2E2E2E2E2E2E2E2E2E2E2E2E2E2F5F5F5F5F5F5F5F5F5F5F5F5F5F5F5E2E2E2E2E2E2E2E2E2E2E2E2E2E2E2E2E2E2E2E2E2E2E2E2E2E2E2E2E2E2E2E2E2E2E2E2E2E2E2E2E2E2E2E2E2E2E2
310
E2E2E2E2E2E2E2E2E2E2E2E2E2E2E2E2E2E2E2E2E2E2E2E2E2E2E2E2E2F5F5F5F5F5F5F5F5F5F5F5F5F5F5F5E2E2E2E2E2E2E2E2E2E2E2E2E2E2E2E2E2E2E2E2E2E2E2E2E2E2E2E2E2E2E2E2E2F5E2E2F5E2E2E2E2E2E2E2E2E2E2E2E2E2E2E2E2E2E2E2E2E2E2E2E2E2E2E2E2E2E2E2E2E2E2E2E2E2F5E2E2E2E2E2E2E2E2
310
E2E2E2E2E2F5F5E2E2E2E2E2E2E2E2E2E2E2E2E2E2E2E2E2E2E2E2E2E2E2E2E2E2E2E2E2E2E2E2E2E2E2E2E2E2E2E2E2E2E2E2E2E2E2E2E2E2E2E2E2E2E2E2E2E2E2E2E2E2E2E2E2E2E2E2E2E2E2E2E2E2E2F5E2E2E2E2E2E2E2E2E2E2E2E2E2E2F5E2E2E2E2E2E2E2E2E2E2E2E2E2E2E2E2E2E2E2E2E2E2E2E2E2E2E2E2E2
310
E2E2E2F5E2E2F5E2E2E2E2E2E2E2E2E2E2E2E2E2E2E2E2E2E2E2E2E2E2E2E2E2E2E2E2E2E2E2E2E2E2E2E2E2F5E2E2E2E2E2E2E2E2E2E2E2E2E2E2F5E2E2E2E2E2E2E2E2E2E2E2E2E2E2E2E2E2E2E2E2E2E2E2E2E2E2E2E2E2E2E2E2E2E2E2E2E2E2E2E2E2E2E2E2E2E2E2E2E2E2E2E2E2E2E2E2E2E2E2E2E2E2E2E2E2E2E2
310
E2E2E2E2E2E2E2E2F5E2E2E2E2E2E2F5F5F5F5F5E2E2E2F5E2E2E2E2E2E2E2E2E2E2E2E2E2E2E2E2E2E2E2E2E2E2E2E2E2E2E2E2E2E2E2E2F5E2E2F5E2E2E2E2E2E2E2E2E2E2E2E2E2E2E2E2E2E2E2E2E2E2E2E2E2E2E2E2E2E2E2E2E2E2E2E2E2F5E2E2E2E2E2E2E2E2E2E2E2E2E2E2F5E2E2E2E2E2E2E2E2E2E2E2E2E2E2
310
E2E2E2E2E2E2E2E2E2E2E2E2E2E2E2E2E2E2E2E2E2E2E2E2E2E2E2E2E2E2E2E2E2E2E2E2E2E2E2E2E2E2E2E2E2E2E2E2E2E2E2E2E2E2E2E2E2E2E2E2E2F5E2E2E2E2E2E2E2E2E2E2E2F5F5F5F5F5F5F5F5F5F5E2E2E2E2E2E2E2E2E2E2E2E2E2E2E2E2E2E2E2E2E2E2E2E2E2E2F5E2E2F5E2E2E2E2E2E2E2E2E2E2E2E2E2E2
310
E2E2E2E2E2E2E2E2E2E2E2E2E2E2E2E2E2E2E2E2E2E2E2F5E2E2E2E2E2E2E2E2E2E2E2E2E2E2F5E2E2E2E2E2E2E2E2E2E2E2E2E2E2E2E2E2E2E2E2E2E2E2E2E2E2E2E2E2E2E2E2E2E2E2E2E2E2E2E2E2E2E2E2E2E2E2E2E2E2E2E2E2E2E2E2E2E2E2E2E2E2E2E2E2E2E2E2E2E2E2E2E2E2E2F5E2E2E2E2E2E2E2E2E2E2E2E2
310
E2E2E2E2E2E2E2E2E2F5F5E2E2E2E2E2E2E2E2E2E2E2E2E2E2E2E2E2E2E2E2E2E2E2E2F5E2E2F5E2E2E2E2E2E2E2E2E2E2E2E2E2E2E2E2E2E2E2E2E2E2E2E2E2E2E2E2E2E2E2E2E2E2E2E2E2F5E2E2E2E2E2E2E2E2E2E2E2E2E2E2F5E2E2E2E2E2E2E2E2E2E2E2E2E2E2E2E2E2E2E2E2E2E2E2E2E2E2E2E2E2E2E2E2E2E2E2
310
E2E2E2E2E2E2E2E2E2E2E2E2E2E2E2E2E2E2E2E2E2E2E2E2E2E2E2E2E2E2E2E2E2E2E2E2E2E2E2E2F5E2E2E2E2E2E2E2E2E2E2E2E2E2E2E2E2E2E2E2E2E2E2E2F5F5F5E2E2E2E2E2E2E2E2E2E2E2E2E2E2E2E2E2E2E2E2E2F5E2E2F5E2E2E2E2E2E2E2E2E2E2E2E2E2E2E2E2E2E2E2E2E2E2E2E2E2E2E2E2E2E2E2E2E2E2E2
310
E2E2F5E2E2E2E2E2E2E2E2E2E2E2E2E2E2F5E2E2E2E2E2E2E2E2E2E2E2E2E2E2E2E2E2E2E2E2E2E2E2E2E2E2E2E2E2E2E2E2E2E2E2E2E2E2E2E2E2E2E2E2E2E2E2E2E2E2E2E2E2E2E2E2E2E2E2E2E2E2E2E2E2E2E2E2E2E2E2E2E2E2E2F5E2E2E2E2E2E2E2E2E2E2E2E2E2E2E2E2E2E2E2E2E2E2E2E2E2E2F5E2E2E2E2E2E2
310
E2E2E2E2E2E2E2E2E2E2E2E2E2E2F5E2E2F5E2E2E2E2E2E2E2E2E2E2E2E2E2E2E2E2E2E2E2E2E2E2E2E2E2E2E2E2E2E2E2E2E2E2E2F5F5F5F5F5F5F5F5F5F5F5F5F5F5F5F5F5F5F5E2E2E2E2E2E2E2E2E2E2E2E2E2E2E2E2E2E2E2E2E2E2E2E2E2E2E2E2E2E2E2E2E2E2E2E2E2E2E2E2E2E2E2E2E2E2E2E2E2E2E2E2E2E2E2
310
E2E2E2E2E2E2E2E2E2E2E2E2E2E2E2E2E2F5F5F5F5F5F5F5F5F5F5F5F5F5F5F5E2E2E2E2E2E2E2E2E2E2E2E2E2E2E2F5E2E2E2E2E2E2E2E2E2E2E2E2E2E2E2E2E2E2E2F5E2E2F5E2E2E2E2E2E2E2E2E2E2E2E2E2E2E2E2E2E2E2E2E2E2E2E2E2E2E2E2E2E2E2E2F5F5F5E2E2E2E2E2E2E2E2E2E2E2E2E2E2E2E2E2E2E2F5F5
310
F5F5E2E2E2E2E2E2E2E2E2E2E2E2E2E2E2E2E2E2E2E2E2E2E2E2E2E2E2E2E2E2E2E2E2E2E2E2E2E2E2E2E2E2E2E2E2E2E2E2E2E2E2E2E2E2E2E2E2E2E2E2E2E2E2E2E2F5F5F5F5E2E2E2E2E2E2E2E2E2E2E2E2E2E2F5F5F5F5F5F5F5F5E2E2E2E2E2E2E2E2F5F5E2E2E2E2E2E2E2E2E2E2E2E2E2E2E2E2E2F5E2E2F5E2E2E2
310
E2E2E2E2E2E2E2E2E2E2E2E2E2E2E2E2E2E2E2E2E2E2E2E2E2E2F5F5F5E2E2E2E2E2E2E2E2E2E2E2E2E2E2E2E2E2E2E2E2E2E2E2E2E2E2F5F5E2E2E2E2E2E2E2E2E2E2E2E2E2E2E2E2E2E2E2E2E2E2E2E2E2E2E2E2E2E2E2E2E2E2E2E2E2E2E2E2E2E2E2E2E2E2E2E2E2E2E2E2E2E2E2E2E2E2E2E2E2F5F5E2E2E2E2E2E2E2
310
E2E2E2E2E2E2E2E2E2E2E2E2E2E2E2E2E2E2E2F5F5E2E2E2E2E2E2E2E2F5E2E2E2E2E2E2E2E2E2E2E2E2E2E2E2E2F5E2E2F5E2E2E2E2E2E2E2E2E2E2E2E2E2E2E2E2E2E2E2E2E2E2E2E2E2E2E2F5F5F5E2E2E2E2E2E2E2E2E2E2E2E2E2E2E2E2E2E2E2E2E2E2E2E2E2E2E2E2E2E2F5F5E2E2E2E2E2E2E2E2E2E2E2E2E2E2E2
310
E2E2E2E2E2E2E2E2E2E2E2E2E2E2E2E2E2E2E2E2E2E2E2E2E2E2E2E2E2E2E2E2E2E2E2E2E2E2E2E2E2E2F5F5E2E2E2E2E2E2E2E2E2E2E2E2E2E2E2E2E2E2E2E2E2E2E2E2E2E2E2E2E2E2F5F5E2E2E2E2E2E2E2F5E2E2E2E2E2E2E2E2E2E2E2E2E2E2E2F5E2E2F5E2E2E2E2E2E2E2E2E2E2E2E2E2E2E2E2E2E2E2E2E2E2E2E2
310
E2F5F5F5E2E2E2E2E2E2E2E2E2E2E2E2E2E2E2E2E2E2E2E2E2E2E2E2E2E2E2E2E2E2E2E2E2E2F5F5E2E2E2E2E2E2E2E2E2E2E2E2E2E2E2E2E2E2E2E2E2E2E2E2E2E2E2E2E2E2E2E2E2E2E2E2E2E2E2E2E2E2E2E2E2E2E2E2E2E2E2E2E2E2F5E2E2E2E2E2E2E2E2E2E2E2E2E2E2E2E2E2E2E2E2E2E2E2E2E2E2E2E2E2E2E2E2
310
E2E2F5E2E2E2E2E2E2E2F5E2E2E2E2E2E2E2E2E2E2E2E2E2E2F5E2E2F5E2E2E2E2E2E2E2E2E2E2E2E2E2E2E2E2E2E2E2E2E2E2E2E2F5F5E2E2E2E2E2E2E2E2E2E2E2E2E2E2E2E2E2E2E2E2E2E2E2E2E2E2E2E2E2E2E2E2E2E2E2E2E2E2F5F5E2E2E2E2E2E2E2E2E2E2E2E2E2E2E2E2E2E2E2E2E2E2E2E2E2E2E2E2E2E2E2E2
310
E2E2E2E2E2E2E2E2E2E2E2E2E2E2E2E2E2E2F5F5E2E2E2E2E2E2E2E2E2E2E2E2E2E2E2E2E2E2E2E2E2E2E2E2E2E2E2E2E2E2E2E2E2E2E2E2F5F5E2E2E2E2E2E2F5E2E2E2E2E2E2E2E2E2E2E2E2E2F5E2E2F5E2E2E2E2E2E2E2E2E2E2E2E2E2E2E2E2E2E2E2E2E2E2F5F5E2E2E2E2E2E2E2E2E2E2E2E2E2E2E2E2E2E2E2E2E2
310
E2E2E2E2E2E2E2E2E2E2E2E2E2E2E2E2E2E2E2E2F5F5E2E2E2E2E2E2E2E2E2E2E2E2E2E2E2E2E2E2E2E2E2E2E2E2E2E2E2E2E2E2E2E2E2E2E2E2E2E2E2E2E2E2E2E2E2E2E2E2F5F5E2E2E2E2E2E2E2E2E2E2E2E2E2E2E2E2E2E2E2E2E2E2E2E2E2E2E2E2E2E2E2E2E2E2E2E2E2E2F5F5E2E2E2E2E2E2F5E2E2E2E2E2E2E2E2
310
E2E2E2E2F5E2E2F5E2E2E2E2E2E2E2E2E2E2E2E2E2E2E2E2E2E2E2E2E2F5F5E2E2E2E2E2E2E2E2E2E2E2E2E2E2E2E2E2E2E2E2E2E2E2E2E2E2E2E2E2E2E2E2E2E2E2E2E2E2E2E2E2E2E2E2F5F5E2E2E2E2E2E2E2E2E2E2E2E2E2E2E2E2E2E2E2E2E2E2E2E2E2E2E2E2E2E2E2E2E2E2E2E2E2E2E2E2E2E2E2E2E2F5E2E2E2E2
310
E2E2E2E2E2E2E2E2E2E2E2E2E2E2E2E2E2E2E2E2E2E2E2E2E2E2E2E2E2E2E2E2E2E2E2E2E2F5F5E2E2E2E2E2E2F5E2E2E2E2E2E2E2E2E2E2E2F5E2E2F5E2E2E2E2E2E2E2E2E2E2E2E2E2E2E2E2E2E2E2E2F5E2E2E2E2E2E2E2E2E2E2E2E2E2E2E2E2E2E2E2E2E2E2E2E2E2E2E2E2E2E2E2E2E2E2E2E2E2E2E2E2E2E2E2E2E2
310
E2E2F5F5E2E2E2E2E2E2E2E2E2E2E2E2E2E2E2E2E2E2E2E2E2E2E2E2E2E2E2E2E2E2E2E2E2E2E2E2E2E2E2E2E2E2E2F5E2E2E2E2E2E2E2E2E2E2E2E2E2E2E2E2E2E2E2E2E2E2E2E2E2E2E2E2E2E2E2E2E2E2E2E2E2E2E2E2E2E2E2F5F5E2E2E2E2E2E2F5E2E2E2E2E2E2E2E2E2E2F5E2E2F5E2E2E2E2E2E2E2E2E2E2E2E2E2
310
E2E2E2E2E2F5F5E2E2E2E2E2E2E2E2E2E2E2E2E2E2E2E2E2E2E2E2E2E2E2E2E2E2E2E2E2E2E2E2E2E2E2E2E2E2E2E2E2E2E2E2E2E2E2E2E2F5F5E2E2E2E2E2E2E2E2E2E2E2E2E2E2E2E2E2E2E2E2E2E2E2E2E2E2E2E2E2E2E2E2E2E2E2E2E2E2E2E2E2F5E2E2E2E2E2E2E2E2E2E2E2E2E2E2E2E2E2E2E2E2E2E2E2E2E2E2E2
310
E2E2E2E2E2E2E2E2E2E2E2E2E2E2E2E2E2E2F5F5E2E2E2E2E2F5E2E2E2E2E2E2E2E2E2E2F5E2E2F5E2E2E2E2E2E2E2E2E2E2E2E2E2E2E2E2E2F5F5E2E2E2E2E2E2E2E2E2E2E2E2E2E2E2E2E2E2E2E2E2E2E2E2E2E2E2E2E2E2E2E2E2E2E2E2E2E2E2E2E2E2E2E2E2E2E2E2E2E2E2E2F5E2E2E2E2E2E2E2E2E2E2E2E2E2E2E2
310
E2E2E2E2E2E2E2E2E2E2E2E2E2E2E2E2E2E2E2E2E2E2E2E2F5E2E2E2E2E2E2E2E2E2E2E2E2E2E2E2E2E2E2E2E2E2E2E2E2E2E2E2E2E2E2E2E2E2E2E2E2E2E2E2E2E2E2E2E2E2E2E2F5F5E2E2E2E2E2F5E2E2E2E2E2E2E2E2E2F5E2E2F5E2E2E2E2E2E2E2E2E2E2E2E2E2E2E2E2F5F5E2E2E2E2E2E2E2E2E2E2E2E2E2E2E2E2
310
E2E2E2E2E2E2E2E2E2E2E2E2E2E2E2E2E2E2E2E2E2E2E2E2E2E2E2E2E2E2E2E2E2E2E2E2E2E2F5E2E2E2E2E2E2E2E2E2E2E2E2E2E2E2E2E2E2E2E2E2E2E2E2E2E2E2E2E2E2E2E2E2E2E2E2E2F5E2E2E2E2E2E2E2E2E2E2E2E2E2E2E2E2E2E2E2E2E2E2E2E2E2E2E2E2E2E2E2E2E2E2E2E2E2E2E2E2E2E2E2E2E2E2E2E2E2E2
310
F5E2E2E2E2E2F5E2E2E2E2E2E2E2E2F5E2E2F5E2E2E2E2E2E2E2E2E2E2E2E2E2E2E2F5F5E2E2E2E2E2E2E2E2E2E2E2E2E2E2E2E2E2E2E2E2E2E2E2E2E2E2E2E2E2E2E2E2E2E2E2E2E2E2E2E2E2E2E2E2E2E2E2E2E2E2E2E2E2E2E2E2F5E2E2E2E2E2E2E2E2E2E2E2E2E2E2E2E2E2E2E2E2E2E2E2E2E2E2E2E2E2E2E2E2E2E2
310
E2F5E2E2E2E2E2E2E2E2E2E2E2E2E2E2E2E2E2E2E2E2E2E2E2E2E2E2E2E2E2E2E2E2E2E2E2E2E2E2E2E2E2E2E2E2E2E2E2E2E2E2E2E2F5E2E2E2E2F5E2E2E2E2E2E2E2E2F5E2E2F5E2E2E2E2E2E2E2E2E2E2E2E2E2E2F5F5E2E2E2E2E2E2E2E2E2E2E2E2E2E2E2E2E2E2E2E2E2E2E2E2E2E2E2E2E2E2E2E2E2E2E2E2E2E2E2
310
E2E2E2E2E2E2E2E2E2E2E2E2E2E2E2E2E2E2E2F5E2E2E2E2E2E2E2E2E2E2E2E2E2E2E2E2E2E2E2E2E2E2E2E2E2E2E2E2E2E2E2E2E2F5E2E2E2E2E2E2E2E2E2E2E2E2E2E2E2E2E2E2E2E2E2E2E2E2E2E2E2E2E2E2E2E2E2E2E2E2E2E2E2E2E2E2E2E2E2E2E2E2E2E2E2E2E2F5E2E2E2E2E2F5E2E2E2E2E2E2E2F5E2E2F5E2E2
310
E2E2E2E2E2E2E2E2E2E2E2F5F5E2E2E2E2E2E2E2E2E2E2E2E2E2E2E2E2E2E2E2E2E2E2E2E2E2E2E2E2E2E2E2E2E2E2E2E2E2E2E2E2E2E2E2E2E2E2E2E2E2E2E2E2E2E2E2E2E2E2E2E2F5E2E2E2E2E2E2E2E2E2E2E2E2E2E2E2E2E2E2E2E2E2E2E2E2E2E2E2E2E2E2E2F5F5E2E2E2E2E2E2E2E2E2E2E2E2E2E2E2E2E2E2E2E2
310
E2E2E2E2E2E2E2E2E2E2E2E2E2E2E2E2E2E2E2E2E2E2E2E2E2E2E2E2E2E2E2E2E2E2F5E2E2E2E2E2F5E2E2E2E2E2E2F5E2E2F5E2E2E2E2E2E2E2E2E2E2E2E2F5F5E2E2E2E2E2E2E2E2E2E2E2E2E2E2E2E2E2E2E2E2E2E2E2E2E2E2E2E2E2E2E2E2E2E2E2E2E2E2E2E2E2E2E2E2E2E2E2E2E2E2E2E2E2E2E2E2E2E2E2E2E2E2
310
F5E2E2E2E2E2E2E2E2E2E2E2E2E2E2E2E2E2E2E2E2E2E2E2E2E2E2E2E2E2E2F5E2E2E2E2E2E2E2E2E2E2E2E2E2E2E2E2E2E2E2E2E2E2E2E2E2E2E2E2E2E2E2E2E2E2E2E2E2E2E2E2E2E2E2E2E2E2E2E2E2E2E2E2E2E2E2E2F5E2E2E2E2E2F5E2E2E2E2E2F5E2E2F5E2E2E2E2E2E2E2E2E2E2E2E2F5E2E2E2E2E2E2E2E2E2E2
310
E2E2E2E2E2E2E2E2E2E2E2E2E2E2E2E2E2E2E2E2E2E2E2E2E2E2E2E2E2E2E2E2E2E2E2E2E2E2E2E2E2E2E2E2E2E2E2E2E2E2E2E2E2E2F5E2E2E2E2E2E2E2E2E2E2E2E2E2E2E2E2E2E2E2E2E2E2E2E2E2E2E2E2F5E2E2E2E2E2E2E2E2E2E2E2E2E2E2E2E2E2E2E2E2E2E2E2E2E2E2E2E2E2E2E2E2E2E2E2E2E2E2E2E2E2E2E2
310
E2E2E2E2E2E2E2E2E2E2E2E2E2E2E2F5E2E2E2E2F5E2E2E2E2E2F5E2E2F5E2E2E2E2E2E2E2E2E2E2E2F5E2E2E2E2E2E2E2E2E2E2E2E2E2E2E2E2E2E2E2E2E2E2E2E2E2E2E2E2E2E2E2E2E2E2E2E2E2E2E2E2E2E2E2E2E2E2E2E2E2E2E2E2E2E2E2E2E2E2E2E2E2E2E2E2E2E2F5E2E2E2E2E2E2E2E2E2E2E2E2E2E2E2E2E2E2
310
E2E2E2E2E2E2E2E2E2F5E2E2E2E2E2E2E2E2E2E2E2E2E2E2E2E2E2E2E2E2E2E2E2E2E2E2E2E2E2E2E2E2E2E2E2E2E2E2E2E2E2E2E2E2E2E2E2E2E2E2E2E2E2E2E2E2E2E2F5E2E2E2E2F5E2E2E2E2E2F5E2E2F5E2E2E2E2E2E2E2E2E2E2E2F5E2E2E2E2E2E2E2E2E2E2E2E2E2E2E2E2E2E2E2E2E2E2E2E2E2E2E2E2E2E2E2E2
310
E2E2E2E2E2E2E2E2E2E2E2E2E2E2E2E2E2E2E2E2E2E2E2E2E2E2E2E2E2E2E2E2E2E2E2F5E2E2E2E2E2E2E2E2E2E2E2E2E2E2E2E2E2E2E2E2E2E2E2E2E2F5E2E2E2E2E2E2E2E2E2E2E2E2E2E2E2E2E2E2E2E2E2E2E2E2E2E2E2E2E2E2E2E2E2E2E2E2E2E2E2E2E2E2E2E2E2E2E2E2E2E2E2E2E2E2E2E2E2E2E2E2F5E2E2E2E2
310
F5E2E2E2E2F5E2E2F5E2E2E2E2E2E2E2E2E2E2F5E2E2E2E2E2E2E2E2E2E2E2E2E2E2E2E2E2E2E2E2E2E2E2E2E2E2E2E2E2E2E2E2E2E2E2E2E2E2E2E2E2E2E2E2E2E2E2E2E2E2E2E2E2E2E2E2E2E2E2E2E2E2E2E2E2E2E2E2F5E2E2E2E2E2E2E2E2E2E2E2E2E2E2E2E2E2E2E2E2E2E2E2E2F5E2E2E2E2E2E2E2E2E2E2E2E2E2
310
E2E2E2E2E2E2E2E2E2E2E2E2E2E2E2E2E2E2E2E2E2E2E2E2E2E2E2E2E2E2E2E2E2E2E2E2E2E2E2E2E2E2E2E2E2E2E2E2E2F5E2E2E2E2F5E2E2E2F5E2E2F5E2E2E2E2E2E2E2E2E2F5E2E2E2E2E2E2E2E2E2E2E2E2E2E2E2E2E2E2E2E2E2E2E2E2E2E2E2E2E2E2E2E2E2E2E2E2E2E2E2E2E2E2E2E2E2E2E2E2E2E2E2E2E2E2E2
310
E2E2E2E2E2E2E2E2E2E2E2E2E2E2E2F5E2E2E2E2E2E2E2E2E2E2E2E2E2E2E2E2E2E2E2E2E2E2F5E2E2E2E2E2E2E2E2E2E2E2E2E2E2E2E2E2E2E2E2E2E2E2E2E2E2E2E2E2E2E2E2E2E2E2E2E2E2E2E2E2E2E2E2E2E2E2E2E2E2E2E2E2E2E2E2E2E2E2E2E2E2E2F5E2E2E2E2F5E2E2E2F5E2E2F5E2E2E2E2E2E2E2E2F5E2E2E2
310
E2E2E2E2E2E2E2E2E2E2E2E2E2E2E2E2E2E2E2E2E2E2E2E2E2E2E2E2E2E2E2E2E2E2E2E2E2E2E2E2E2E2E2E2E2E2E2E2E2E2E2E2E2E2E2E2E2E2E2E2E2E2E2E2E2E2E2E2E2F5E2E2E2E2E2E2E2E2E2E2E2E2E2E2E2E2E2E2E2E2E2F5E2E2E2E2E2E2E2E2E2E2E2E2E2E2E2E2E2E2E2E2E2E2E2E2E2E2E2E2E2E2E2E2E2E2E2
310
E2E2E2E2E2E2E2E2E2E2E2E2E2E2E2E2E2E2E2E2E2E2E2E2E2E2E2E2E2F5E2E2E2F5E2E2E2F5E2E2F5E2E2E2E2E2E2E2E2F5E2E2E2E2E2E2E2E2E2E2E2E2E2E2E2E2E2E2E2E2E2E2E2E2E2E2E2E2E2E2E2E2E2E2E2E2E2E2E2E2E2E2E2E2E2E2E2E2E2E2E2E2E2E2E2E2E2E2E2E2E2E2E2E2E2E2E2E2E2E2E2E2E2F5E2E2E2
310
E2E2E2E2E2E2E2E2E2E2E2E2E2E2E2E2E2F5E2E2E2E2E2E2E2E2E2E2E2E2E2E2E2E2E2E2E2E2E2E2E2E2E2E2E2E2E2E2E2E2E2E2E2E2E2E2E2E2E2E2E2E2E2E2E2E2E2E2E2E2E2E2E2E2E2E2E2E2E2E2E2E2E2F5E2E2E2F5E2E2F5E2E2F5E2E2E2E2E2E2E2F5E2E2E2E2E2E2E2E2E2E2E2E2E2E2E2E2E2E2E2E2E2E2E2E2E2
310
E2E2E2E2E2E2E2E2E2E2E2E2E2E2E2E2E2E2E2E2E2E2E2E2E2E2E2E2E2E2E2E2E2E2E2E2E2E2E2E2E2E2E2E2E2E2E2E2E2F5E2E2E2E2E2E2E2E2E2E2E2E2E2E2E2E2E2E2E2F5E2E2E2E2E2E2E2E2E2E2E2E2E2E2E2E2E2E2E2E2E2E2E2E2E2E2E2E2E2E2E2E2E2E2E2E2E2E2E2E2E2E2E2E2E2E2E2E2E2E2E2E2E2E2E2E2E2
310
E2E2E2E2E2E2E2E2E2F5E2E2E2F5E2E2F5E2E2F5E2E2E2E2E2E2F5E2E2E2E2E2E2E2E2E2E2E2E2E2E2E2E2E2E2E2E2E2E2E2E2E2E2E2E2E2E2E2E2E2E2E2E2E2E2E2E2E2E2E2E2E2E2E2E2E2E2E2E2E2E2E2E2E2E2E2E2E2E2E2E2E2E2E2E2E2E2E2E2E2E2E2E2F5E2E2E2E2E2E2E2E2E2E2E2E2E2E2E2E2E2F5E2E2E2E2E2
310
E2E2E2E2E2E2E2E2E2E2E2E2E2E2E2E2E2E2E2E2E2E2E2E2E2E2E2E2E2E2E2E2E2E2E2E2E2E2E2E2E2E2E2E2E2E2E2E2E2E2E2E2E2E2E2E2E2E2E2E2E2E2E2F5E2E2F5E2E2F5E2E2F5E2E2E2E2E2F5E2E2E2E2E2E2E2E2E2E2E2E2E2E2E2E2E2E2E2E2E2E2E2E2E2E2E2E2E2E2E2E2E2E2E2E2E2E2E2E2E2E2E2E2E2E2E2E2
310
E2E2E2E2E2E2E2E2E2E2E2E2E2E2E2E2E2E2E2E2E2E2E2E2E2E2E2E2E2E2F5E2E2E2E2E2E2E2E2E2E2E2E2E2E2E2F5E2E2E2E2E2E2E2E2E2E2E2E2E2E2E2E2E2E2E2E2E2E2E2E2E2E2E2E2E2E2E2E2E2E2E2E2E2E2E2E2E2E2E2E2E2E2E2E2E2E2E2E2E2E2E2E2E2E2E2E2E2E2E2E2E2E2E2E2E2F5E2E2F5E2E2F5E2E2F5E2
310
E2E2E2E2F5E2E2E2E2E2E2E2E2E2E2E2E2E2E2E2E2E2E2E2E2E2E2E2E2E2E2E2E2E2E2E2E2E2E2E2E2E2E2E2E2E2E2E2E2E2E2E2E2E2E2E2E2E2E2E2E2E2E2E2E2E2E2E2E2E2E2E2E2E2E2E2E2E2E2E2E2E2E2F5E2E2E2E2E2E2E2E2E2E2E2E2E2E2E2F5E2E2E2E2E2E2E2E2E2E2E2E2E2E2E2E2E2E2E2E2E2E2E2E2E2E2E2
310
E2E2E2E2E2E2E2E2E2E2E2E2E2E2E2E2E2E2E2E2E2E2E2E2E2E2E2E2E2E2E2E2E2E2E2E2E2E2E2E2E2E2E2F5E2F5E2E2F5E2E2F5E2F5F5F5F5F5F5F5F5F5F5F5F5F5F5F5F5F5F5F5F5F5F5F5F5F5F5F5F5F5F5F5F5F5F5F5F5F5F5F5F5F5F5F5F5F5F5F5F5F5F5F5F5F5F5F5F5F5F5F5F5F5F5F5F5F5F5F5F5F5F5F5F5F5F5
310
F5F5F5F5F5F5F5F5F5F5F5F5F5F5E2E2E2E2E2E2E2F5F5F5F5F5F5F5F5F5F5F5F5F5F5F5F5F5F5F5F5F5F5F5F5F5F5F5F5F5F5F5F5F5F5F5F5F5F5F5F5F5F5F5F5F5F5F5F5F5F5F5F5F5F5F5F5F5F5F5F5F5F5F5F5F5F5F5F5F5F5F5F5F5F5F5F5F5F5F5E2F5E2E2F5F5E2E2E2E2E2E2E2E2E2E2E2E2E2E2E2E2E2E2E2E2E2
310
E2E2E2E2E2E2E2E2E2E2E2E2E2E2E2E2E2E2E2E2E2E2E2E2E2E2E2E2E2E2E2E2E2E2E2E2E2E2E2E2E2E2E2E2E2E2E2E2E2E2E2E2E2E2E2E2E2E2E2E2E2E2E2E2E2E2F5E2E2E2E2E2E2E2F5E2E2E2E2E2E2E2E2E2E2E2E2E2E2E2E2E2E2E2E2E2E2E2E2E2E2E2E2E2E2E2E2E2E2E2E2E2E2E2E2E2E2E2E2E2E2E2E2E2E2E2E2
310
E2E2E2E2E2E2E2E2E2E2E2E2E2E2E2E2E2E2E2E2E2E2E2E2E2E2F5F5E2E2F5F5E2E2E2E2E2E2E2E2E2E2E2E2E2E2E2E2E2E2E2E2E2E2E2E2E2E2E2E2E2E2E2E2E2E2E2E2E2E2E2E2E2E2E2E2E2E2E2E2E2E2E2E2E2E2E2E2E2E2E2E2E2E2E2E2E2E2E2E2E2E2E2E2E2E2E2E2E2E2E2E2E2E2E2E2E2E2E2F5E2E2E2E2E2E2E2
310
F5E2E2E2E2E2E2E2E2E2E2E2E2E2E2E2E2E2E2E2E2E2E2E2E2E2E2E2E2E2E2E2E2E2E2E2E2E2E2E2E2E2E2E2E2E2E2E2E2E2E2E2E2E2E2E2E2E2E2E2E2E2E2E2E2E2E2E2E2E2E2E2E2E2E2E2E2E2E2F5F5E2E2F5F5F5F5F5F5F5F5F5F5F5F5F5F5F5F5F5F5F5F5F5F5F5F5F5F5F5F5F5F5F5F5F5F5F5F5F5F5F5F5F5F5F5F5
310
F5F5F5F5F5F5F5F5F5F5F5F5F5F5F5F5F5F5F5F5F5F5F5F5F5F5F5F5F5F5F5F5F5F5F5F5F5F5F5F5F5F5F5F5F5F5E2E2E2E2E2E2E2F5F5F5F5F5F5F5F5F5F5F5F5F5F5F5F5F5F5F5F5F5F5F5F5F5F5F5F5F5F5F5F5F5F5F5F5F5F5F5F5F5F5F5F5F5F5F5F5F5F5F5F5F5F5F5F5F5F5F5F5F5F5F5F5F5F5F5F5F5F5F5F5F5F5
310
F5F5F5F5F5F5F5E2E2F5E2E2E2E2E2E2E2E2E2E2E2E2E2E2E2E2E2E2E2E2E2E2E2E2E2E2E2E2E2E2E2E2E2E2E2E2E2E2E2E2E2E2E2E2E2E2E2E2E2E2E2E2E2E2E2E2E2E2E2E2E2E2E2E2E2E2E2E2E2E2E2E2E2E2E2E2E2E2E2E2E2E2E2E2E2E2E2E2E2E2E2E2E2E2E2E2E2E2E2E2E2E2E2E2E2E2E2E2E2E2E2E2E2E2E2E2E2
310
E2E2E2E2E2E2E2E2E2E2E2E2E2E2E2E2E2E2E2E2E2E2E2E2E2E2E2E2E2E2E2E2E2E2E2E2E2E2E2E2E2E2E2E2E2E2E2E2E2E2E2E2E2E2E2E2E2E2E2F5E2E2F5E2E2E2E2E2E2E2E2E2E2E2E2E2E2E2E2E2E2E2E2E2E2E2E2E2E2E2E2E2E2E2E2E2E2E2E2E2E2E2E2E2E2E2E2E2E2E2E2E2E2E2E2E2E2E2E2E2E2E2E2E2E2E2E2
310
E2E2E2E2E2E2E2E2E2E2E2E2E2E2E2E2E2E2E2E2E2E2E2E2E2E2E2E2E2E2E2E2E2E2E2E2E2E2E2E2E2E2E2E2E2E2E2E2E2E2E2E2E2E2E2E2E2E2E2E2E2E2E2E2E2E2E2E2E2E2E2E2E2E2E2E2E2E2E2E2E2E2E2E2E2E2E2E2E2E2E2E2E2E2E2E2E2E2E2E2E2E2E2E2E2E2E2E2E2E2E2E2F5E2E2F5E2E2E2E2E2E2E2E2E2E2E2
310
E2E2E2E2E2E2E2E2E2E2E2E2E2E2E2E2E2E2E2E2E2E2E2E2E2E2E2E2E2E2E2E2E2E2E2E2E2E2E2E2E2E2E2E2E2E2E2E2E2E2E2E2E2E2E2E2E2E2E2E2E2E2E2E2E2E2E2E2E2E2E2E2E2E2E2E2E2E2E2E2E2E2E2E2E2E2E2E2E2E2E2E2E2E2E2E2E2E2E2E2E2E2E2E2E2E2E2E2E2E2E2E2E2E2E2E2E2E2E2E2E2E2E2E2E2E2E2
310
E2E2E2E2E2E2E2E2E2E2E2E2E2E2E2E2E2E2E2E2E2E2E2E2E2E2E2E2E2E2E2E2E2E2E2E2E2E2F5E2E2F5E2E2E2E2E2E2E2E2E2E2E2E2E2E2E2E2E2E2E2E2E2E2E2E2E2E2E2E2E2E2E2E2E2E2E2E2E2E2E2E2E2E2E2E2E2E2E2E2E2E2E2E2E2E2E2E2E2E2E2E2E2E2E2E2E2E2E2E2E2E2E2E2E2E2E2E2E2E2E2E2E2E2E2E2E2
310
E2E2E2E2E2E2E2E2E2E2E2E2E2E2E2E2E2E2E2E2E2E2E2E2E2E2E2E2E2E2E2E2E2E2E2E2E2E2E2E2E2E2E2E2E2E2E2E2E2E2E2E2E2E2E2E2E2E2E2E2E2E2E2E2E2E2E2E2E2E2E2E2E2E2E2E2E2E2E2E2E2E2E2E2E2E2E2E2E2E2E2F5E2E2F5E2E2E2E2E2E2E2E2E2E2E2E2E2E2E2E2E2E2E2E2E2E2E2E2E2E2E2E2E2E2E2E2
310
E2E2E2E2E2E2E2E2E2E2E2E2E2E2E2E2E2E2E2E2E2E2E2E2E2E2E2E2E2E2E2E2E2E2E2E2E2E2E2E2E2E2E2E2E2E2E2E2E2E2E2E2E2E2E2E2E2E2E2E2E2E2E2E2E2E2E2E2E2E2E2E2E2E2E2E2E2E2E2E2E2E2E2E2E2E2E2E2E2E2E2E2E2E2E2E2E2E2E2E2E2E2E2E2E2E2E2E2E2E2E2E2E2E2E2E2E2E2E2E2E2E2E2E2E2E2E2
310
E2E2E2E2E2E2E2E2E2E2E2E2E2E2E2E2E2F5E2E2F5E2E2E2E2E2E2E2E2E2E2E2E2E2E2E2E2E2E2E2E2E2E2E2E2E2E2E2E2E2E2E2E2E2E2E2E2E2E2E2E2E2E2E2E2E2E2E2E2E2E2E2E2E2E2E2E2E2E2E2E2E2E2E2E2E2E2E2E2E2E2E2E2E2E2E2E2E2E2E2E2E2E2E2E2E2E2E2E2E2E2E2E2E2E2E2E2E2E2E2E2E2E2E2E2E2E2
310
E2E2E2E2E2E2E2E2E2E2E2E2E2E2E2E2E2E2E2E2E2E2E2E2E2E2E2E2E2E2E2E2E2E2E2E2E2E2E2E2E2E2E2E2E2E2E2E2E2E2E2E2E2E2E2E2E2E2E2E2E2E2E2E2E2E2E2E2E2E2F5E2E2F5E2E2E2E2E2E2E2E2E2E2E2E2E2E2E2E2E2E2E2E2E2E2E2E2E2E2E2E2E2E2E2E2E2E2E2E2E2E2E2E2E2E2E2E2E2E2E2E2E2E2E2E2E2
310
E2E2E2E2E2E2E2E2E2E2E2E2E2E2E2E2E2E2E2E2E2E2E2E2E2E2E2E2E2E2E2E2E2E2E2E2E2E2E2E2E2E2E2E2E2E2E2E2E2E2E2E2E2E2E2E2E2E2E2E2E2E2E2E2E2E2E2E2E2E2E2E2E2E2E2E2E2E2E2E2E2E2E2E2E2E2E2E2E2E2E2E2E2E2E2E2E2E2E2E2E2E2E2E2E2E2E2E2E2E2E2E2E2E2E2E2E2E2E2E2E2E2E2F5E2E2F5
310
E2E2E2E2E2E2E2E2E2E2E2E2E2E2E2E2E2E2E2E2E2E2E2E2E2E2E2E2E2E2E2E2E2E2E2E2E2E2E2E2E2E2E2E2E2E2E2E2E2E2E2E2E2E2E2E2E2E2E2E2E2E2E2E2E2E2E2E2E2E2E2E2E2E2E2E2E2E2E2E2E2E2E2E2E2E2E2E2E2E2E2E2E2E2E2E2E2E2E2E2E2E2E2E2E2E2E2E2E2E2E2E2E2E2E2E2E2E2E2E2E2E2E2E2E2E2E2
310
E2E2E2E2E2E2E2E2E2E2E2E2E2E2E2E2E2E2E2E2E2E2E2E2E2E2E2E2E2E2E2E2E2E2E2E2E2E2E2E2E2E2E2E2E2E2E2E2E2F5E2E2F5E2E2E2E2E2E2E2E2E2E2E2E2E2E2E2E2E2E2E2E2E2E2E2E2E2E2E2E2E2E2E2E2E2E2E2E2E2E2E2E2E2E2E2E2E2E2E2E2E2E2E2E2E2E2E2E2E2E2E2E2E2E2E2E2E2E2E2E2E2E2E2E2E2E2
310
E2E2E2E2E2E2E2E2E2E2E2E2E2E2E2E2E2E2E2E2E2E2E2E2E2E2E2E2E2E2E2E2E2E2E2E2E2E2E2E2E2E2E2E2E2E2E2E2E2E2E2E2E2E2E2E2E2E2E2E2E2E2E2E2E2E2E2E2E2E2E2E2E2E2E2E2E2E2E2E2E2E2E2E2E2E2E2E2E2E2E2E2E2E2E2E2E2E2E2E2E2E2F5E2E2F5E2E2E2E2E2E2E2E2E2E2E2E2E2E2E2E2E2E2E2E2E2
310
E2E2E2E2E2E2E2E2E2E2E2E2E2E2E2E2E2E2E2E2E2E2E2E2E2E2E2E2E2E2E2E2E2E2E2E2E2E2E2E2E2E2E2E2E2E2E2E2E2E2E2E2E2E2E2E2E2E2E2E2E2E2E2E2E2E2E2E2E2E2E2E2E2E2E2E2E2E2E2E2E2E2E2E2E2E2E2E2E2E2E2E2E2E2E2E2E2E2E2E2E2E2E2E2E2E2E2E2E2E2E2E2E2E2E2E2E2E2E2E2E2E2E2E2E2E2E2
310
E2E2E2E2E2E2E2E2E2E2E2E2E2E2E2E2E2E2E2E2E2E2E2E2E2E2E2E2F5E2E2F5E2E2E2E2E2E2E2E2E2E2E2E2E2E2E2E2E2E2E2E2E2E2E2E2E2E2E2E2E2E2E2E2E2E2E2E2E2E2E2E2E2E2E2E2E2E2E2E2E2E2E2E2E2E2E2E2E2E2E2E2E2E2E2E2E2E2E2E2E2E2E2E2E2E2E2E2E2E2E2E2E2E2E2E2E2E2E2E2E2E2E2E2E2E2E2
310
E2E2E2E2E2E2E2E2E2E2E2E2E2E2E2E2E2E2E2E2E2E2E2E2E2E2E2E2E2E2E2E2E2E2E2E2E2E2E2E2E2E2E2E2E2E2E2E2E2E2E2E2E2E2E2E2E2E2E2E2E2E2E2E2E2E2E2E2E2E2E2E2E2E2E2E2E2E2E2E2E2F5E2E2F5E2E2E2E2E2E2E2E2E2E2E2E2E2E2E2E2E2E2E2E2E2E2E2E2E2E2E2E2E2E2E2E2E2E2E2E2E2E2E2E2E2E2
310
E2E2E2E2E2E2E2E2E2E2E2E2E2E2E2E2E2E2E2E2E2E2E2E2E2E2E2E2E2E2E2E2E2E2E2E2E2E2E2E2E2E2E2E2E2E2E2E2E2E2E2E2E2E2E2E2E2E2E2E2E2E2E2E2E2E2E2E2E2E2E2E2E2E2E2E2E2E2E2E2E2E2E2E2E2E2E2E2E2E2E2E2E2E2E2E2E2E2E2E2E2E2E2E2E2E2E2E2E2E2E2E2E2E2E2E2E2E2E2E2E2E2E2E2E2E2E2
310
E2E2E2E2E2E2E2F5E2E2F5E2E2E2E2E2E2E2E2E2E2E2E2E2E2E2E2E2E2E2E2E2E2E2E2E2E2E2E2E2E2E2E2E2E2E2E2E2E2E2E2E2E2E2E2E2E2E2E2E2E2E2E2E2E2E2E2E2E2E2E2E2E2E2E2E2E2E2E2E2E2E2E2E2E2E2E2E2E2E2E2E2E2E2E2E2E2E2E2E2E2E2E2E2E2E2E2E2E2E2E2E2E2E2E2E2E2E2E2E2E2E2E2E2E2E2E2
310
E2E2E2E2E2E2E2E2E2E2E2E2E2E2E2E2E2E2E2E2E2E2E2E2E2E2E2E2E2E2E2E2E2E2E2E2E2E2E2E2E2E2E2E2E2E2E2E2E2E2E2E2E2E2E2E2E2E2E2E2F5E2E2F5E2E2E2E2F5F5F5F5F5F5F5F5F5F5F5F5F5F5F5F5F5F5F5F5F5F5F5F5F5F5F5F5F5F5F5F5F5F5F5F5F5F5F5F5F5F5F5F5F5F5F5F5F5F5F5F5F5F5F5F5F5F5F5
310
F5F5F5F5F5F5F5F5F5F5F5F5F5F5F5F5F5F5F5F5F5F5F5E2E2E2E2E2E2E2E2E2E2E2E2E2E2E2E2E2E2E2E2E2E2E2E2E2E2E2E2E2E2E2E2E2E2E2E2E2E2E2E2E2E2E2E2E2E2E2E2E2E2E2E2E2E2E2E2E2E2E2E2E2E2E2E2E2E2E2E2E2E2E2E2E2E2E2E2E2E2E2E2E2E2E2E2E2E2E2E2E2E2F5E2E2F5E2E2F5F5E2E2E2E2E2E2
310
E2E2E2E2E2E2E2E2E2E2E2E2E2E2E2E2E2E2E2E2E2E2E2E2E2E2E2E2E2E2E2E2E2E2E2E2E2E2E2E2E2E2E2E2E2E2E2E2E2E2E2E2E2E2E2E2E2E2E2E2E2E2E2E2E2E2E2E2E2E2E2E2E2E2E2F5F5F5E2E2E2E2E2E2E2E2E2E2E2E2E2E2E2E2E2E2E2E2E2E2E2E2E2E2E2E2E2E2E2E2E2E2E2E2E2E2E2E2E2E2E2E2E2E2E2E2E2
310
E2E2E2E2E2E2E2E2E2E2E2E2E2E2E2E2E2E2E2E2E2E2E2E2E2E2E2E2E2E2E2E2E2E2E2E2E2E2E2F5E2E2F5E2F5F5F5F5F5F5F5F5F5F5F5F5F5F5F5F5F5F5F5F5F5F5F5F5F5F5F5F5F5F5F5F5F5F5F5F5F5F5F5F5F5F5F5F5F5F5F5F5F5F5F5F5F5F5F5F5F5F5F5F5F5F5F5F5F5F5F5F5F5F5F5F5F5F5F5F5F5F5F5F5F5F5F5
310
F5F5E2F5E2E2E2E2E2E2E2E2E2E2E2E2E2E2E2E2E2E2E2E2E2E2E2E2E2E2E2E2E2E2E2E2E2E2E2E2E2E2E2E2E2E2E2E2E2E2E2E2E2E2E2E2E2E2E2E2E2E2E2E2E2E2E2E2E2E2E2E2E2E2E2E2E2E2E2E2E2E2E2E2E2E2E2E2E2E2E2E2F5E2E2F5E2F5E2F5F5F5F5F5F5F5F5F5F5F5F5F5F5F5F5F5F5F5F5F5F5F5F5F5F5F5F5
310
F5F5F5F5F5F5F5F5F5F5F5F5F5F5F5F5F5F5F5F5F5F5F5F5F5F5F5F5F5F5F5F5F5F5F5F5F5F5F5F5F5F5F5F5F5F5F5F5F5F5F5F5F5F5F5F5E2F5E2E2E2E2E2E2E2E2E2E2E2E2E2E2E2E2E2E2E2E2E2E2E2E2E2E2E2E2E2E2E2E2E2E2E2E2E2E2E2E2E2E2E2E2E2E2E2E2E2E2E2E2E2E2E2E2E2E2E2E2E2E2E2E2E2E2E2E2E2
310
E2E2E2E2E2E2E2E2E2E2E2E2E2E2E2E2E2E2F5E2E2F5F5E2F5F5F5F5F5F5F5F5F5F5F5F5F5F5F5F5F5F5F5F5F5F5F5F5F5F5F5F5F5F5F5F5F5F5F5F5F5F5F5F5F5F5F5F5F5F5F5F5F5F5F5F5F5F5F5F5F5F5F5F5F5F5F5F5F5F5F5F5F5F5F5F5F5F5F5F5F5F5F5F5F5F5E2F5F5E2F5E2E2E2E2E2E2E2E2E2E2E2E2E2E2E2E2
310
E2E2E2E2E2E2E2E2E2E2E2E2E2E2E2E2E2E2E2E2E2E2E2E2E2E2E2E2E2E2E2E2E2E2E2E2E2E2E2E2E2E2E2E2E2E2E2E2E2E2E2E2E2E2E2E2E2E2E2E2E2E2E2E2E2E2E2E2E2E2E2F5E2E2F5F5E2F5F5F5F5F5F5F5F5F5F5F5F5F5F5F5F5F5F5F5F5F5F5F5F5F5F5F5F5F5F5F5F5F5F5F5F5F5F5F5F5F5F5F5F5F5F5F5F5F5F5
310
F5F5F5F5F5F5F5F5F5F5F5F5F5F5F5F5F5F5F5F5F5F5F5F5F5F5F5F5F5F5F5F5F5F5F5E2F5E2E2E2E2E2E2E2E2E2E2E2E2E2E2E2E2E2E2E2E2E2E2E2E2E2E2E2E2E2E2E2E2E2E2E2E2E2E2E2E2E2E2E2E2E2E2E2E2E2E2E2E2E2E2E2E2E2E2E2E2E2E2E2E2E2E2E2E2E2E2E2E2E2E2E2E2E2E2E2E2E2E2E2E2E2E2E2F5E2E2
310
F5F5E2F5F5F5F5E2E2F5F5E2E2E2E2E2E2E2E2E2E2E2E2E2E2E2E2E2E2E2E2E2E2E2E2E2E2E2E2E2E2E2E2E2E2E2E2E2E2E2E2E2E2E2E2E2E2E2E2E2E2E2E2E2E2E2E2E2E2E2E2E2E2E2E2E2E2E2E2E2E2F5F5E2F5F5F5F5E2F5E2E2E2E2E2E2E2E2E2E2E2E2E2E2E2E2E2E2E2E2E2E2E2E2E2E2E2E2E2E2E2E2E2E2E2E2E2
310
E2E2E2E2E2E2E2E2E2E2E2E2E2E2E2E2E2E2E2E2E2E2E2E2E2E2E2E2E2E2E2E2E2E2E2E2E2E2E2E2E2E2E2E2E2E2E2E2E2E2F5E2E2F5F5E2F5F5F5F5F5E2E2E2F5E2E2E2E2E2E2E2E2E2E2E2E2E2E2E2E2E2E2E2E2E2E2E2E2E2E2E2E2E2E2E2E2E2E2E2E2E2E2E2E2E2E2E2E2E2E2E2E2E2E2E2E2E2E2E2E2E2E2E2E2E2E2
310
E2E2E2E2E2E2F5E2E2F5F5F5F5F5E2F5E2E2E2E2E2E2E2E2E2E2E2E2E2E2E2E2E2E2E2E2E2E2E2E2E2E2E2E2E2E2E2E2E2E2E2E2E2E2E2E2E2E2E2E2E2E2E2E2E2E2E2E2E2E2E2E2E2E2E2E2E2E2E2E2E2E2E2E2E2E2E2E2E2E2E2E2E2E2E2E2E2E2E2E2E2E2E2F5E2E2F5F5E2F5F5F5F5E2F5E2E2E2F5E2E2E2E2E2E2E2E2
310
E2E2E2E2E2E2E2E2E2E2E2E2E2E2E2E2E2E2E2E2E2E2E2E2E2E2E2E2E2E2E2E2E2E2E2E2E2E2E2E2E2E2E2E2E2E2E2E2E2E2E2E2E2E2E2E2E2E2F5E2E2F5E2F5F5F5F5E2F5E2E2E2E2E2E2E2E2E2E2E2E2E2E2E2E2E2E2E2E2E2E2E2E2E2E2E2E2E2E2E2E2E2E2E2E2E2E2E2E2E2E2E2E2E2E2E2E2E2E2E2E2E2E2E2E2E2E2
310
E2E2E2E2E2E2E2E2E2E2E2E2E2E2E2E2E2E2E2E2E2E2E2E2E2E2E2E2E2F5E2E2F5F5E2F5F5F5F5E2E2F5E2E2E2F5E2E2E2E2E2E2E2E2E2E2E2E2E2E2E2E2E2E2E2E2E2E2E2E2E2E2E2E2E2E2E2E2E2E2E2E2E2E2E2E2E2E2E2E2E2E2E2E2E2E2E2E2E2E2E2E2E2E2E2E2E2E2E2E2F5E2E2F5E2E2F5F5F5F5E2F5E2E2E2E2E2
310
E2E2E2E2E2E2E2E2E2E2E2E2E2E2E2E2E2E2E2E2E2E2E2E2E2E2E2E2E2E2E2E2E2E2E2E2E2E2E2E2E2E2E2E2E2E2E2E2E2E2E2E2E2E2E2E2E2E2E2E2E2E2E2E2E2E2E2E2E2E2E2E2E2E2E2E2E2E2E2E2E2E2F5E2E2F5F5E2F5F5F5F5E2E2E2F5F5E2E2F5E2E2E2E2E2E2E2E2E2E2E2E2E2E2E2E2E2E2E2E2E2E2E2E2E2E2E2
310
E2E2E2E2E2E2E2E2E2E2E2E2E2E2E2E2E2E2E2E2E2E2E2E2E2E2E2E2E2E2E2E2E2E2E2F5E2F5F5E2E2E2F5F5F5F5E2F5E2E2E2E2E2E2E2E2E2E2E2E2E2E2E2E2E2E2E2E2E2E2E2E2E2E2E2E2E2E2E2E2E2E2E2E2E2E2E2E2E2E2E2E2E2E2E2E2E2E2E2E2E2E2E2E2E2E2E2E2E2E2E2E2E2E2E2E2E2E2E2E2E2E2E2E2E2E2E2
310
E2E2E2E2E2E2E2E2F5E2E2F5F5E2F5F5F5F5E2E2E2E2E2F5E2E2F5E2E2E2E2E2E2E2E2E2E2E2E2E2E2E2E2E2E2E2E2E2E2E2E2E2E2E2E2E2E2E2E2E2E2E2E2E2E2E2E2E2E2E2E2E2E2E2E2E2E2E2E2E2E2E2E2E2E2E2E2F5E2F5E2E2E2E2E2F5F5F5F5E2F5E2E2E2E2E2E2E2E2E2E2E2E2E2E2E2E2E2E2E2E2E2E2E2E2E2E2
310
E2E2E2E2E2E2E2E2E2E2E2E2E2E2E2E2E2E2E2E2E2E2E2E2E2E2E2E2E2E2E2E2E2E2E2E2E2E2E2E2E2E2E2E2E2E2E2E2E2E2E2E2E2E2E2E2E2E2E2E2E2F5E2E2F5F5E2F5F5F5F5E2E2E2E2E2E2F5E2E2F5F5E2E2E2E2E2E2E2E2E2E2E2E2E2E2E2E2E2E2E2E2E2E2E2E2E2E2E2E2E2E2E2E2E2E2E2E2E2E2E2E2E2E2E2E2E2
310
E2E2E2E2E2E2E2E2E2E2E2F5F5E2F5E2E2E2E2E2E2F5F5F5F5E2F5E2E2E2E2E2E2E2E2E2E2E2E2E2E2E2E2E2E2E2E2E2E2E2E2E2E2E2E2E2E2E2E2E2E2E2E2E2E2E2E2E2E2E2E2E2E2E2E2E2E2E2E2E2E2E2E2E2E2E2E2E2E2E2E2E2E2E2E2E2E2E2E2E2E2E2E2E2E2E2E2E2E2E2E2E2E2E2F5E2E2F5F5E2F5F5F5F5E2E2E2
310
E2E2E2E2F5E2E2E2F5E2E2E2E2E2E2E2E2E2E2E2E2E2E2E2E2E2E2E2E2E2E2E2E2E2E2E2E2E2E2E2E2E2E2E2E2E2E2E2E2E2E2E2E2E2E2E2E2E2E2E2E2E2E2F5E2E2F5E2E2E2E2E2E2E2F5F5F5F5E2F5E2E2E2E2E2E2E2E2E2E2E2E2E2E2E2E2E2E2E2E2E2E2E2E2E2E2E2E2E2E2E2E2E2E2E2E2E2E2E2E2E2E2E2E2E2E2E2
310
E2E2E2E2E2E2E2E2E2E2E2E2E2E2E2E2E2E2E2E2E2E2E2E2E2E2E2E2E2E2E2E2E2E2E2E2E2E2E2E2F5E2E2F5F5E2F5F5F5F5E2E2E2E2E2E2E2E2F5E2E2E2F5E2E2E2E2E2E2E2E2E2E2E2E2E2E2E2E2E2E2E2E2E2E2E2E2E2E2E2E2E2E2E2E2E2E2E2E2E2E2E2E2E2E2E2E2E2E2E2E2E2E2E2E2F5E2E2F5E2E2E2E2E2E2E2E2
310
F5F5F5F5E2F5E2E2E2E2E2E2E2E2E2E2E2E2E2E2E2E2E2E2E2E2E2E2E2E2E2E2E2E2E2E2E2E2E2E2E2E2E2E2E2E2E2E2E2E2E2E2E2E2E2E2E2E2E2E2E2E2E2E2E2E2E2E2E2E2E2E2E2E2E2E2E2E2E2E2E2E2E2E2E2E2E2E2E2E2E2E2E2F5E2E2F5F5E2F5F5F5F5E2E2E2E2E2E2E2E2E2F5F5E2E2F5E2E2E2E2E2E2E2E2E2E2
310
E2E2E2E2E2E2E2E2E2E2E2E2E2E2E2E2E2E2E2E2E2E2E2E2E2E2E2E2E2E2E2E2E2E2E2E2E2E2E2E2F5E2F5F5E2E2E2E2E2E2E2E2E2F5F5F5F5E2F5E2E2E2E2E2E2E2E2E2E2E2E2E2E2E2E2E2E2E2E2E2E2E2E2E2E2E2E2E2E2E2E2E2E2E2E2E2E2E2E2E2E2E2E2E2E2E2E2E2E2E2E2E2E2E2E2E2E2E2E2E2E2E2E2E2E2E2E2
310
E2E2E2E2E2E2E2E2E2E2E2E2E2E2E2E2E2E2E2F5E2E2F5F5E2F5F5F5F5E2E2E2E2E2E2E2E2E2E2E2F5E2E2F5E2E2E2E2E2E2E2E2E2E2E2E2E2E2E2E2E2E2E2E2E2E2E2E2E2E2E2E2E2E2E2E2E2E2E2E2E2E2E2E2E2E2E2E2E2E2E2E2F5E2F5E2E2E2E2E2E2E2E2E2E2E2F5F5F5F5E2F5E2E2E2E2E2E2E2E2E2E2E2E2E2E2E2
310
E2E2E2E2E2E2E2E2E2E2E2E2E2E2E2E2E2E2E2E2E2E2E2E2E2E2E2E2E2E2E2E2E2E2E2E2E2E2E2E2E2E2E2E2E2E2E2E2E2E2E2E2E2E2E2E2E2E2E2E2E2E2E2E2E2E2E2E2E2E2E2E2F5E2E2F5F5E2F5F5F5F5E2E2E2E2E2E2E2E2E2E2E2E2F5E2E2F5F5E2E2E2E2E2E2E2E2E2E2E2E2E2E2E2E2E2E2E2E2E2E2E2E2E2E2E2E2
310
E2E2E2E2E2E2E2E2E2E2E2E2E2E2E2E2F5F5E2F5E2E2E2E2E2E2E2E2E2E2E2E2F5F5F5F5E2F5E2E2E2E2E2E2E2E2E2E2E2E2E2E2E2E2E2E2E2E2E2E2E2E2E2E2E2E2E2E2E2E2E2E2E2E2E2E2E2E2E2E2E2E2E2E2E2E2E2E2E2E2E2E2E2E2E2E2E2E2E2E2E2E2E2E2E2E2E2E2E2E2E2E2E2E2E2E2E2E2E2E2E2E2E2E2E2F5E2
310
E2F5F5E2F5F5F5F5E2E2E2E2E2E2E2E2E2E2E2E2E2F5E2E2E2F5E2E2E2E2E2E2E2E2E2E2E2E2E2E2E2E2E2E2E2E2E2E2E2E2E2E2E2E2E2E2E2E2E2E2E2E2E2E2E2E2E2E2F5E2E2F5E2E2E2E2E2E2E2E2E2E2E2E2E2F5F5F5F5E2F5E2E2E2E2E2E2E2E2E2E2E2E2E2E2E2E2E2E2E2E2E2E2E2E2E2E2E2E2E2E2E2E2E2E2E2E2
310
E2E2E2E2E2E2E2E2E2E2E2E2E2E2E2E2E2E2E2E2E2E2E2E2E2E2E2E2E2E2E2E2E2E2E2E2E2E2E2E2E2E2E2E2E2E2E2E2E2E2E2F5E2E2F5F5E2F5F5F5F5E2E2E2E2E2E2E2E2E2E2E2E2E2E2F5E2E2E2F5E2E2E2E2E2E2E2E2E2E2E2E2E2E2E2E2E2E2E2E2E2E2E2E2E2E2E2E2E2E2E2E2E2E2E2E2E2E2E2E2F5E2E2F5E2E2E2
310
E2E2E2E2E2E2E2E2E2E2E2F5F5F5F5E2F5E2E2E2E2E2E2E2E2E2E2E2E2E2E2E2E2E2E2E2E2E2E2E2E2E2E2E2E2E2E2E2E2E2E2E2E2E2E2E2E2E2E2E2E2E2E2E2E2E2E2E2E2E2E2E2E2E2E2E2E2E2E2E2E2E2E2E2E2E2E2E2E2E2E2E2E2E2E2E2E2E2E2E2E2E2E2E2F5E2E2F5F5E2F5F5F5F5E2E2E2E2E2E2E2E2E2E2E2E2E2
310
E2E2F5F5F5E2F5E2E2E2E2E2E2E2E2E2E2E2E2E2E2E2E2E2E2E2E2E2E2E2E2E2E2E2E2E2E2E2E2E2E2E2E2E2E2F5E2F5F5E2E2E2E2E2E2E2E2E2E2E2E2E2E2E2F5F5F5F5E2F5E2E2E2E2E2E2E2E2E2E2E2E2E2E2E2E2E2E2E2E2E2E2E2E2E2E2E2E2E2E2E2E2E2E2E2E2E2E2E2E2E2E2E2E2E2E2E2E2E2E2E2E2E2E2E2E2E2
310
E2E2E2E2E2E2E2E2E2E2E2E2E2E2E2E2E2E2E2E2E2E2E2E2E2E2E2E2E2E2F5E2E2F5F5E2F5F5F5F5E2E2E2E2E2E2E2E2E2E2E2E2E2E2E2E2E2E2F5E2F5E2E2E2E2E2E2E2E2E2E2E2E2E2E2E2E2E2E2E2E2E2E2E2E2E2E2E2E2E2E2E2E2E2E2E2E2F5E2F5E2E2E2E2E2E2E2E2E2E2E2E2E2E2E2E2E2F5F5F5F5E2F5E2E2E2E2
310
E2E2E2E2E2E2E2E2E2E2E2E2E2E2E2E2E2E2E2E2E2E2E2E2E2E2E2E2E2E2E2E2E2E2E2E2E2E2E2E2E2E2E2E2E2E2E2E2E2E2E2E2E2E2E2E2E2E2E2E2E2E2E2E2E2E2E2E2E2E2E2E2E2E2E2E2E2E2E2E2E2E2E2F5E2E2F5F5E2F5F5F5F5E2E2E2E2E2E2E2E2E2E2E2E2E2E2E2E2E2E2E2F5E2F5E2E2E2E2E2E2E2E2E2E2E2E2
310
E2E2E2E2E2E2E2E2E2E2E2E2E2E2E2E2E2E2E2E2E2E2F5E2F5E2E2E2E2E2E2E2E2E2E2E2E2E2E2E2E2E2E2F5F5F5F5E2F5E2E2E2E2E2E2E2E2E2E2E2E2E2E2E2E2E2E2E2E2E2E2E2E2E2E2E2E2E2E2E2E2E2E2E2E2E2E2E2E2E2E2E2E2E2E2E2E2E2E2E2E2E2E2E2E2E2E2E2E2E2E2E2E2E2E2E2E2E2E2E2E2E2E2E2E2E2E2
310
E2E2E2E2E2E2E2E2E2F5E2E2F5F5E2F5F5F5F5E2E2E2E2E2E2E2E2E2E2E2E2E2E2E2E2E2E2E2E2F5E2F5E2E2E2E2E2E2E2E2E2E2E2E2E2E2E2E2E2E2E2E2E2E2E2E2E2E2E2E2E2E2E2F5F5F5F5E2E2E2E2E2E2E2E2E2E2E2E2E2E2E2E2E2E2E2F5F5F5F5E2F5E2E2E2E2E2E2E2E2E2E2E2E2E2E2E2E2E2E2E2E2E2E2E2E2E2
310
E2E2E2E2E2E2E2E2E2E2E2E2E2E2E2E2E2E2E2E2E2E2E2E2E2E2E2E2E2E2E2E2E2E2E2E2E2E2E2E2E2E2E2E2E2E2E2E2E2E2E2E2E2E2E2E2E2E2E2E2E2E2F5E2E2F5F5E2F5F5F5F5E2E2E2E2E2E2E2E2E2E2E2E2E2E2E2E2E2E2E2E2E2F5E2F5E2E2E2E2E2E2E2E2E2E2E2E2E2E2E2E2E2E2E2E2E2E2E2E2E2E2E2E2E2F5E2
310
F5E2E2E2E2E2E2E2E2E2E2E2E2E2E2E2E2E2E2E2E2E2F5F5F5F5E2F5E2E2E2E2E2E2E2E2E2E2E2E2E2E2E2E2E2E2E2E2E2E2E2E2E2E2E2E2E2E2E2E2E2E2E2E2E2E2E2E2E2E2E2E2E2E2E2E2E2E2E2E2E2E2E2E2E2E2E2E2E2E2E2E2E2E2E2E2E2E2E2E2E2E2E2E2E2E2E2E2E2E2E2E2E2E2E2F5E2E2F5F5E2F5F5F5F5E2E2
310
E2E2E2E2E2E2E2E2E2E2E2E2E2E2E2E2E2E2E2E2F5E2F5E2E2E2E2E2E2E2E2E2E2E2E2E2E2E2E2E2E2E2E2E2E2E2E2E2E2E2F5E2F5E2E2E2E2E2E2E2E2E2E2E2E2E2E2E2E2E2E2E2E2E2E2F5F5F5F5E2F5E2E2E2E2E2E2E2E2E2E2E2E2E2E2E2E2E2E2E2E2E2E2E2E2E2E2E2E2E2E2E2E2E2E2E2E2E2E2E2E2E2E2E2E2E2E2
310
E2E2E2E2E2E2E2E2E2E2E2E2E2E2E2E2E2E2E2E2E2E2E2E2E2E2E2E2E2E2E2E2E2E2E2E2E2E2E2E2E2F5E2E2F5F5E2F5F5F5F5E2E2E2E2E2E2E2E2E2E2E2E2E2E2E2E2E2E2E2E2E2E2E2F5F5F5F5F5F5F5F5F5F5F5F5F5F5F5F5F5F5F5F5F5F5F5F5F5F5F5F5F5E2F5E2E2E2E2E2E2E2E2E2E2E2E2E2E2E2E2E2E2E2E2E2E2
310
E2F5F5F5F5E2F5E2E2E2E2E2E2E2E2E2E2E2E2E2E2E2E2E2E2E2E2E2E2E2E2E2E2E2E2E2E2E2E2E2E2E2E2E2E2E2E2E2E2E2E2E2E2E2E2E2E2E2E2E2E2E2E2E2E2E2E2E2E2E2E2E2E2E2E2E2E2E2E2E2E2E2E2E2E2E2E2E2E2E2E2E2E2E2F5E2E2F5F5E2F5F5F5F5E2E2E2E2E2E2E2E2E2E2E2E2E2E2E2E2E2E2E2E2E2E2E2
310
E2E2F5E2E2E2E2E2E2E2E2E2E2E2E2E2E2E2E2E2E2E2E2E2E2E2E2E2E2F5E2E2E2E2E2E2E2E2E2E2E2E2E2E2E2E2E2E2E2E2E2E2E2E2F5F5F5F5E2F5E2E2E2E2E2E2E2E2E2E2E2E2E2E2E2E2E2E2E2E2E2E2E2E2E2E2E2E2E2E2E2E2E2E2E2E2E2E2E2E2E2E2E2E2E2E2E2E2E2E2E2E2E2E2E2E2E2E2E2E2E2E2E2E2E2E2E2
310
E2E2E2E2E2E2E2E2E2E2E2E2E2E2E2E2E2E2E2E2F5E2E2F5F5E2F5F5F5F5E2E2E2E2E2E2E2E2E2E2E2E2E2E2E2E2E2E2E2E2E2E2E2E2E2F5E2E2E2E2E2E2E2E2E2E2E2E2E2E2E2E2E2E2E2E2E2E2E2E2E2E2F5E2E2E2E2E2E2E2E2E2E2E2E2E2E2E2E2E2E2E2E2E2E2E2E2F5F5F5F5E2F5E2E2E2E2E2E2E2E2E2E2E2E2E2E2
310
E2E2E2E2E2E2E2E2E2E2E2E2E2E2E2E2E2E2E2E2E2E2E2E2E2E2E2E2E2E2E2E2E2E2E2E2E2E2E2E2E2E2E2E2E2E2E2E2E2E2E2E2E2E2E2E2E2E2E2E2E2E2E2E2E2E2E2E2E2E2E2E2E2F5E2E2F5F5E2F5F5F5F5E2E2E2E2E2E2E2E2E2E2E2E2E2E2E2E2E2E2E2E2E2E2E2E2E2F5E2E2E2E2E2E2E2E2E2E2E2E2E2E2E2E2E2E2
310
E2E2E2E2E2E2E2E2F5E2E2E2E2E2E2E2E2E2E2E2E2E2E2E2E2E2E2E2E2E2E2E2E2F5F5F5F5E2F5E2E2E2E2E2E2E2E2E2E2E2E2E2E2E2E2E2E2E2E2E2E2E2E2E2E2E2E2E2E2E2E2E2E2E2E2E2E2E2E2E2E2E2E2E2E2E2E2E2E2E2E2E2E2E2E2E2E2E2E2E2E2E2E2E2E2E2E2E2E2E2E2E2E2E2E2E2E2E2E2E2E2E2E2E2E2E2F5
310
E2E2F5F5E2F5F5F5F5E2E2E2E2E2E2E2E2E2E2E2E2E2E2E2E2E2E2E2E2E2E2E2E2E2F5E2E2E2E2E2E2E2E2E2E2E2E2E2E2E2E2E2E2E2E2E2E2E2E2E2E2F5E2E2E2E2E2E2E2E2E2E2E2E2E2E2E2E2E2E2E2E2E2E2E2E2F5F5F5F5E2F5E2E2E2E2E2E2E2E2E2E2E2E2E2E2E2E2E2E2E2E2E2E2E2E2E2E2E2E2E2E2E2E2E2E2E2
310
E2E2E2E2E2E2E2E2E2E2E2E2E2E2E2E2E2E2E2E2E2E2E2E2E2E2E2E2E2E2E2E2E2E2E2E2E2E2E2E2E2E2E2E2E2E2E2E2E2E2E2E2F5E2E2F5F5E2F5F5F5F5E2E2E2E2E2E2E2E2E2E2E2E2E2E2E2E2E2E2E2E2E2E2E2E2E2F5E2E2E2E2E2E2E2E2E2E2E2E2E2E2E2E2E2E2E2E2E2E2E2E2E2E2F5E2E2E2E2E2E2E2E2E2E2E2E2
310
E2E2E2E2E2E2E2E2E2E2E2E2F5F5F5F5E2F5E2E2E2E2E2E2E2E2E2E2E2E2E2E2E2E2E2E2E2E2E2E2E2E2E2E2E2E2E2E2E2E2E2E2E2E2E2E2E2E2E2E2E2E2E2E2E2E2E2E2E2E2E2E2E2E2E2E2E2E2E2E2E2E2E2E2E2E2E2E2E2E2E2E2E2E2E2E2E2E2E2E2E2E2E2E2E2F5E2E2F5F5E2F5F5F5F5E2E2E2E2E2E2E2E2E2E2E2E2
310
E2E2E2E2E2E2E2E2E2E2E2E2E2F5E2E2E2E2E2E2E2E2E2E2E2E2E2E2E2E2E2E2E2E2E2E2E2E2E2E2F5E2E2E2E2E2E2E2E2E2E2E2E2E2E2E2E2E2E2E2E2E2E2E2E2F5F5F5F5E2F5E2E2E2E2E2E2E2E2E2E2E2E2E2E2E2E2E2E2E2E2E2E2E2E2E2E2E2E2E2E2E2E2E2E2E2E2E2E2E2E2E2E2E2E2E2E2E2E2E2E2E2E2E2E2E2E2
310
E2E2E2E2E2E2E2E2E2E2E2E2E2E2E2E2E2E2E2E2E2E2E2E2E2E2E2E2E2E2E2F5E2E2F5F5E2F5F5F5F5E2E2E2E2E2E2E2E2E2E2E2E2E2E2E2E2E2E2E2E2E2E2E2E2E2F5E2E2E2E2E2E2E2E2E2E2E2E2E2E2E2E2E2E2E2E2E2E2E2E2E2E2F5E2E2E2E2E2E2E2E2E2E2E2E2E2E2E2E2E2E2E2E2E2E2E2E2F5F5F5F5E2F5E2E2E2
310
E2E2E2E2E2E2E2E2E2E2E2E2E2E2E2E2E2E2E2E2E2E2E2E2E2E2E2E2E2E2E2E2E2E2E2E2E2E2E2E2E2E2E2E2E2E2E2E2E2E2E2E2E2E2E2E2E2E2E2E2E2E2E2E2E2E2E2E2E2E2E2E2E2E2E2E2E2E2E2E2E2E2E2E2F5E2E2F5F5E2F5F5F5F5E2E2E2E2E2E2E2E2E2E2E2E2E2E2E2E2E2E2E2E2E2E2E2E2E2F5E2E2E2E2E2E2E2
310
E2E2E2E2E2E2E2E2E2E2E2E2E2E2E2E2E2E2E2F5E2E2E2E2E2E2E2E2E2E2E2E2E2E2E2E2E2E2E2E2E2E2E2E2F5F5F5F5E2F5E2E2E2E2E2E2E2E2E2E2E2E2E2E2E2E2E2E2E2E2E2E2E2E2E2E2E2E2E2E2E2E2E2E2E2E2E2E2E2E2E2E2E2E2E2E2E2E2E2E2E2E2E2E2E2E2E2E2E2E2E2E2E2E2E2E2E2E2E2E2E2E2E2E2E2E2E2
310
E2E2E2E2E2E2E2E2E2E2F5E2E2F5F5E2F5F5F5F5E2E2E2E2E2E2E2E2E2E2E2E2E2E2E2E2E2E2E2E2E2E2E2E2E2F5E2E2E2E2E2E2E2E2E2E2E2F5F5F5E2E2E2E2E2E2E2E2E2E2E2E2F5E2E2E2E2E2E2E2E2E2E2E2E2E2E2E2E2E2E2E2E2E2E2E2E2F5F5F5F5E2F5E2E2E2E2E2E2E2E2E2E2E2E2E2E2E2E2E2E2E2E2E2E2E2E2
310
E2E2E2E2E2E2E2E2E2E2E2E2E2E2E2E2E2E2E2E2E2E2E2E2E2E2E2E2E2E2E2E2E2E2E2E2E2E2E2E2E2E2E2E2E2E2E2E2E2E2E2E2E2E2E2E2E2E2E2E2E2E2E2F5E2E2F5F5E2F5F5F5F5E2E2E2E2E2E2E2E2E2E2E2E2E2E2E2E2E2E2E2E2E2E2E2E2E2F5E2E2E2E2E2E2E2E2E2E2F5F5E2F5F5F5E2E2E2E2E2E2E2E2E2E2F5E2
310
E2E2E2E2E2E2E2E2E2E2E2E2E2E2E2E2E2E2E2E2E2E2E2F5F5F5F5E2F5E2E2E2E2E2E2E2E2E2E2E2E2E2E2E2E2E2E2E2E2E2E2E2E2E2E2E2E2E2E2E2E2E2E2E2E2E2E2E2E2E2E2E2E2E2E2E2E2E2E2E2E2E2E2E2E2E2E2E2E2E2E2E2E2E2E2E2E2E2E2E2E2E2E2E2E2E2E2E2E2E2E2E2E2E2E2E2F5E2E2F5F5E2F5F5F5F5E2
310
E2E2E2E2E2E2E2E2E2E2E2E2E2E2E2E2E2E2E2E2E2E2E2E2F5E2E2E2E2E2E2E2E2E2F5E2E2E2E2E2F5F5E2E2E2E2E2E2E2E2E2F5E2E2E2E2E2E2E2E2E2E2E2E2E2E2E2E2E2E2E2E2E2E2E2E2F5F5F5F5E2F5E2E2E2E2E2E2E2E2E2E2E2E2E2E2E2E2E2E2E2E2E2E2E2E2E2E2E2E2E2E2E2E2E2E2E2E2E2E2E2E2E2E2E2E2E2
310
E2E2E2E2E2E2E2E2E2E2E2E2E2E2E2E2E2E2E2E2E2E2E2E2E2E2E2E2E2E2E2E2E2E2E2E2E2E2E2E2E2E2F5E2E2F5F5E2F5F5F5F5E2E2E2E2E2E2E2E2E2E2E2E2E2E2E2E2E2E2E2E2E2E2E2E2E2F5E2E2E2E2E2E2E2E2F5F5E2E2E2E2E2E2F5E2E2E2E2E2E2E2E2E2F5E2E2E2E2E2E2E2E2E2E2E2E2E2E2E2E2E2E2E2E2E2E2
310
E2E2F5F5F5F5E2F5E2E2E2E2E2E2E2E2E2E2E2E2E2E2E2E2E2E2E2E2E2E2E2E2E2E2E2E2E2E2E2E2E2E2E2E2E2E2E2E2E2E2E2E2E2E2E2E2E2E2E2E2E2E2E2E2E2E2E2E2E2E2E2E2E2E2E2E2E2E2E2E2E2E2E2E2E2E2E2E2E2E2E2E2E2E2E2F5E2E2F5F5E2F5F5F5F5E2E2E2E2E2E2E2E2E2E2E2E2E2E2E2E2E2E2E2E2E2E2
310
E2E2E2F5E2E2E2E2E2E2E2E2F5E2E2E2E2E2E2E2F5E2E2E2E2E2E2E2E2E2F5E2E2E2E2E2E2E2E2E2E2E2E2E2E2E2E2E2E2E2E2E2E2E2E2F5F5F5F5E2F5E2E2E2E2E2E2E2E2E2E2E2E2E2E2E2E2E2E2E2E2E2E2E2E2E2E2E2E2E2E2E2E2E2E2E2E2E2E2E2E2E2E2E2E2E2E2E2E2E2E2E2E2E2E2E2E2E2E2E2E2E2E2E2E2E2E2
310
E2E2E2E2E2E2E2E2E2E2E2E2E2E2E2E2E2E2E2E2E2F5E2E2F5F5E2F5F5F5F5E2E2E2E2E2E2E2E2E2E2E2E2E2E2E2E2E2E2E2E2E2E2E2E2E2F5E2E2E2E2E2E2E2E2F5E2E2E2E2E2E2E2F5E2E2E2E2E2E2E2E2E2F5E2E2E2E2E2E2E2E2E2E2E2E2E2E2E2E2E2E2E2E2E2E2E2E2F5F5F5F5E2F5E2E2E2E2E2E2E2E2E2E2E2E2E2
310
E2E2E2E2E2E2E2E2E2E2E2E2E2E2E2E2E2E2E2E2E2E2E2E2E2E2E2E2E2E2E2E2E2E2E2E2E2E2E2E2E2E2E2E2E2E2E2E2E2E2E2E2E2E2E2E2E2E2E2E2E2E2E2E2E2E2E2E2E2E2E2E2E2E2F5E2E2F5F5E2F5F5F5F5E2E2E2E2E2E2E2E2E2E2E2E2E2E2E2E2E2E2E2E2E2E2E2E2E2F5E2E2E2E2E2E2E2E2F5F5E2E2E2E2E2E2F5
310
E2E2E2E2E2E2E2E2E2F5E2E2E2E2E2E2E2E2E2E2E2E2E2E2E2E2E2E2E2E2E2E2E2E2F5F5F5F5E2F5E2E2E2E2E2E2E2E2E2E2E2E2E2E2E2E2E2E2E2E2E2E2E2E2E2E2E2E2E2E2E2E2E2E2E2E2E2E2E2E2E2E2E2E2E2E2E2E2E2E2E2E2E2E2E2E2E2E2E2E2E2E2E2E2E2E2E2E2E2E2E2E2E2E2E2E2E2E2E2E2E2E2E2E2E2E2E2
310
F5E2E2F5F5E2F5F5F5F5E2E2E2E2E2E2E2E2E2E2E2E2E2E2E2E2E2E2E2E2E2E2E2E2E2F5E2E2E2E2E2E2E2E2E2F5F5E2E2E2E2F5E2E2E2E2E2E2E2E2E2E2F5E2E2E2E2E2E2E2E2E2E2E2E2E2E2E2E2E2E2E2E2E2E2E2E2F5F5F5F5E2F5E2E2E2E2E2E2E2E2E2E2E2E2E2E2E2E2E2E2E2E2E2E2E2E2E2E2E2E2E2E2E2E2E2E2
310
E2E2E2E2E2E2E2E2E2E2E2E2E2E2E2E2E2E2E2E2E2E2E2E2E2E2E2E2E2E2E2E2E2E2E2E2E2E2E2E2E2E2E2E2E2E2E2E2E2E2E2E2E2F5E2E2F5F5E2F5F5F5F5E2E2E2E2E2E2E2E2E2E2E2E2E2E2E2E2E2E2E2E2E2E2E2E2E2F5E2E2E2E2E2E2E2E2E2E2F5F5F5F5F5F5E2E2E2E2E2E2E2E2E2E2F5E2E2E2E2E2E2E2E2E2E2E2
310
E2E2E2E2E2E2E2E2E2E2E2E2E2F5F5F5F5E2F5E2E2E2E2E2E2E2E2E2E2E2E2E2E2E2E2E2E2E2E2E2E2E2E2E2E2E2E2E2E2E2E2E2E2E2E2E2E2E2E2E2E2E2E2E2E2E2E2E2E2E2E2E2E2E2E2E2E2E2E2E2E2E2E2E2E2E2E2E2E2E2E2E2E2E2E2E2E2E2E2E2E2E2E2E2E2E2F5E2E2F5F5E2F5F5F5F5E2E2E2E2E2E2E2E2E2E2E2
310
E2E2E2E2E2E2E2E2E2E2E2E2E2E2F5E2E2E2E2E2E2E2E2E2E2E2E2E2E2E2E2E2E2E2E2E2E2E2E2E2E2F5E2E2E2E2E2E2E2E2E2E2E2E2E2E2E2E2E2E2E2E2E2E2E2E2F5F5F5F5E2F5E2E2E2E2E2E2E2E2E2E2E2E2E2E2E2E2E2E2E2E2E2E2E2E2E2E2E2E2E2E2E2E2E2E2E2E2E2E2E2E2E2E2E2E2E2E2E2E2E2E2E2E2E2E2E2
310
E2E2E2E2E2E2E2E2E2E2E2E2E2E2E2E2E2E2E2E2E2E2E2E2E2E2E2E2E2E2E2E2F5E2E2F5F5E2F5F5F5F5E2E2E2E2E2E2E2E2E2E2E2E2E2E2E2E2E2E2E2E2E2E2E2E2E2F5E2E2E2E2E2E2E2E2E2E2E2E2E2E2E2E2E2E2E2E2E2E2E2E2E2E2F5E2E2E2E2E2E2E2E2E2E2E2E2E2E2E2E2E2E2E2E2E2E2E2E2F5F5F5F5E2F5E2E2
310
E2E2E2E2E2E2E2E2E2E2E2E2E2E2E2E2E2E2E2E2E2E2E2E2E2E2E2E2E2E2E2E2E2E2E2E2E2E2E2E2E2E2E2E2E2E2E2E2E2E2E2E2E2E2E2E2E2E2E2E2E2E2E2E2E2E2E2E2E2E2E2E2E2E2E2E2E2E2E2E2E2E2E2E2E2F5E2E2F5F5E2F5F5F5F5E2E2E2E2E2E2E2E2E2E2E2E2E2E2E2E2E2E2E2E2E2E2E2E2E2F5E2E2E2E2E2E2
310
E2E2E2E2E2E2E2E2E2E2E2E2E2E2E2E2E2E2E2E2F5E2E2E2E2E2E2E2E2E2E2E2E2E2E2E2E2E2E2E2E2E2E2E2E2F5F5F5F5E2F5E2E2E2E2E2E2E2E2E2E2E2E2E2E2E2E2E2E2E2E2E2E2E2E2E2E2E2E2E2E2E2E2E2E2E2E2E2E2E2E2E2E2E2E2E2E2E2E2E2E2E2E2E2E2E2E2E2E2E2E2E2E2E2E2E2E2E2E2E2E2E2E2E2E2E2E2
310
E2E2E2E2E2E2E2E2E2E2E2F5E2E2F5F5E2F5F5F5F5E2E2E2E2E2E2E2E2E2E2E2E2E2E2E2E2E2E2E2E2E2E2E2E2E2F5E2E2E2E2E2E2E2E2E2E2E2E2E2E2E2E2E2E2E2E2E2E2E2E2E2E2F5E2E2E2E2E2E2E2E2E2E2E2E2E2E2E2E2E2E2E2E2E2E2E2E2F5F5F5F5E2F5E2E2E2E2E2E2E2E2E2E2E2E2E2E2E2E2E2E2E2E2E2E2E2
310
E2E2E2E2E2E2E2E2E2E2E2E2E2E2E2E2E2E2E2E2E2E2E2E2E2E2E2E2E2E2E2E2E2E2E2E2E2E2E2E2E2E2E2E2E2E2E2E2E2E2E2E2E2E2E2E2E2E2E2E2E2E2E2E2F5E2E2F5F5E2F5F5F5F5E2E2E2E2E2E2E2E2E2E2E2E2E2E2E2E2E2E2E2E2E2E2E2E2E2F5E2E2E2E2E2E2E2E2E2E2E2E2E2E2E2E2E2E2E2E2E2E2E2E2E2E2F5
310
E2E2E2E2E2E2E2E2E2E2E2E2E2E2E2E2E2E2E2E2E2E2E2E2F5F5F5F5E2F5E2E2E2E2E2E2E2E2E2E2E2E2E2E2E2E2E2E2E2E2E2E2E2E2E2E2E2E2E2E2E2E2E2E2E2E2E2E2E2E2E2E2E2E2E2E2E2E2E2E2E2E2E2E2E2E2E2E2E2E2E2E2E2E2E2E2E2E2E2E2E2E2E2E2E2E2E2E2E2E2E2E2E2E2E2E2E2F5E2E2F5F5E2F5F5F5F5
310
E2E2E2E2E2E2E2E2E2E2E2E2E2E2E2E2E2E2E2E2E2E2E2E2E2F5E2E2E2E2E2E2E2E2E2E2E2E2E2E2E2E2E2E2E2E2E2E2E2E2E2E2F5E2E2E2E2E2E2E2E2E2E2E2E2E2E2E2E2E2E2E2E2E2E2E2E2F5F5F5F5E2F5E2E2E2E2E2E2E2E2E2E2E2E2E2E2E2E2E2E2E2E2E2E2E2E2E2E2E2E2E2E2E2E2E2E2E2E2E2E2E2E2E2E2E2E2
310
E2E2E2E2E2E2E2E2E2E2E2E2E2E2E2E2E2E2E2E2E2E2E2E2E2E2E2E2E2E2E2E2E2E2E2E2E2E2E2E2E2E2E2F5E2E2F5F5E2F5F5F5F5E2E2E2E2E2E2E2E2E2E2E2E2E2E2E2E2E2E2E2E2E2E2E2E2E2F5E2E2E2E2E2E2E2E2E2E2E2E2E2E2E2E2E2E2E2E2E2E2E2E2E2E2F5E2E2E2E2E2E2E2E2E2E2E2E2E2E2E2E2E2E2E2E2E2
310
E2E2E2F5F5F5F5E2F5E2E2E2E2E2E2E2E2E2E2E2E2E2E2E2E2E2E2E2E2E2E2E2E2E2E2E2E2E2E2E2E2E2E2E2E2E2E2E2E2E2E2E2E2E2E2E2E2E2E2E2E2E2E2E2E2E2E2E2E2E2E2E2E2E2E2E2E2E2E2E2E2E2E2E2E2E2E2E2E2E2E2E2E2E2E2E2F5E2E2F5F5E2F5F5F5F5E2E2E2E2E2E2E2E2E2E2E2E2E2E2E2E2E2E2E2E2E2
310
E2E2E2E2F5E2E2E2E2E2E2E2E2E2E2E2E2E2E2E2E2E2E2E2E2E2E2E2E2E2E2F5E2E2E2E2E2E2E2E2E2E2E2E2E2E2E2E2E2E2E2E2E2E2E2E2F5F5F5F5E2F5E2E2E2E2E2E2E2E2E2E2E2E2E2E2E2E2E2E2E2E2E2E2E2E2E2E2E2E2E2E2E2E2E2E2E2E2E2E2E2E2E2E2E2E2E2E2E2E2E2E2E2E2E2E2E2E2E2E2E2E2E2E2E2E2E2
310
E2E2E2E2E2E2E2E2E2E2E2E2E2E2E2E2E2E2E2E2E2E2F5E2E2F5F5E2F5F5F5F5E2E2E2E2E2E2E2E2E2E2E2E2E2E2E2E2E2E2E2E2E2E2E2E2E2F5E2E2E2E2E2E2E2E2E2E2E2E2E2E2E2E2E2E2E2E2E2E2E2E2E2F5F5E2E2E2E2E2E2E2E2E2E2E2E2E2E2E2E2E2E2E2E2E2E2E2E2F5F5F5F5E2F5E2E2E2E2E2E2E2E2E2E2E2E2
310
E2E2E2E2E2E2E2E2E2E2E2E2E2E2E2E2E2E2E2E2E2E2E2E2E2E2E2E2E2E2E2E2E2E2E2E2E2E2E2E2E2E2E2E2E2E2E2E2E2E2E2E2E2E2E2E2E2E2E2E2E2E2E2E2E2E2E2E2E2E2E2E2E2E2E2F5E2E2F5F5E2F5F5F5F5E2E2E2E2E2E2E2E2E2E2E2E2E2E2E2E2E2E2E2E2E2E2E2E2F5F5F5F5F5F5F5F5F5F5F5F5F5F5F5F5F5F5
310
F5F5F5F5F5F5F5F5F5F5E2F5E2E2E2E2E2E2E2E2E2E2E2E2E2E2E2E2E2E2E2E2E2E2E2F5F5F5F5E2F5E2E2E2E2E2E2E2E2E2E2E2E2E2E2E2E2E2E2E2E2E2E2E2E2E2E2E2E2E2E2E2E2E2E2E2E2E2E2E2E2E2E2E2E2E2E2E2E2E2E2E2E2E2E2E2E2E2E2E2E2E2E2E2E2E2E2E2E2E2E2E2E2E2E2E2E2E2E2E2E2E2E2E2E2E2E2
310
E2F5E2E2F5F5E2F5F5F5F5E2E2E2E2E2E2E2E2E2E2E2E2E2E2E2E2E2E2E2E2E2E2F5F5F5E2E2E2E2E2E2E2E2E2E2E2E2E2E2E2E2E2E2E2E2E2E2E2E2E2E2E2F5E2F5E2E2E2E2E2E2E2E2E2E2E2E2E2E2E2E2E2E2E2E2E2E2F5F5F5F5E2F5E2E2E2E2E2E2E2E2E2E2E2E2E2E2E2E2E2E2E2E2E2E2E2E2E2E2E2E2E2E2E2E2E2
310
E2E2E2E2E2E2E2E2E2E2E2E2E2E2E2E2E2E2E2E2E2E2E2E2E2E2E2E2E2E2E2E2E2E2E2E2E2E2E2E2E2E2E2E2E2E2E2E2E2E2E2E2E2E2F5E2E2F5F5E2F5F5F5F5E2E2E2E2E2E2E2E2E2E2E2E2E2E2E2E2E2E2E2E2E2F5E2F5E2E2E2E2E2E2E2E2E2E2E2E2E2E2E2E2E2E2E2E2E2E2E2E2E2E2E2E2E2F5E2F5E2E2E2E2E2E2E2
310
E2E2E2E2E2E2E2E2E2E2E2E2E2E2F5F5F5F5E2F5E2E2E2E2E2E2E2E2E2E2E2E2E2E2E2E2E2E2E2E2E2E2E2E2E2E2E2E2E2E2E2E2E2E2E2E2E2E2E2E2E2E2E2E2E2E2E2E2E2E2E2E2E2E2E2E2E2E2E2E2E2E2E2E2E2E2E2E2E2E2E2E2E2E2E2E2E2E2E2E2E2E2E2E2E2E2E2F5E2E2F5F5E2F5F5F5F5E2E2E2E2E2E2E2E2E2E2
310
E2E2E2E2E2E2E2E2E2E2F5E2F5E2E2E2E2E2E2E2E2E2E2E2E2E2E2E2E2E2E2E2E2E2E2E2E2E2E2E2E2E2E2E2F5E2F5E2E2E2E2E2E2E2E2E2E2E2E2E2E2E2E2E2E2E2E2F5F5F5F5E2F5E2E2E2E2E2E2E2E2E2E2E2E2E2E2E2E2E2E2E2E2E2E2E2E2E2E2E2E2E2E2E2E2E2E2E2E2E2E2E2E2E2E2E2E2E2E2E2E2E2E2E2E2E2E2
310
E2E2E2E2E2E2E2E2E2E2E2E2E2E2E2E2E2E2E2E2E2E2E2E2E2E2E2E2E2E2E2E2E2F5E2E2F5F5E2F5F5F5F5E2E2E2E2E2E2E2E2E2E2E2E2E2E2E2E2E2E2F5F5E2F5E2E2E2E2E2E2E2E2E2E2E2E2E2E2E2E2E2E2E2E2E2E2E2E2E2E2E2E2E2E2E2E2E2F5F5F5F5F5E2E2E2E2E2E2E2E2E2E2E2E2E2E2E2E2E2F5F5F5F5E2F5E2
310
E2E2E2E2E2E2E2E2E2E2E2E2E2E2E2E2E2E2E2E2E2E2E2E2E2E2E2E2E2E2E2E2E2E2E2E2E2E2E2E2E2E2E2E2E2E2E2E2E2E2E2E2E2E2E2E2E2E2E2E2E2E2E2E2E2E2E2E2E2E2E2E2E2E2E2E2E2E2E2E2E2E2E2E2E2E2F5E2E2F5F5E2F5F5F5F5E2E2E2E2E2E2E2E2E2E2E2E2E2E2E2E2E2F5E2E2F5E2E2E2E2E2E2E2E2E2E2
310
E2E2E2E2E2E2E2E2E2E2E2E2E2E2E2E2E2E2E2E2E2E2E2E2E2E2F5E2E2F5E2E2E2E2E2E2E2E2E2E2E2E2E2E2E2E2F5F5F5F5E2F5E2E2E2E2E2E2E2E2E2E2E2E2E2E2E2E2E2E2E2E2E2E2E2E2E2E2E2E2E2E2E2E2E2E2E2E2E2E2E2E2E2E2E2E2E2E2E2E2E2E2E2E2E2E2E2E2E2E2E2E2E2E2E2E2E2E2E2E2E2E2E2E2E2E2E2
310
E2E2E2E2E2E2E2E2E2E2E2E2F5E2E2F5F5E2F5F5F5F5E2E2E2E2E2E2E2E2E2E2E2E2E2E2E2F5F5E2E2F5E2E2E2E2E2E2E2E2E2E2E2E2E2E2E2E2E2E2E2E2E2E2E2E2E2E2E2E2E2E2E2E2E2E2E2E2E2E2F5E2E2F5E2E2E2E2E2E2E2E2E2E2E2E2E2E2E2F5F5F5F5E2F5E2E2E2E2E2E2E2E2E2E2E2E2E2E2E2E2E2E2E2E2E2E2
310
E2E2E2E2E2E2E2E2E2E2E2E2E2E2E2E2E2E2E2E2E2E2E2E2E2E2E2E2E2E2E2E2E2E2E2E2E2E2E2E2E2E2E2E2E2E2E2E2E2E2E2E2E2E2E2E2E2E2E2E2E2E2E2E2E2F5E2E2F5F5E2F5F5F5F5E2E2E2E2E2E2E2E2E2E2E2E2E2E2F5E2E2F5F5E2E2E2E2E2E2E2E2E2E2E2E2E2E2E2E2E2E2E2E2E2E2E2E2E2E2E2E2E2E2E2E2E2
310
E2E2E2E2E2E2E2F5F5E2F5E2E2E2E2E2E2E2E2E2E2E2E2E2E2F5F5F5F5E2F5E2E2E2E2E2E2E2E2E2E2E2E2E2E2E2E2E2E2E2E2E2E2E2E2E2E2E2E2E2E2E2E2E2E2E2E2E2E2E2E2E2E2E2E2E2E2E2E2E2E2E2E2E2E2E2E2E2E2E2E2E2E2E2E2E2E2E2E2E2E2E2E2E2E2E2E2E2E2E2E2E2E2E2E2E2E2E2F5E2E2F5F5E2F5F5F5
310
F5E2E2E2E2E2E2E2E2E2E2E2E2E2F5E2E2F5E2E2E2E2E2E2E2E2E2E2E2E2E2E2E2E2E2E2E2E2E2E2E2E2E2E2E2E2E2E2E2E2E2E2E2E2E2E2E2E2E2E2E2E2F5E2F5E2E2E2E2E2E2E2E2E2E2E2E2E2F5F5F5F5E2F5E2E2E2E2E2E2E2E2E2E2E2E2E2E2E2E2E2E2E2E2E2E2E2E2E2E2E2E2E2E2E2E2E2E2E2E2E2E2E2E2E2E2E2
310
E2E2E2E2E2E2E2E2E2E2E2E2E2E2E2E2E2E2E2E2E2E2E2E2E2E2E2E2E2E2E2E2E2E2E2E2E2E2E2E2E2E2E2E2F5E2E2F5F5E2F5F5F5F5E2E2E2E2E2E2E2E2E2E2E2E2F5E2E2F5E2E2E2E2E2E2E2E2E2E2E2E2E2E2E2E2E2E2E2E2E2E2E2E2E2E2E2E2E2E2E2E2E2E2E2E2E2E2E2E2E2E2E2E2E2E2F5E2F5E2E2E2E2E2E2E2E2
310
E2E2E2E2F5F5F5F5E2F5E2E2E2E2E2E2E2E2E2E2E2E2E2E2E2E2E2E2E2E2E2E2E2E2E2E2E2E2E2E2E2E2E2E2E2E2E2E2E2E2E2E2E2E2E2E2E2E2E2E2E2E2E2E2E2E2E2E2E2E2E2E2E2E2E2E2E2E2E2E2E2E2E2E2E2E2E2E2E2E2E2E2E2E2E2E2E2F5E2E2F5F5E2F5F5F5F5E2E2E2E2E2E2E2E2E2E2F5F5E2E2F5E2E2E2E2E2
310
E2E2E2E2E2E2E2E2E2E2E2E2E2E2E2E2E2E2E2E2E2E2E2E2E2E2E2E2E2E2E2E2E2E2E2E2E2E2E2E2E2E2E2F5E2F5F5E2E2E2E2E2E2E2E2E2E2F5F5F5F5E2F5E2E2E2E2E2E2E2E2E2E2E2E2E2E2E2E2E2E2E2E2E2E2E2E2E2E2E2E2E2E2E2E2E2E2E2E2E2E2E2E2E2E2E2E2E2E2E2E2E2E2E2E2E2E2E2E2E2E2E2E2E2E2E2E2
310
E2E2E2E2E2E2E2E2E2E2E2E2E2E2E2E2E2E2E2E2E2E2E2F5E2E2F5F5E2F5F5F5F5E2E2E2E2E2E2E2E2E2F5E2E2E2F5E2E2E2E2E2E2E2E2E2E2E2E2E2E2E2E2E2E2E2E2E2E2E2E2E2E2E2E2E2E2E2E2E2E2E2E2E2E2E2E2E2E2E2E2E2E2E2E2E2E2F5E2E2F5E2E2E2E2E2E2E2E2E2F5F5F5F5E2F5E2E2E2E2E2E2E2E2E2E2E2
310
E2E2E2E2E2E2E2E2E2E2E2E2E2E2E2E2E2E2E2E2E2E2E2E2E2E2E2E2E2E2E2E2E2E2E2E2E2E2E2E2E2E2E2E2E2E2E2E2E2E2E2E2E2E2E2E2E2E2E2E2E2E2E2E2E2E2E2E2E2E2E2E2E2E2E2E2F5E2E2F5F5E2F5F5F5F5E2E2E2E2E2E2E2E2F5E2E2E2F5E2E2E2E2E2E2E2E2E2E2E2E2E2E2E2E2E2E2E2E2E2E2E2E2E2E2E2E2
310
E2E2E2E2E2E2E2E2E2E2E2E2E2E2E2E2E2E2E2E2E2E2E2E2F5E2E2F5E2E2E2E2E2E2E2E2F5F5F5F5E2F5E2E2E2E2E2E2E2E2E2E2E2E2E2E2E2E2E2E2E2E2E2E2E2E2E2E2E2E2E2E2E2E2E2E2E2E2E2E2E2E2E2E2E2E2E2E2E2E2E2E2E2E2E2E2E2E2E2E2E2E2E2E2E2E2E2E2E2E2E2E2E2E2E2E2E2E2E2E2E2E2E2E2E2E2E2
310
E2E2F5E2E2F5F5E2F5F5F5F5E2E2E2E2E2E2E2F5E2E2F5F5E2E2E2E2E2E2E2E2E2E2E2E2E2E2E2E2E2E2E2E2E2E2E2E2E2E2E2E2E2E2E2E2E2E2E2E2E2E2E2E2E2E2E2E2E2E2E2E2E2E2E2E2E2E2F5F5E2F5E2E2E2E2E2E2E2F5F5F5F5E2F5E2E2E2E2E2E2E2E2E2E2E2E2E2E2E2E2E2E2E2E2E2E2E2E2E2E2E2E2E2E2E2E2
310
E2E2E2E2E2E2E2E2E2E2E2E2E2E2E2E2E2E2E2E2E2E2E2E2E2E2E2E2E2E2E2E2E2E2E2E2E2E2E2E2E2E2E2E2E2E2E2E2E2E2E2E2E2E2E2F5E2E2F5F5E2F5F5F5F5E2E2E2E2E2F5F5E2E2F5E2E2E2E2E2E2E2E2E2E2E2E2E2E2E2E2E2E2E2E2E2E2E2E2E2E2E2E2E2E2E2E2E2E2E2E2E2E2E2E2E2E2E2E2E2E2E2E2E2E2E2E2
310
E2E2E2E2E2E2F5E2F5F5E2E2E2E2E2F5F5F5F5E2F5E2E2E2E2E2E2E2E2E2E2E2E2E2E2E2E2E2E2E2E2E2E2E2E2E2E2E2E2E2E2E2E2E2E2E2E2E2E2E2E2E2E2E2E2E2E2E2E2E2E2E2E2E2E2E2E2E2E2E2E2E2E2E2E2E2E2E2E2E2E2E2E2E2E2E2E2E2E2E2E2E2E2E2E2E2E2E2F5E2E2F5F5E2F5F5F5F5E2E2E2E2F5E2E2E2F5
310
E2E2E2E2E2E2E2E2E2E2E2E2E2E2E2E2E2E2E2E2E2E2E2E2E2E2E2E2E2E2E2E2E2E2E2E2E2E2E2E2E2E2E2E2E2E2E2E2E2E2E2E2E2E2E2E2E2E2E2E2F5E2E2F5E2E2E2E2F5F5F5F5E2F5E2E2E2E2E2E2E2E2E2E2E2E2E2E2E2E2E2E2E2E2E2E2E2E2E2E2E2E2E2E2E2E2E2E2E2E2E2E2E2E2E2E2E2E2E2E2E2E2E2E2E2E2E2
310
E2E2E2E2E2E2E2E2E2E2E2E2E2E2E2E2E2E2E2E2E2E2E2E2E2E2E2E2E2E2E2E2E2E2F5E2E2F5F5E2F5F5F5F5E2E2E2F5E2E2E2F5E2E2E2E2E2E2E2E2E2E2E2E2E2E2E2E2E2E2E2E2E2E2E2E2E2E2F5F5F5F5F5F5F5F5F5F5E2E2E2E2E2E2E2E2E2E2E2E2E2E2E2E2E2E2E2E2E2E2E2E2E2E2F5E2E2F5E2E2E2F5F5F5F5E2F5
310
E2E2E2E2E2E2E2E2E2E2E2E2E2E2E2E2E2E2E2E2E2E2E2E2E2E2E2E2E2E2E2E2E2E2E2E2E2E2E2E2E2E2E2E2E2E2E2E2E2E2E2E2E2E2E2E2E2E2E2E2E2E2E2E2E2E2E2E2E2E2E2E2E2E2E2E2E2E2E2E2E2E2E2E2E2E2E2F5E2E2F5F5E2F5F5F5F5E2E2F5E2E2E2F5E2E2E2E2E2E2E2E2E2E2E2E2E2E2E2E2E2E2E2E2E2E2E2
310
E2E2E2F5F5F5F5F5F5F5F5F5F5F5E2E2E2E2E2E2E2E2E2E2E2E2E2E2E2E2E2E2E2E2E2E2E2E2E2E2E2F5E2E2F5E2E2F5F5F5F5E2F5E2E2E2E2E2E2E2E2E2E2E2E2E2E2E2E2E2E2E2E2E2E2E2E2E2E2E2E2E2E2E2E2E2E2E2E2E2E2E2E2E2E2E2E2E2E2E2E2E2E2E2E2E2E2E2E2E2E2E2E2E2E2E2E2E2E2E2E2E2E2E2E2E2E2
310
E2E2E2E2E2E2E2E2E2E2E2E2E2F5E2E2F5F5E2F5F5F5F5E2F5E2E2E2F5E2E2E2E2E2E2E2E2E2E2E2E2E2E2E2E2E2E2E2E2E2E2E2E2E2E2E2F5F5F5F5F5F5F5F5F5F5F5E2E2E2E2E2E2E2E2E2E2E2E2E2E2E2E2E2E2E2E2E2E2E2E2E2E2E2E2F5E2E2F5E2F5F5F5F5E2F5E2E2E2E2E2E2E2E2E2E2E2E2E2E2E2E2E2E2E2E2E2
310
E2E2E2E2E2E2E2E2E2E2E2E2E2E2E2E2E2E2E2E2E2E2E2E2E2E2E2E2E2E2E2E2E2E2E2E2E2E2E2E2E2E2E2E2E2E2E2E2E2E2E2E2E2E2E2E2E2E2E2E2E2E2E2E2E2E2F5E2E2F5F5E2F5F5F5F5F5E2E2F5F5E2E2E2E2E2E2E2E2E2E2E2E2E2E2E2E2E2E2E2E2E2E2E2E2E2E2E2E2E2E2E2E2E2E2E2E2E2E2E2E2E2E2E2E2E2E2
310
E2E2E2E2E2E2E2E2E2E2E2E2E2E2E2E2E2E2E2E2E2E2F5F5E2F5F5F5F5F5E2F5E2E2E2E2E2E2E2E2E2E2E2E2E2E2E2E2E2E2E2E2E2E2E2E2E2E2E2E2E2E2E2E2E2E2E2E2E2E2E2E2E2E2E2E2E2E2E2E2E2E2E2E2E2E2E2E2E2E2E2E2E2E2E2E2E2E2E2E2E2E2E2E2E2E2E2E2E2E2E2E2E2E2E2E2E2E2E2F5E2E2F5F5E2F5F5
310
F5F5E2E2F5E2E2E2E2E2E2E2E2E2E2E2E2E2E2E2E2E2E2E2E2E2E2E2E2E2E2E2E2E2E2E2E2E2E2E2E2E2E2E2E2E2E2E2E2E2E2E2E2E2E2E2E2E2E2E2E2E2E2E2E2E2E2E2E2E2E2E2E2E2E2E2E2F5E2F5F5F5F5E2F5E2E2E2E2E2E2E2E2E2E2E2E2E2E2E2E2E2E2E2E2E2E2E2E2E2E2E2E2E2E2E2E2E2E2E2E2E2E2E2E2E2E2
310
E2E2E2E2E2E2E2E2E2E2E2E2E2E2E2E2E2E2E2E2E2E2E2E2E2E2E2E2E2E2E2E2E2E2E2E2E2E2E2E2E2E2E2E2E2F5E2E2F5F5E2F5F5F5F5F5F5F5F5F5F5F5F5F5F5F5F5F5F5F5F5F5F5F5F5F5F5F5F5F5F5F5F5F5F5F5F5F5F5F5F5F5F5F5F5F5F5F5F5F5F5F5F5F5F5F5F5F5F5F5F5F5F5F5F5F5F5F5F5F5F5F5F5F5F5F5F5
310
F5F5F5F5F5F5F5F5F5E2F5E2E2E2E2E2E2E2E2E2E2E2E2E2E2E2E2E2E2E2E2E2E2E2E2E2E2E2E2E2E2E2E2E2E2E2E2E2E2E2E2E2E2E2E2E2E2E2E2E2E2E2E2E2E2E2E2E2E2E2E2E2E2E2E2E2E2E2E2E2E2E2E2E2E2E2E2E2E2E2E2E2E2E2E2E2E2E2F5E2E2F5F5F5F5F5F5F5F5F5F5F5F5F5F5F5F5F5F5F5F5F5F5F5F5F5F5
310
F5F5F5F5F5F5F5F5F5F5F5F5F5F5F5F5F5F5F5F5F5F5F5F5F5F5F5F5F5F5F5F5F5F5F5F5F5F5F5F5F5F5F5F5F5F5F5F5F5F5F5F5F5F5F5F5F5F5F5F5F5F5E2F5E2E2E2E2E2E2E2E2E2E2E2E2E2E2E2E2E2E2E2E2E2E2E2E2E2E2E2E2E2E2E2E2E2E2E2E2E2E2E2E2E2E2E2E2E2E2E2E2E2E2E2E2E2E2E2E2E2E2E2E2E2E2E2
310
E2E2E2E2E2E2E2E2E2E2E2E2E2E2E2E2E2E2E2E2E2E2E2E2F5E2E2F5E2F5E2F5F5F5F5F5F5F5F5F5F5F5F5F5F5F5F5F5F5F5F5F5F5F5F5F5F5F5F5F5F5F5F5F5F5F5F5F5F5F5F5F5F5F5F5F5F5F5F5F5F5F5F5F5F5F5F5F5F5F5F5F5F5F5F5F5F5F5F5F5F5F5F5F5F5F5F5F5F5F5F5F5F5F5F5F5F5E2E2E2E2E2E2E2E2E2E2
310
E2E2E2E2E2E2E2E2E2E2E2E2E2E2E2E2E2E2E2E2E2E2E2E2E2E2E2E2E2E2E2E2E2E2E2E2E2E2E2E2E2E2E2E2E2E2E2E2E2E2E2E2E2E2E2E2E2E2E2E2E2E2E2E2E2E2E2E2E2E2E2E2E2E2E2E2E2F5E2E2F5E2F5F5E2F5F5F5F5F5F5F5F5F5F5F5F5F5F5F5F5F5F5F5F5F5F5F5F5F5F5F5F5F5F5F5F5F5F5F5F5F5F5F5F5F5F5
310
F5F5F5F5F5F5F5F5F5F5F5F5F5F5F5F5F5F5F5F5F5F5F5F5F5F5F5F5F5F5F5F5F5F5F5F5F5F5F5F5E2F5E2E2E2E2E2E2E2E2E2E2E2E2E2E2E2E2E2E2E2E2E2E2E2E2E2E2E2E2E2E2E2E2E2E2E2E2E2E2E2E2E2E2E2E2E2E2E2E2E2E2E2E2E2E2E2E2E2E2E2E2E2E2E2E2E2E2E2E2E2E2E2E2E2E2E2E2E2E2E2E2E2E2E2E2E2
310
E2E2E2F5E2E2F5E2E2F5F5F5E2E2E2E2E2E2E2E2E2E2E2E2E2E2E2E2E2E2E2E2E2E2E2E2E2E2E2E2E2E2E2E2E2E2E2E2E2E2E2E2E2E2E2E2E2E2E2E2E2E2E2E2E2E2E2E2E2E2E2E2E2E2E2E2E2E2E2E2E2E2E2E2E2E2E2E2E2E2E2E2F5F5E2E2E2E2E2E2E2E2E2E2E2E2E2E2E2E2E2E2E2E2E2E2E2E2E2E2E2E2E2E2E2E2E2
310
E2E2E2E2E2E2E2E2E2E2E2E2E2E2E2E2E2E2E2E2E2E2E2E2E2E2E2E2E2E2E2E2E2E2E2E2E2E2E2E2E2E2E2E2E2E2E2E2E2E2E2E2E2E2E2E2F5E2E2F5E2E2E2E2F5F5F5F5F5F5F5F5F5F5F5F5F5F5F5F5F5F5F5F5F5F5F5F5F5F5F5F5F5F5F5F5F5F5F5F5F5F5F5F5F5F5F5F5F5F5F5F5F5F5F5F5F5F5F5F5F5F5F5F5F5F5F5
310
F5F5F5F5F5F5F5F5F5F5F5F5F5F5F5F5F5F5E2E2E2E2E2E2E2E2E2E2E2E2E2E2E2E2E2E2E2E2E2E2E2E2E2E2E2E2E2E2E2E2E2E2E2E2E2E2E2E2E2E2E2E2E2E2E2E2E2E2E2E2E2E2E2E2E2E2E2E2E2E2E2E2E2E2E2E2E2E2E2E2E2E2E2E2E2E2E2E2E2E2E2E2E2E2E2E2E2E2E2F5E2E2F5E2E2E2E2E2E2E2E2E2E2E2E2E2E2
310
E2E2E2E2E2E2E2E2E2E2E2E2E2E2E2E2E2E2E2E2E2E2E2E2E2E2E2E2E2E2E2E2E2E2E2E2E2E2E2E2E2E2E2E2E2E2E2E2E2E2E2E2E2E2E2E2E2E2E2E2E2E2E2E2E2E2E2E2E2E2E2E2E2E2E2E2E2E2E2E2E2E2E2E2E2E2E2E2E2E2E2E2E2E2E2E2E2E2E2E2E2E2E2E2E2E2E2E2E2E2E2E2E2E2E2E2E2E2E2E2E2E2E2E2E2E2E2
310
E2E2E2E2E2E2E2E2E2E2E2E2E2E2E2E2E2E2E2E2E2E2E2E2E2E2E2E2E2E2E2E2E2E2E2F5E2E2F5F5F5F5F5F5F5F5F5F5F5F5F5F5F5F5F5F5F5F5F5F5F5F5F5F5F5F5F5F5F5F5F5F5F5F5F5F5F5F5F5F5F5F5F5F5F5F5F5F5F5F5F5F5F5F5F5F5F5F5F5F5F5F5F5F5F5F5F5F5F5F5F5F5F5F5F5F5F5F5F5F5F5F5F5F5F5F5F5
310
F5F5F5F5F5F5F5F5F5F5F5F5F5F5F5F5F5F5F5F5F5F5F5F5F5F5F5F5F5F5F5F5F5F5F5F5F5F5F5F5F5F5F5F5F5F5F5F5F5F5F5F5F5F5F5F5F5F5F5F5F5F5F5F5F5F5F5F5F5F5F5F5F5F5F5F5F5F5F5F5F5F5F5F5F5F5F5F5F5E2E2
  0
XRECORD
  5
2EE
102
{ACAD_REACTORS
330
2ED
102
}
330
2ED
100
AcDbXrecord
280
     1
102
SHADEPLOT
 70
     0
102
SHADEPLOTRESLEVEL
 70
     2
102
SHADEPLOTCUSTOMDPI
 70
   300
  0
XRECORD
  5
2F9
102
{ACAD_REACTORS
330
2F8
102
}
330
2F8
100
AcDbXrecord
280
     1
102
MATERIAL
148
0.0
149
0.0
149
0.0
 93
        0
 94
       63
282
     0
 72
     1
 77
     1
171
     1
175
     1
179
     1
273
     0
  0
XRECORD
  5
2F7
102
{ACAD_REACTORS
330
2F6
102
}
330
2F6
100
AcDbXrecord
280
     1
102
MATERIAL
148
0.0
149
0.0
149
0.0
 93
        0
 94
       63
282
     0
 72
     1
 77
     1
171
     1
175
     1
179
     1
273
     0
  0
XRECORD
  5
2FB
102
{ACAD_REACTORS
330
2FA
102
}
330
2FA
100
AcDbXrecord
280
     1
102
MATERIAL
148
0.0
149
0.0
149
0.0
 93
        0
 94
       63
282
     0
 72
     1
 77
     1
171
     1
175
     1
179
     1
273
     0
  0
XRECORD
  5
2F1
102
{ACAD_REACTORS
330
2F0
102
}
330
2F0
100
AcDbXrecord
280
     1
102
ACAD_ROUNDTRIP_PRE2007_TABLESTYLE
 90
        4
 91
        0
  1

 92
        4
 93
        0
  2

 94
        4
 95
        0
  3

  0
ENDSEC
  0
EOF
