  0
SECTION
  2
HEADER
  9
$ACADVER
  1
AC1015
  9
$ACADMAINTVER
 70
    20
  9
$DWGCODEPAGE
  3
ANSI_1252
  9
$INSBASE
 10
0.0
 20
0.0
 30
0.0
  9
$EXTMIN
 10
6.886170853728117
 20
10.33477883359273
 30
-0.0015258207003583
  9
$EXTMAX
 10
54.33474809831796
 20
41.00036675925411
 30
0.0000000349246037
  9
$LIMMIN
 10
-25.0
 20
-10.0
  9
$LIMMAX
 10
569.0
 20
410.0
  9
$ORTHOMODE
 70
     1
  9
$REGENMODE
 70
     1
  9
$FILLMODE
 70
     1
  9
$QTEXTMODE
 70
     0
  9
$MIRRTEXT
 70
     1
  9
$LTSCALE
 40
1.0
  9
$ATTMODE
 70
     1
  9
$TEXTSIZE
 40
3.0
  9
$TRACEWID
 40
0.5
  9
$TEXTSTYLE
  7
BIGFONT
  9
$CLAYER
  8
0
  9
$CELTYPE
  6
BYLAYER
  9
$CECOLOR
 62
   256
  9
$CELTSCALE
 40
1.0
  9
$DISPSILH
 70
     0
  9
$DIMSCALE
 40
1.0
  9
$DIMASZ
 40
3.0
  9
$DIMEXO
 40
1.0
  9
$DIMDLI
 40
5.0
  9
$DIMRND
 40
0.0
  9
$DIMDLE
 40
0.0
  9
$DIMEXE
 40
1.5
  9
$DIMTP
 40
0.0
  9
$DIMTM
 40
0.0
  9
$DIMTXT
 40
3.0
  9
$DIMCEN
 40
2.0
  9
$DIMTSZ
 40
0.0
  9
$DIMTOL
 70
     0
  9
$DIMLIM
 70
     0
  9
$DIMTIH
 70
     0
  9
$DIMTOH
 70
     0
  9
$DIMSE1
 70
     0
  9
$DIMSE2
 70
     0
  9
$DIMTAD
 70
     1
  9
$DIMZIN
 70
     8
  9
$DIMBLK
  1

  9
$DIMASO
 70
     1
  9
$DIMSHO
 70
     1
  9
$DIMPOST
  1

  9
$DIMAPOST
  1

  9
$DIMALT
 70
     1
  9
$DIMALTD
 70
     0
  9
$DIMALTF
 40
25.4
  9
$DIMLFAC
 40
1.0
  9
$DIMTOFL
 70
     0
  9
$DIMTVP
 40
1.0
  9
$DIMTIX
 70
     0
  9
$DIMSOXD
 70
     0
  9
$DIMSAH
 70
     0
  9
$DIMBLK1
  1

  9
$DIMBLK2
  1

  9
$DIMSTYLE
  2
ISO-25
  9
$DIMCLRD
 70
     0
  9
$DIMCLRE
 70
     0
  9
$DIMCLRT
 70
     0
  9
$DIMTFAC
 40
1.0
  9
$DIMGAP
 40
1.0
  9
$DIMJUST
 70
     0
  9
$DIMSD1
 70
     0
  9
$DIMSD2
 70
     0
  9
$DIMTOLJ
 70
     1
  9
$DIMTZIN
 70
     0
  9
$DIMALTZ
 70
     0
  9
$DIMALTTZ
 70
     0
  9
$DIMUPT
 70
     0
  9
$DIMDEC
 70
     4
  9
$DIMTDEC
 70
     4
  9
$DIMALTU
 70
     2
  9
$DIMALTTD
 70
     0
  9
$DIMTXSTY
  7
STANDARD
  9
$DIMAUNIT
 70
     0
  9
$DIMADEC
 70
     0
  9
$DIMALTRND
 40
0.0
  9
$DIMAZIN
 70
     0
  9
$DIMDSEP
 70
    46
  9
$DIMATFIT
 70
     3
  9
$DIMFRAC
 70
     0
  9
$DIMLDRBLK
  1

  9
$DIMLUNIT
 70
     2
  9
$DIMLWD
 70
    -2
  9
$DIMLWE
 70
    -2
  9
$DIMTMOVE
 70
     0
  9
$LUNITS
 70
     2
  9
$LUPREC
 70
     4
  9
$SKETCHINC
 40
1.0
  9
$FILLETRAD
 40
0.0
  9
$AUNITS
 70
     0
  9
$AUPREC
 70
     0
  9
$MENU
  1
.
  9
$ELEVATION
 40
0.0
  9
$PELEVATION
 40
0.0
  9
$THICKNESS
 40
0.0
  9
$LIMCHECK
 70
     0
  9
$CHAMFERA
 40
0.0
  9
$CHAMFERB
 40
0.0
  9
$CHAMFERC
 40
0.0
  9
$CHAMFERD
 40
0.0
  9
$SKPOLY
 70
     0
  9
$TDCREATE
 40
2452290.696087963
  9
$TDUCREATE
 40
2452290.987754629
  9
$TDUPDATE
 40
2454923.621411760
  9
$TDUUPDATE
 40
2454923.913078426
  9
$TDINDWG
 40
0.0122382176
  9
$TDUSRTIMER
 40
0.0122382176
  9
$USRTIMER
 70
     1
  9
$ANGBASE
 50
0.0
  9
$ANGDIR
 70
     0
  9
$PDMODE
 70
     0
  9
$PDSIZE
 40
0.0
  9
$PLINEWID
 40
0.0
  9
$SPLFRAME
 70
     0
  9
$SPLINETYPE
 70
     6
  9
$SPLINESEGS
 70
     8
  9
$HANDSEED
  5
B27
  9
$SURFTAB1
 70
     6
  9
$SURFTAB2
 70
     6
  9
$SURFTYPE
 70
     6
  9
$SURFU
 70
     6
  9
$SURFV
 70
     6
  9
$UCSBASE
  2

  9
$UCSNAME
  2

  9
$UCSORG
 10
0.0
 20
0.0
 30
0.0
  9
$UCSXDIR
 10
1.0
 20
0.0
 30
0.0
  9
$UCSYDIR
 10
0.0
 20
1.0
 30
0.0
  9
$UCSORTHOREF
  2

  9
$UCSORTHOVIEW
 70
     0
  9
$UCSORGTOP
 10
0.0
 20
0.0
 30
0.0
  9
$UCSORGBOTTOM
 10
0.0
 20
0.0
 30
0.0
  9
$UCSORGLEFT
 10
0.0
 20
0.0
 30
0.0
  9
$UCSORGRIGHT
 10
0.0
 20
0.0
 30
0.0
  9
$UCSORGFRONT
 10
0.0
 20
0.0
 30
0.0
  9
$UCSORGBACK
 10
0.0
 20
0.0
 30
0.0
  9
$PUCSBASE
  2

  9
$PUCSNAME
  2

  9
$PUCSORG
 10
0.0
 20
1.0
 30
0.0
  9
$PUCSXDIR
 10
1.0
 20
0.0
 30
0.0
  9
$PUCSYDIR
 10
0.0
 20
1.0
 30
0.0
  9
$PUCSORTHOREF
  2

  9
$PUCSORTHOVIEW
 70
     0
  9
$PUCSORGTOP
 10
0.0
 20
0.0
 30
0.0
  9
$PUCSORGBOTTOM
 10
0.0
 20
0.0
 30
0.0
  9
$PUCSORGLEFT
 10
0.0
 20
0.0
 30
0.0
  9
$PUCSORGRIGHT
 10
0.0
 20
0.0
 30
0.0
  9
$PUCSORGFRONT
 10
0.0
 20
0.0
 30
0.0
  9
$PUCSORGBACK
 10
0.0
 20
0.0
 30
0.0
  9
$USERI1
 70
     0
  9
$USERI2
 70
     0
  9
$USERI3
 70
     0
  9
$USERI4
 70
     0
  9
$USERI5
 70
     0
  9
$USERR1
 40
0.0
  9
$USERR2
 40
0.0
  9
$USERR3
 40
0.0
  9
$USERR4
 40
0.0
  9
$USERR5
 40
0.0
  9
$WORLDVIEW
 70
     1
  9
$SHADEDGE
 70
     3
  9
$SHADEDIF
 70
    70
  9
$TILEMODE
 70
     0
  9
$MAXACTVP
 70
    16
  9
$PINSBASE
 10
0.0
 20
1.0
 30
0.0
  9
$PLIMCHECK
 70
     0
  9
$PEXTMIN
 10
1.040070993406743
 20
0.7858286271638236
 30
-0.0015258207003583
  9
$PEXTMAX
 10
9.469330565618975
 20
7.226563008998709
 30
0.0000000349246037
  9
$PLIMMIN
 10
-0.2500002402958907
 20
-0.2499999962453767
  9
$PLIMMAX
 10
10.74999951940822
 20
8.249999763458733
  9
$UNITMODE
 70
     0
  9
$VISRETAIN
 70
     0
  9
$PLINEGEN
 70
     0
  9
$PSLTSCALE
 70
     0
  9
$TREEDEPTH
 70
  3020
  9
$CMLSTYLE
  2
STANDARD
  9
$CMLJUST
 70
     0
  9
$CMLSCALE
 40
1.0
  9
$PROXYGRAPHICS
 70
     1
  9
$MEASUREMENT
 70
     0
  9
$CELWEIGHT
370
    -1
  9
$ENDCAPS
280
     0
  9
$JOINSTYLE
280
     0
  9
$LWDISPLAY
290
     0
  9
$INSUNITS
 70
     0
  9
$HYPERLINKBASE
  1

  9
$STYLESHEET
  1

  9
$XEDIT
290
     1
  9
$CEPSNTYPE
380
     0
  9
$PSTYLEMODE
290
     1
  9
$FINGERPRINTGUID
  2
{D9E62092-D66B-4096-B57D-AE6D36790DAA}
  9
$VERSIONGUID
  2
{93DF3AB4-7577-45F6-A923-49AE5CE0B1CE}
  9
$EXTNAMES
290
     1
  9
$PSVPSCALE
 40
0.0
  9
$OLESTARTUP
290
     0
  0
ENDSEC
  0
SECTION
  2
CLASSES
  0
CLASS
  1
ACDBDICTIONARYWDFLT
  2
AcDbDictionaryWithDefault
  3
ObjectDBX Classes
 90
        0
280
     0
281
     0
  0
CLASS
  1
ACDBPLACEHOLDER
  2
AcDbPlaceHolder
  3
ObjectDBX Classes
 90
        0
280
     0
281
     0
  0
CLASS
  1
LAYOUT
  2
AcDbLayout
  3
ObjectDBX Classes
 90
        0
280
     0
281
     0
  0
CLASS
  1
DICTIONARYVAR
  2
AcDbDictionaryVar
  3
ObjectDBX Classes
 90
        0
280
     0
281
     0
  0
CLASS
  1
TABLESTYLE
  2
AcDbTableStyle
  3
ObjectDBX Classes
 90
     4095
280
     0
281
     0
  0
CLASS
  1
MATERIAL
  2
AcDbMaterial
  3
ObjectDBX Classes
 90
     1024
280
     0
281
     0
  0
CLASS
  1
VISUALSTYLE
  2
AcDbVisualStyle
  3
ObjectDBX Classes
 90
     4095
280
     0
281
     0
  0
ENDSEC
  0
SECTION
  2
TABLES
  0
TABLE
  2
VPORT
  5
8
330
0
100
AcDbSymbolTable
 70
     1
  0
VPORT
  5
AEC
330
8
100
AcDbSymbolTableRecord
100
AcDbViewportTableRecord
  2
*Active
 70
     0
 10
0.0
 20
0.0
 11
1.0
 21
1.0
 12
30.61045947602304
 22
25.66757279642343
 13
0.0
 23
0.0
 14
0.0
 24
0.0
 15
0.0
 25
0.0
 16
0.0
 26
0.0
 36
1.0
 17
0.0
 27
0.0
 37
0.0
 40
30.92400580143944
 41
1.646976090014064
 42
50.0
 43
0.0
 44
0.0
 50
0.0
 51
0.0
 71
     0
 72
 20000
 73
     1
 74
     1
 75
     0
 76
     0
 77
     0
 78
     0
281
     0
 65
     1
110
0.0
120
0.0
130
0.0
111
1.0
121
0.0
131
0.0
112
0.0
122
1.0
132
0.0
 79
     0
146
0.0
  0
ENDTAB
  0
TABLE
  2
LTYPE
  5
5
330
0
100
AcDbSymbolTable
 70
     1
  0
LTYPE
  5
8BB
330
5
100
AcDbSymbolTableRecord
100
AcDbLinetypeTableRecord
  2
BYBLOCK
 70
     0
  3

 72
    65
 73
     0
 40
0.0
  0
LTYPE
  5
8BC
330
5
100
AcDbSymbolTableRecord
100
AcDbLinetypeTableRecord
  2
BYLAYER
 70
     0
  3

 72
    65
 73
     0
 40
0.0
  0
LTYPE
  5
8BD
330
5
100
AcDbSymbolTableRecord
100
AcDbLinetypeTableRecord
  2
CONTINUOUS
 70
     0
  3
solid line
 72
    65
 73
     0
 40
0.0
  0
ENDTAB
  0
TABLE
  2
LAYER
  5
2
330
0
100
AcDbSymbolTable
 70
     2
  0
LAYER
  5
8C1
330
2
100
AcDbSymbolTableRecord
100
AcDbLayerTableRecord
  2
0
 70
     0
 62
     7
  6
CONTINUOUS
370
    -3
390
8CC
  0
LAYER
  5
8F0
330
2
100
AcDbSymbolTableRecord
100
AcDbLayerTableRecord
  2
Defpoints
 70
     0
 62
     7
  6
CONTINUOUS
290
     0
370
    -3
390
8CC
  0
ENDTAB
  0
TABLE
  2
STYLE
  5
3
330
0
100
AcDbSymbolTable
 70
     2
  0
STYLE
  5
8C2
330
3
100
AcDbSymbolTableRecord
100
AcDbTextStyleTableRecord
  2
STANDARD
 70
     0
 40
0.0
 41
1.0
 50
0.0
 71
     0
 42
3.0
  3
txt
  4

  0
STYLE
  5
8C3
330
3
100
AcDbSymbolTableRecord
100
AcDbTextStyleTableRecord
  2
BIGFONT
 70
     0
 40
0.0
 41
1.0
 50
0.0
 71
     0
 42
3.0
  3
txt
  4
bigfont
  0
ENDTAB
  0
TABLE
  2
VIEW
  5
6
330
0
100
AcDbSymbolTable
 70
     2
  0
ENDTAB
  0
TABLE
  2
UCS
  5
7
330
0
100
AcDbSymbolTable
 70
     0
  0
ENDTAB
  0
TABLE
  2
APPID
  5
9
330
0
100
AcDbSymbolTable
 70
    11
  0
APPID
  5
8C5
330
9
100
AcDbSymbolTableRecord
100
AcDbRegAppTableRecord
  2
ACAD
 70
     0
  0
APPID
  5
91E
330
9
100
AcDbSymbolTableRecord
100
AcDbRegAppTableRecord
  2
ACAD_DSTYLE_DIMTEXT_FILL
 70
     0
  0
APPID
  5
91F
330
9
100
AcDbSymbolTableRecord
100
AcDbRegAppTableRecord
  2
ACAD_DSTYLE_DIMEXT_LENGTH
 70
     0
  0
APPID
  5
920
330
9
100
AcDbSymbolTableRecord
100
AcDbRegAppTableRecord
  2
ACAD_DSTYLE_DIMEXT_ENABLED
 70
     0
  0
APPID
  5
921
330
9
100
AcDbSymbolTableRecord
100
AcDbRegAppTableRecord
  2
ACAD_DSTYLE_DIM_LINETYPE
 70
     0
  0
APPID
  5
922
330
9
100
AcDbSymbolTableRecord
100
AcDbRegAppTableRecord
  2
ACAD_DSTYLE_DIM_EXT1_LINETYPE
 70
     0
  0
APPID
  5
923
330
9
100
AcDbSymbolTableRecord
100
AcDbRegAppTableRecord
  2
ACAD_DSTYLE_DIM_EXT2_LINETYPE
 70
     0
  0
APPID
  5
9DF
330
9
100
AcDbSymbolTableRecord
100
AcDbRegAppTableRecord
  2
ACAD_DSTYLE_DIMJOGGED_JOGANGLE_SYMBOL
 70
     0
  0
APPID
  5
AA3
330
9
100
AcDbSymbolTableRecord
100
AcDbRegAppTableRecord
  2
ACAD_DSTYLE_DIMARC_LENGTH_SYMBOL
 70
     0
  0
APPID
  5
B0A
330
9
100
AcDbSymbolTableRecord
100
AcDbRegAppTableRecord
  2
ACAD_PSEXT
 70
     0
  0
APPID
  5
B10
330
9
100
AcDbSymbolTableRecord
100
AcDbRegAppTableRecord
  2
DCO15
 70
     0
  0
ENDTAB
  0
TABLE
  2
DIMSTYLE
  5
A
330
0
100
AcDbSymbolTable
 70
     1
100
AcDbDimStyleTable
 71
     1
340
8C6
  0
DIMSTYLE
105
8C6
330
A
100
AcDbSymbolTableRecord
100
AcDbDimStyleTableRecord
  2
ISO-25
 70
     0
 41
3.0
 42
1.0
 43
5.0
 44
1.5
 73
     0
 74
     0
 77
     1
 78
     8
140
3.0
141
2.0
145
1.0
147
1.0
170
     1
171
     0
274
     0
340
8C2
1001
ACAD_DSTYLE_DIMJOGGED_JOGANGLE_SYMBOL
1070
   384
1040
0.7853981633974483
1001
ACAD_DSTYLE_DIMEXT_LENGTH
1070
   378
1040
1.5
  0
ENDTAB
  0
TABLE
  2
BLOCK_RECORD
  5
1
330
0
100
AcDbSymbolTable
 70
     0
  0
BLOCK_RECORD
  5
20
330
1
100
AcDbSymbolTableRecord
100
AcDbBlockTableRecord
  2
*MODEL_SPACE
340
8CF
  0
BLOCK_RECORD
  5
22
330
1
100
AcDbSymbolTableRecord
100
AcDbBlockTableRecord
  2
*PAPER_SPACE
340
8D0
  0
ENDTAB
  0
ENDSEC
  0
SECTION
  2
BLOCKS
  0
BLOCK
  5
21
330
20
100
AcDbEntity
  8
0
100
AcDbBlockBegin
  2
*MODEL_SPACE
 70
     0
 10
0.0
 20
0.0
 30
0.0
  3
*MODEL_SPACE
  1

  0
ENDBLK
  5
8B8
330
20
100
AcDbEntity
  8
0
100
AcDbBlockEnd
  0
BLOCK
  5
23
330
22
100
AcDbEntity
 67
     1
  8
0
100
AcDbBlockBegin
  2
*PAPER_SPACE
 70
     0
 10
0.0
 20
0.0
 30
0.0
  3
*PAPER_SPACE
  1

  0
ENDBLK
  5
8B9
330
22
100
AcDbEntity
 67
     1
  8
0
100
AcDbBlockEnd
  0
ENDSEC
  0
SECTION
  2
ENTITIES
  0
LINE
  5
36B
330
20
100
AcDbEntity
  8
0
100
AcDbLine
 10
18.73449392475444
 20
18.81479340856873
 30
0.0
 11
29.66976368360122
 21
18.81479340856873
 31
0.0
  0
LINE
  5
45E
330
20
100
AcDbEntity
  8
0
100
AcDbLine
 10
6.923611843156407
 20
18.81479340856873
 30
0.0
 11
18.73449392475444
 21
18.81479340856873
 31
0.0
  0
LINE
  5
45F
330
20
100
AcDbEntity
  8
0
100
AcDbLine
 10
17.50427210160728
 20
10.35032791675684
 30
0.0
 11
18.73449392475444
 21
10.35032791675684
 31
0.0
  0
LINE
  5
460
330
20
100
AcDbEntity
  8
0
100
AcDbLine
 10
6.923611843156407
 20
18.61794537387544
 30
0.0
 11
6.923611843156407
 21
18.81479340856873
 31
0.0
  0
LINE
  5
461
330
20
100
AcDbEntity
  8
0
100
AcDbLine
 10
7.228972203378788
 20
16.25576895755586
 30
0.0
 11
18.73449392475444
 21
16.25576895755586
 31
0.0
  0
ARC
  5
462
330
20
100
AcDbEntity
  8
0
100
AcDbCircle
 10
7.228972203378788
 20
16.45261699224915
 30
0.0
 40
0.1968480346933012
100
AcDbArc
 50
182.8624052260702
 51
270.0
  0
LINE
  5
463
330
20
100
AcDbEntity
  8
0
100
AcDbLine
 10
6.923611843156407
 20
18.61794537387544
 30
0.0
 11
7.032369768325366
 21
16.44278687049643
 31
0.0
  0
ARC
  5
464
330
20
100
AcDbEntity
  8
0
100
AcDbCircle
 10
17.55340571659465
 20
30.23193662767858
 30
0.0
 40
18.50371526117027
100
AcDbArc
 50
256.7398106844988
 51
267.5067795490566
  0
ARC
  5
465
330
20
100
AcDbEntity
  8
0
100
AcDbCircle
 10
14.48308870453195
 20
17.20315244327486
 30
0.0
 40
5.11804890202582
100
AcDbArc
 50
212.3614347804976
 51
256.7398106844988
  0
ARC
  5
466
330
20
100
AcDbEntity
  8
0
100
AcDbCircle
 10
19.13879571202958
 20
20.15336004448318
 30
0.0
 40
10.62979387343823
100
AcDbArc
 50
201.5101882668776
 51
212.3614347804976
  0
LINE
  5
467
330
20
100
AcDbEntity
  8
0
100
AcDbLine
 10
17.04525195136057
 20
11.48399031577554
 30
0.0
 11
17.19379153237017
 21
10.61237317657577
 31
0.0
  0
ARC
  5
468
330
20
100
AcDbEntity
  8
0
100
AcDbCircle
 10
16.73477138212348
 20
11.43107872008522
 30
0.0
 40
0.3149568555092819
100
AcDbArc
 50
9.671341808414837
 51
87.50677954905652
  0
ARC
  5
469
330
20
100
AcDbEntity
  8
0
100
AcDbCircle
 10
17.50427210160728
 20
10.66528477226609
 30
0.0
 40
0.3149568555092819
100
AcDbArc
 50
189.6713418084148
 51
270.0
  0
LINE
  5
474
330
20
100
AcDbEntity
  8
0
100
AcDbLine
 10
37.789687912543
 20
18.81479340856873
 30
0.0
 11
54.32492282678026
 21
18.81479340856873
 31
0.0
  0
LINE
  5
476
330
20
100
AcDbEntity
  8
0
100
AcDbLine
 10
54.32492282678026
 20
12.31880826368984
 30
0.0
 11
54.32492282678026
 21
18.81479340856873
 31
0.0
  0
LINE
  5
477
330
20
100
AcDbEntity
  8
0
100
AcDbLine
 10
47.94941926834809
 20
10.35032791675684
 30
0.0
 11
50.26130811901691
 21
10.35032791675684
 31
0.0
  0
LINE
  5
478
330
20
100
AcDbEntity
  8
0
100
AcDbLine
 10
51.46567395382732
 20
12.1219602289965
 30
0.0
 11
54.12807479208698
 21
12.1219602289965
 31
0.0
  0
ARC
  5
479
330
20
100
AcDbEntity
  8
0
100
AcDbCircle
 10
49.95489645658898
 20
14.83703629802295
 30
0.0
 40
4.251917549375295
100
AcDbArc
 50
280.7512909589968
 51
318.4341275720555
  0
ARC
  5
47A
330
20
100
AcDbEntity
  8
0
100
AcDbCircle
 10
53.3718018263965
 20
11.80700337348725
 30
0.0
 40
0.3149568555092812
100
AcDbArc
 50
90.0
 51
138.4341275720554
  0
ARC
  5
47B
330
20
100
AcDbEntity
  8
0
100
AcDbCircle
 10
54.12807479208698
 20
12.31880826368984
 30
0.0
 40
0.1968480346933007
100
AcDbArc
 50
270.0
 51
0.0
  0
ARC
  5
47C
330
20
100
AcDbEntity
  8
0
100
AcDbCircle
 10
45.07306519619516
 20
18.81479340856873
 30
0.0
 40
6.692833179572224
100
AcDbArc
 50
203.5781784781685
 51
256.0233803358841
  0
ARC
  5
47D
330
20
100
AcDbEntity
  8
0
100
AcDbCircle
 10
48.3060513700255
 20
31.80416846197886
 30
0.0
 40
20.07849953871668
100
AcDbArc
 50
256.0233771150425
 51
266.5390518765509
  0
LINE
  5
47E
330
20
100
AcDbEntity
  8
0
100
AcDbLine
 10
47.37812679361133
 20
11.53318490442393
 30
0.0
 11
47.64622732792901
 21
10.58000600528868
 31
0.0
  0
ARC
  5
47F
330
20
100
AcDbEntity
  8
0
100
AcDbCircle
 10
47.07493485319225
 20
11.44790613744646
 30
0.0
 40
0.3149568555092819
100
AcDbArc
 50
15.70969446797191
 51
86.53905187655089
  0
ARC
  5
480
330
20
100
AcDbEntity
  8
0
100
AcDbCircle
 10
47.94941926834809
 20
10.66528477226609
 30
0.0
 40
0.3149568555092814
100
AcDbArc
 50
195.7096944679719
 51
270.0
  0
LINE
  5
481
330
20
100
AcDbEntity
  8
0
100
AcDbLine
 10
38.09576902323721
 20
16.25576895755586
 30
0.0
 11
54.32492282678026
 21
16.25576895755586
 31
0.0
  0
LINE
  5
482
330
20
100
AcDbEntity
  8
0
100
AcDbLine
 10
37.789687912543
 20
18.81479340856873
 30
0.0
 11
37.89913031480529
 21
16.44354135955228
 31
0.0
  0
ARC
  5
483
330
20
100
AcDbEntity
  8
0
100
AcDbCircle
 10
38.75856806049774
 20
16.05892092286251
 30
0.0
 40
0.1968480346933007
100
AcDbArc
 50
23.57817847816845
 51
90.0
  0
ARC
  5
484
330
20
100
AcDbEntity
  8
0
100
AcDbCircle
 10
38.09576902323721
 20
16.45261699224915
 30
0.0
 40
0.196848034693301
100
AcDbArc
 50
182.6425452940309
 51
270.0
  0
ARC
  5
485
330
20
100
AcDbEntity
  8
0
100
AcDbCircle
 10
50.80682939495114
 20
10.35032791675684
 30
0.0
 40
0.3149568555092817
100
AcDbArc
 50
100.7512909589968
 51
150.0000000000265
  0
ARC
  5
486
330
20
100
AcDbEntity
  8
0
100
AcDbCircle
 10
50.26130811901691
 20
10.66528477226609
 30
0.0
 40
0.3149568555092812
100
AcDbArc
 50
270.0
 51
330.0000000000265
  0
ARC
  5
487
330
20
100
AcDbEntity
  8
0
100
AcDbCircle
 10
49.95489645658898
 20
14.83703629802295
 30
0.0
 40
3.07082934121549
100
AcDbArc
 50
291.6175110786302
 51
345.5247488333262
  0
ARC
  5
488
330
20
100
AcDbEntity
  8
0
100
AcDbCircle
 10
51.20224954555175
 20
11.68939298255861
 30
0.0
 40
0.3149568555092812
100
AcDbArc
 50
111.6175110786302
 51
164.2903055320281
  0
ARC
  5
489
330
20
100
AcDbEntity
  8
0
100
AcDbCircle
 10
51.46567395382732
 20
11.80700337348725
 30
0.0
 40
0.3149568555092812
100
AcDbArc
 50
90.0
 51
116.5008906356206
  0
ARC
  5
48A
330
20
100
AcDbEntity
  8
0
100
AcDbCircle
 10
29.75137787598999
 20
20.0527119455428
 30
0.0
 40
23.93672101870537
100
AcDbArc
 50
345.5247488333262
 51
350.872951675437
  0
LINE
  5
4CF
330
20
100
AcDbEntity
  8
0
100
AcDbLine
 10
30.54537600635252
 20
32.71251936166402
 30
0.0
 11
30.54537600635252
 21
40.78328878408933
 31
0.0
  0
LINE
  5
4D1
330
20
100
AcDbEntity
  8
0
100
AcDbLine
 10
6.923611843156407
 20
32.71251936166402
 30
0.0
 11
6.923611843156407
 21
40.78328878408933
 31
0.0
  0
LINE
  5
4D2
330
20
100
AcDbEntity
  8
0
100
AcDbLine
 10
7.120459877849697
 20
40.98013681878263
 30
0.0
 11
30.34852797165917
 21
40.98013681878263
 31
0.0
  0
ARC
  5
4D3
330
20
100
AcDbEntity
  8
0
100
AcDbCircle
 10
18.73449392475444
 20
40.78328878408933
 30
0.0
 40
15.35414670607746
100
AcDbArc
 50
247.0395789742361
 51
292.960421025764
  0
ARC
  5
4D4
330
20
100
AcDbEntity
  8
0
100
AcDbCircle
 10
24.44308693086015
 20
32.71251936166402
 30
0.0
 40
5.11804890202582
100
AcDbArc
 50
323.6196833310665
 51
36.38031904660677
  0
ARC
  5
4D5
330
20
100
AcDbEntity
  8
0
100
AcDbCircle
 10
13.02590091864874
 20
32.71251936166402
 30
0.0
 40
5.11804890202582
100
AcDbArc
 50
143.6196816498413
 51
216.3803166689334
  0
ARC
  5
4D6
330
20
100
AcDbEntity
  8
0
100
AcDbCircle
 10
21.11496739359308
 20
35.16445634086518
 30
0.0
 40
9.251857630585133
100
AcDbArc
 50
292.960421025764
 51
323.6196833310665
  0
ARC
  5
4D7
330
20
100
AcDbEntity
  8
0
100
AcDbCircle
 10
16.35402045591584
 20
35.16445634086518
 30
0.0
 40
9.251857630585133
100
AcDbArc
 50
216.3803166689334
 51
247.0395789742361
  0
ARC
  5
4D8
330
20
100
AcDbEntity
  8
0
100
AcDbCircle
 10
18.73449392475444
 20
24.64174993923865
 30
0.0
 40
15.35414670607746
100
AcDbArc
 50
67.03957897423605
 51
112.9604210257639
  0
ARC
  5
4D9
330
20
100
AcDbEntity
  8
0
100
AcDbCircle
 10
21.11496739359308
 20
30.26058238246282
 30
0.0
 40
9.251857630585133
100
AcDbArc
 50
36.38031798416883
 51
67.03957897423605
  0
ARC
  5
4DA
330
20
100
AcDbEntity
  8
0
100
AcDbCircle
 10
16.35402045591584
 20
30.26058238246282
 30
0.0
 40
9.251857630585137
100
AcDbArc
 50
112.9604210257639
 51
143.6196824010445
  0
ARC
  5
4DB
330
20
100
AcDbEntity
  8
0
100
AcDbCircle
 10
18.73449392475444
 20
40.78328878408933
 30
0.0
 40
15.66910356158674
100
AcDbArc
 50
247.0395789742361
 51
292.960421025764
  0
ARC
  5
4DC
330
20
100
AcDbEntity
  8
0
100
AcDbCircle
 10
21.11496739359308
 20
35.16445634086518
 30
0.0
 40
9.566814486094417
100
AcDbArc
 50
292.960421025764
 51
323.6196833310665
  0
ARC
  5
4DD
330
20
100
AcDbEntity
  8
0
100
AcDbCircle
 10
24.44308693086015
 20
32.71251936166402
 30
0.0
 40
5.4330057575351
100
AcDbArc
 50
323.6196833310665
 51
36.38031904660677
  0
ARC
  5
4DE
330
20
100
AcDbEntity
  8
0
100
AcDbCircle
 10
21.11496739359308
 20
30.26058238246282
 30
0.0
 40
9.566814486094417
100
AcDbArc
 50
36.38031798416883
 51
67.03957897423605
  0
ARC
  5
4DF
330
20
100
AcDbEntity
  8
0
100
AcDbCircle
 10
18.73449392475444
 20
24.64174993923865
 30
0.0
 40
15.66910356158674
100
AcDbArc
 50
67.03957897423605
 51
112.9604210257639
  0
ARC
  5
4E0
330
20
100
AcDbEntity
  8
0
100
AcDbCircle
 10
16.35402045591584
 20
30.26058238246282
 30
0.0
 40
9.566814486094417
100
AcDbArc
 50
112.9604210257639
 51
143.6196824010445
  0
ARC
  5
4E1
330
20
100
AcDbEntity
  8
0
100
AcDbCircle
 10
13.02590091864874
 20
32.71251936166402
 30
0.0
 40
5.4330057575351
100
AcDbArc
 50
143.6196816498413
 51
216.3803166689334
  0
ARC
  5
4E2
330
20
100
AcDbEntity
  8
0
100
AcDbCircle
 10
16.35402045591584
 20
35.16445634086518
 30
0.0
 40
9.566814486094417
100
AcDbArc
 50
216.3803166689334
 51
247.0395789742361
  0
ARC
  5
4E3
330
20
100
AcDbEntity
  8
0
100
AcDbCircle
 10
18.73449392475444
 20
40.78328878408933
 30
0.0
 40
15.72815797199473
100
AcDbArc
 50
247.0395789742361
 51
292.960421025764
  0
ARC
  5
4E4
330
20
100
AcDbEntity
  8
0
100
AcDbCircle
 10
21.11496739359308
 20
35.16445634086518
 30
0.0
 40
9.625868896502408
100
AcDbArc
 50
292.960421025764
 51
323.6196833310665
  0
ARC
  5
4E5
330
20
100
AcDbEntity
  8
0
100
AcDbCircle
 10
24.44308693086015
 20
32.71251936166402
 30
0.0
 40
5.49206016794309
100
AcDbArc
 50
323.6196833310665
 51
36.38031904660677
  0
ARC
  5
4E6
330
20
100
AcDbEntity
  8
0
100
AcDbCircle
 10
21.11496739359308
 20
30.26058238246282
 30
0.0
 40
9.625868896502408
100
AcDbArc
 50
36.38031798416883
 51
67.03957897423605
  0
ARC
  5
4E7
330
20
100
AcDbEntity
  8
0
100
AcDbCircle
 10
18.73449392475444
 20
24.64174993923865
 30
0.0
 40
15.72815797199473
100
AcDbArc
 50
67.03957897423605
 51
112.9604210257639
  0
ARC
  5
4E8
330
20
100
AcDbEntity
  8
0
100
AcDbCircle
 10
16.35402045591584
 20
30.26058238246282
 30
0.0
 40
9.625868896502408
100
AcDbArc
 50
112.9604210257639
 51
143.6196824010445
  0
ARC
  5
4E9
330
20
100
AcDbEntity
  8
0
100
AcDbCircle
 10
13.02590091864874
 20
32.71251936166402
 30
0.0
 40
5.49206016794309
100
AcDbArc
 50
143.6196816498413
 51
216.3803166689334
  0
ARC
  5
4EA
330
20
100
AcDbEntity
  8
0
100
AcDbCircle
 10
16.35402045591584
 20
35.16445634086518
 30
0.0
 40
9.625868896502408
100
AcDbArc
 50
216.3803166689334
 51
247.0395789742361
  0
ARC
  5
4EB
330
20
100
AcDbEntity
  8
0
100
AcDbCircle
 10
18.73449392475444
 20
40.78328878408933
 30
0.0
 40
15.96437561362669
100
AcDbArc
 50
247.0395789742361
 51
292.960421025764
  0
ARC
  5
4EC
330
20
100
AcDbEntity
  8
0
100
AcDbCircle
 10
21.11496739359308
 20
35.16445634086518
 30
0.0
 40
9.862086538134368
100
AcDbArc
 50
292.960421025764
 51
323.6196833310665
  0
ARC
  5
4ED
330
20
100
AcDbEntity
  8
0
100
AcDbCircle
 10
24.44308693086015
 20
32.71251936166402
 30
0.0
 40
5.728277809575051
100
AcDbArc
 50
323.6196833310665
 51
36.38031904660677
  0
ARC
  5
4EE
330
20
100
AcDbEntity
  8
0
100
AcDbCircle
 10
21.11496739359308
 20
30.26058238246282
 30
0.0
 40
9.862086538134368
100
AcDbArc
 50
36.38031798416883
 51
67.03957897423605
  0
ARC
  5
4EF
330
20
100
AcDbEntity
  8
0
100
AcDbCircle
 10
18.73449392475444
 20
24.64174993923865
 30
0.0
 40
15.96437561362669
100
AcDbArc
 50
67.03957897423605
 51
112.9604210257639
  0
ARC
  5
4F0
330
20
100
AcDbEntity
  8
0
100
AcDbCircle
 10
16.35402045591584
 20
30.26058238246282
 30
0.0
 40
9.862086538134368
100
AcDbArc
 50
112.9604210257639
 51
143.6196824010445
  0
ARC
  5
4F1
330
20
100
AcDbEntity
  8
0
100
AcDbCircle
 10
13.02590091864874
 20
32.71251936166402
 30
0.0
 40
5.728277809575051
100
AcDbArc
 50
143.6196816498413
 51
216.3803166689334
  0
ARC
  5
4F2
330
20
100
AcDbEntity
  8
0
100
AcDbCircle
 10
16.35402045591584
 20
35.16445634086518
 30
0.0
 40
9.862086538134368
100
AcDbArc
 50
216.3803166689334
 51
247.0395789742361
  0
ARC
  5
4F3
330
20
100
AcDbEntity
  8
0
100
AcDbCircle
 10
18.73449392475444
 20
40.78328878408933
 30
0.0
 40
16.02343002403468
100
AcDbArc
 50
247.0395789742361
 51
292.960421025764
  0
ARC
  5
4F4
330
20
100
AcDbEntity
  8
0
100
AcDbCircle
 10
21.11496739359308
 20
35.16445634086518
 30
0.0
 40
9.921140948542358
100
AcDbArc
 50
292.960421025764
 51
323.6196833310665
  0
ARC
  5
4F5
330
20
100
AcDbEntity
  8
0
100
AcDbCircle
 10
24.44308693086015
 20
32.71251936166402
 30
0.0
 40
5.787332219983041
100
AcDbArc
 50
323.6196833310665
 51
36.38031904660677
  0
ARC
  5
4F6
330
20
100
AcDbEntity
  8
0
100
AcDbCircle
 10
21.11496739359308
 20
30.26058238246282
 30
0.0
 40
9.921140948542358
100
AcDbArc
 50
36.38031798416883
 51
67.03957897423605
  0
ARC
  5
4F7
330
20
100
AcDbEntity
  8
0
100
AcDbCircle
 10
18.73449392475444
 20
24.64174993923865
 30
0.0
 40
16.02343002403468
100
AcDbArc
 50
67.03957897423605
 51
112.9604210257639
  0
ARC
  5
4F8
330
20
100
AcDbEntity
  8
0
100
AcDbCircle
 10
16.35402045591584
 20
30.26058238246282
 30
0.0
 40
9.921140948542358
100
AcDbArc
 50
112.9604210257639
 51
143.6196824010445
  0
ARC
  5
4F9
330
20
100
AcDbEntity
  8
0
100
AcDbCircle
 10
13.02590091864874
 20
32.71251936166402
 30
0.0
 40
5.787332219983041
100
AcDbArc
 50
143.6196816498413
 51
216.3803166689334
  0
ARC
  5
4FA
330
20
100
AcDbEntity
  8
0
100
AcDbCircle
 10
16.35402045591584
 20
35.16445634086518
 30
0.0
 40
9.921140948542358
100
AcDbArc
 50
216.3803166689334
 51
247.0395789742361
  0
ARC
  5
4FB
330
20
100
AcDbEntity
  8
0
100
AcDbCircle
 10
18.73449392475444
 20
40.78328878408933
 30
0.0
 40
16.33838687954397
100
AcDbArc
 50
247.0395789742361
 51
292.960421025764
  0
ARC
  5
4FC
330
20
100
AcDbEntity
  8
0
100
AcDbCircle
 10
21.11496739359308
 20
35.16445634086518
 30
0.0
 40
10.23609780405164
100
AcDbArc
 50
292.960421025764
 51
323.6196833310665
  0
ARC
  5
4FD
330
20
100
AcDbEntity
  8
0
100
AcDbCircle
 10
24.44308693086015
 20
32.71251936166402
 30
0.0
 40
6.102289075492322
100
AcDbArc
 50
323.6196833310665
 51
36.38031904660677
  0
ARC
  5
4FE
330
20
100
AcDbEntity
  8
0
100
AcDbCircle
 10
21.11496739359308
 20
30.26058238246282
 30
0.0
 40
10.23609780405164
100
AcDbArc
 50
36.38031798416883
 51
67.03957897423605
  0
ARC
  5
4FF
330
20
100
AcDbEntity
  8
0
100
AcDbCircle
 10
18.73449392475444
 20
24.64174993923865
 30
0.0
 40
16.33838687954397
100
AcDbArc
 50
67.03958026431242
 51
82.7187937017301
  0
ARC
  5
500
330
20
100
AcDbEntity
  8
0
100
AcDbCircle
 10
16.35402045591584
 20
30.26058238246282
 30
0.0
 40
10.23609780405164
100
AcDbArc
 50
112.9604210257639
 51
143.6196824010445
  0
ARC
  5
501
330
20
100
AcDbEntity
  8
0
100
AcDbCircle
 10
13.02590091864874
 20
32.71251936166402
 30
0.0
 40
6.102289075492324
100
AcDbArc
 50
143.6196816498413
 51
216.3803166689334
  0
ARC
  5
502
330
20
100
AcDbEntity
  8
0
100
AcDbCircle
 10
16.35402045591584
 20
35.16445634086518
 30
0.0
 40
10.23609780405164
100
AcDbArc
 50
216.3803166689334
 51
247.0395789742361
  0
ARC
  5
503
330
20
100
AcDbEntity
  8
0
100
AcDbCircle
 10
20.8201778230557
 20
40.96554157636552
 30
0.0
 40
0.1181088208159825
100
AcDbArc
 50
172.9015556688119
 51
262.7187937017301
  0
ARC
  5
504
330
20
100
AcDbEntity
  8
0
100
AcDbCircle
 10
16.64881002645322
 20
40.96554157636552
 30
0.0
 40
0.1181088208159802
100
AcDbArc
 50
277.2812062982699
 51
7.098444331188072
  0
ARC
  5
505
330
20
100
AcDbEntity
  8
0
100
AcDbCircle
 10
18.73449392475444
 20
24.64174993923865
 30
0.0
 40
16.33838687954397
100
AcDbArc
 50
97.28120629826989
 51
112.9604197356876
  0
CIRCLE
  5
506
330
20
100
AcDbEntity
  8
0
100
AcDbCircle
 10
18.73449392475444
 20
35.86208791675682
 30
0.0
 40
0.807076942242533
  0
CIRCLE
  5
507
330
20
100
AcDbEntity
  8
0
100
AcDbCircle
 10
18.73449392475444
 20
35.86208791675682
 30
0.0
 40
1.220457815098463
  0
ARC
  5
508
330
20
100
AcDbEntity
  8
0
100
AcDbCircle
 10
30.34852797165917
 20
40.78328878408933
 30
0.0
 40
0.1968480346933007
100
AcDbArc
 50
0.0
 51
90.0
  0
ARC
  5
509
330
20
100
AcDbEntity
  8
0
100
AcDbCircle
 10
7.120459877849697
 20
40.78328878408933
 30
0.0
 40
0.1968480346933007
100
AcDbArc
 50
90.0
 51
180.0
  0
LINE
  5
90E
330
20
100
AcDbEntity
  8
0
100
AcDbLine
 10
30.54537600635246
 20
18.81479340856873
 30
0.0
 11
18.73449392475444
 21
18.81479340856873
 31
0.0
  0
LINE
  5
90F
330
20
100
AcDbEntity
  8
0
100
AcDbLine
 10
19.96471574790161
 20
10.35032791675684
 30
0.0
 11
18.73449392475444
 21
10.35032791675684
 31
0.0
  0
LINE
  5
910
330
20
100
AcDbEntity
  8
0
100
AcDbLine
 10
30.54537600635246
 20
18.61794537387544
 30
0.0
 11
30.54537600635246
 21
18.81479340856873
 31
0.0
  0
LINE
  5
911
330
20
100
AcDbEntity
  8
0
100
AcDbLine
 10
30.24001564613008
 20
16.25576895755586
 30
0.0
 11
18.73449392475444
 21
16.25576895755586
 31
0.0
  0
ARC
  5
912
330
20
100
AcDbEntity
  8
0
100
AcDbCircle
 10
30.24001564613008
 20
16.45261699224915
 30
0.0
 40
0.1968480346933012
100
AcDbArc
 50
270.0
 51
357.1375947739298
  0
LINE
  5
913
330
20
100
AcDbEntity
  8
0
100
AcDbLine
 10
30.54537600635246
 20
18.61794537387544
 30
0.0
 11
30.43661808118355
 21
16.44278687049643
 31
0.0
  0
ARC
  5
914
330
20
100
AcDbEntity
  8
0
100
AcDbCircle
 10
19.91558213291424
 20
30.23193662767858
 30
0.0
 40
18.50371526117026
100
AcDbArc
 50
272.4932204509419
 51
283.2601893155027
  0
ARC
  5
915
330
20
100
AcDbEntity
  8
0
100
AcDbCircle
 10
22.98589914497694
 20
17.20315244327486
 30
0.0
 40
5.118048902025819
100
AcDbArc
 50
283.2601893155027
 51
327.6385652195024
  0
ARC
  5
916
330
20
100
AcDbEntity
  8
0
100
AcDbCircle
 10
18.33019213747931
 20
20.15336004448318
 30
0.0
 40
10.62979387343823
100
AcDbArc
 50
327.6385652195024
 51
338.4898117331224
  0
LINE
  5
917
330
20
100
AcDbEntity
  8
0
100
AcDbLine
 10
20.42373589814832
 20
11.48399031577554
 30
0.0
 11
20.27519631713872
 21
10.61237317657577
 31
0.0
  0
ARC
  5
918
330
20
100
AcDbEntity
  8
0
100
AcDbCircle
 10
20.73421646738541
 20
11.43107872008522
 30
0.0
 40
0.3149568555092819
100
AcDbArc
 50
92.49322045094181
 51
170.3286581915851
  0
ARC
  5
919
330
20
100
AcDbEntity
  8
0
100
AcDbCircle
 10
19.96471574790161
 20
10.66528477226609
 30
0.0
 40
0.3149568555092819
100
AcDbArc
 50
270.0
 51
350.3286581915852
  0
VIEWPORT
  5
B09
102
{ACAD_XDICTIONARY
360
B23
102
}
330
22
100
AcDbEntity
 67
     1
  8
0
100
AcDbViewport
 10
5.254700779512859
 20
4.006195818081266
 30
0.0
 40
10.69712655875245
 41
6.495010233367203
 68
     1
 69
     1
 12
5.254700779512859
 22
4.006195818081266
 13
0.0
 23
0.0
 14
0.5
 24
0.5
 15
0.5
 25
0.5
 16
0.0
 26
0.0
 36
1.0
 17
0.0
 27
0.0
 37
0.0
 42
50.0
 43
0.0
 44
0.0
 45
6.495010233367203
 50
0.0
 51
0.0
 72
 20000
 90
   819232
  1

281
     0
 71
     1
 74
     0
110
0.0
120
1.0
130
0.0
111
1.0
121
0.0
131
0.0
112
0.0
122
1.0
132
0.0
 79
     0
146
0.0
  0
VIEWPORT
  5
B0C
102
{ACAD_XDICTIONARY
360
B25
102
}
330
22
100
AcDbEntity
 67
     1
  8
0
100
AcDbViewport
 10
5.249999761581421
 20
3.999999761581421
 30
0.0
 40
8.399999618530275
 41
6.399999618530274
 68
     2
 69
     2
 12
30.61045947602304
 22
25.66757279642343
 13
0.0
 23
0.0
 14
0.0
 24
0.0
 15
0.0
 25
0.0
 16
0.0
 26
0.0
 36
1.0
 17
0.0
 27
0.0
 37
0.0
 42
50.0
 43
0.0
 44
0.0
 45
36.47796477649687
 50
0.0
 51
0.0
 72
 20000
 90
   819232
  1

281
     0
 71
     1
 74
     0
110
0.0
120
0.0
130
0.0
111
1.0
121
0.0
131
0.0
112
0.0
122
1.0
132
0.0
 79
     0
146
0.0
  0
ENDSEC
  0
SECTION
  2
OBJECTS
  0
DICTIONARY
  5
C
330
0
100
AcDbDictionary
281
     1
  3
ACAD_2007HEADERVARS_RT
350
B15
  3
ACAD_COLOR
350
8E2
  3
ACAD_GROUP
350
D
  3
ACAD_LAYOUT
350
8CD
  3
ACAD_MATERIAL
350
8E1
  3
ACAD_MLINESTYLE
350
E
  3
ACAD_PLOTSETTINGS
350
8CE
  3
ACAD_PLOTSTYLENAME
350
8CB
  3
ACAD_TABLESTYLE
350
8E3
  3
ACAD_VISUALSTYLE
350
AF1
  3
AcDbVariableDictionary
350
8D3
  3
ASE_INDEX_DICTIONARY
350
B0F
  3
DWGPROPS
350
B14
  0
DICTIONARY
  5
B23
330
B09
100
AcDbDictionary
280
     1
281
     1
  3
ACAD_XREC_ROUNDTRIP
360
B24
  0
DICTIONARY
  5
B25
330
B0C
100
AcDbDictionary
280
     1
281
     1
  3
ACAD_XREC_ROUNDTRIP
360
B26
  0
DICTIONARY
  5
B15
102
{ACAD_REACTORS
330
C
102
}
330
C
100
AcDbDictionary
281
     1
  3
DIMFXL
350
B16
  0
DICTIONARY
  5
8E2
102
{ACAD_REACTORS
330
C
102
}
330
C
100
AcDbDictionary
281
     1
  0
DICTIONARY
  5
D
102
{ACAD_REACTORS
330
C
102
}
330
C
100
AcDbDictionary
281
     1
  0
DICTIONARY
  5
8CD
102
{ACAD_REACTORS
330
C
102
}
330
C
100
AcDbDictionary
281
     1
  3
Layout1
350
8D0
  3
Model
350
8CF
  0
DICTIONARY
  5
8E1
102
{ACAD_REACTORS
330
C
102
}
330
C
100
AcDbDictionary
281
     1
  3
ByBlock
350
AEF
  3
ByLayer
350
AEE
  3
Global
350
AF0
  0
DICTIONARY
  5
E
102
{ACAD_REACTORS
330
C
102
}
330
C
100
AcDbDictionary
281
     1
  3
STANDARD
350
13
  0
DICTIONARY
  5
8CE
102
{ACAD_REACTORS
330
C
102
}
330
C
100
AcDbDictionary
281
     1
  0
ACDBDICTIONARYWDFLT
  5
8CB
102
{ACAD_REACTORS
330
C
102
}
330
C
100
AcDbDictionary
281
     1
  3
Normal
350
8CC
100
AcDbDictionaryWithDefault
340
8CC
  0
DICTIONARY
  5
8E3
102
{ACAD_REACTORS
330
C
102
}
330
C
100
AcDbDictionary
281
     1
  3
Standard
350
8E4
  0
DICTIONARY
  5
AF1
102
{ACAD_REACTORS
330
C
102
}
330
C
100
AcDbDictionary
281
     1
  3
2dWireframe
350
AF7
  3
3D Hidden
350
AF9
  3
3dWireframe
350
AF8
  3
Basic
350
AF6
  3
Brighten
350
AFD
  3
ColorChange
350
B01
  3
Conceptual
350
AFA
  3
Dim
350
AFC
  3
Facepattern
350
B00
  3
Flat
350
AF2
  3
FlatWithEdges
350
AF3
  3
Gouraud
350
AF4
  3
GouraudWithEdges
350
AF5
  3
Linepattern
350
AFF
  3
Realistic
350
AFB
  3
Thicken
350
AFE
  0
DICTIONARY
  5
8D3
102
{ACAD_REACTORS
330
C
102
}
330
C
100
AcDbDictionary
281
     1
  3
CTABLESTYLE
350
8E9
  3
DIMASSOC
350
8D4
  3
INDEXCTL
350
B13
  3
SORTENTS
350
B12
  0
DICTIONARY
  5
B0F
102
{ACAD_REACTORS
330
C
102
}
330
C
100
AcDbDictionary
281
     1
  3
ASEBlockHierarchyIndexRecord
350
B11
1001
DCO15
1040
1652003385.976
  0
XRECORD
  5
B14
102
{ACAD_REACTORS
330
C
102
}
330
C
100
AcDbXrecord
280
     1
  1
DWGPROPS COOKIE
  2

  3

  4

  6

  7

  8
nnguyen
  9

300
=
301
=
302
=
303
=
304
=
305
=
306
=
307
=
308
=
309
=
 40
0.0122382175925926
 41
2452290.696087963
 42
2454923.62141176
  1

 90
        0
  0
XRECORD
  5
B24
102
{ACAD_REACTORS
330
B23
102
}
330
B23
100
AcDbXrecord
280
     1
102
SHADEPLOT
 70
     0
  0
XRECORD
  5
B26
102
{ACAD_REACTORS
330
B25
102
}
330
B25
100
AcDbXrecord
280
     1
102
SHADEPLOT
 70
     0
  0
XRECORD
  5
B16
102
{ACAD_REACTORS
330
B15
102
}
330
B15
100
AcDbXrecord
280
     1
 40
1.5
  0
LAYOUT
  5
8D0
102
{ACAD_XDICTIONARY
360
B19
102
}
102
{ACAD_REACTORS
330
8CD
102
}
330
8CD
100
AcDbPlotSettings
  1

  2
none_device
  4
Letter_(8.50_x_11.00_Inches)
  6

 40
6.349999904632568
 41
6.349999904632568
 42
6.350006103515625
 43
6.350006103515625
 44
215.8999938964844
 45
279.3999938964844
 46
0.0
 47
0.0
 48
0.0
 49
0.0
140
0.0
141
0.0
142
1.0
143
1.0
 70
   688
 72
     0
 73
     1
 74
     5
  7

 75
    16
147
1.0
148
0.0
149
0.0
100
AcDbLayout
  1
Layout1
 70
     0
 71
     1
 10
-0.2500002402958907
 20
-0.2499999962453767
 11
10.74999951940822
 21
8.249999763458733
 12
0.0
 22
1.0
 32
0.0
 14
1.040070993406743
 24
0.7858286271638236
 34
-0.0015258207003583
 15
9.469330565618975
 25
7.226563008998709
 35
0.0000000349246037
146
0.0
 13
0.0
 23
1.0
 33
0.0
 16
1.0
 26
0.0
 36
0.0
 17
0.0
 27
1.0
 37
0.0
 76
     0
330
22
331
B09
1001
ACAD_PSEXT
1000
None
1000
None
1000
Not applicable
1000
The layout will not be plotted unless a new plotter configuration name is selected.
1070
     0
  0
LAYOUT
  5
8CF
102
{ACAD_XDICTIONARY
360
B17
102
}
102
{ACAD_REACTORS
330
8CD
102
}
330
8CD
100
AcDbPlotSettings
  1

  2
C:\Program Files\AutoCAD 2002\plotters\DWF ePlot (optimized for plotting).pc3
  4

  6

 40
0.0
 41
0.0
 42
0.0
 43
0.0
 44
0.0
 45
0.0
 46
0.0
 47
0.0
 48
0.0
 49
0.0
140
0.0
141
0.0
142
1.0
143
1.0
 70
  1712
 72
     0
 73
     0
 74
     0
  7

 75
     0
147
1.0
148
0.0
149
0.0
100
AcDbLayout
  1
Model
 70
     1
 71
     0
 10
0.0
 20
0.0
 11
12.0
 21
9.0
 12
0.0
 22
0.0
 32
0.0
 14
0.0
 24
0.0
 34
0.0
 15
0.0
 25
0.0
 35
0.0
146
0.0
 13
0.0
 23
0.0
 33
0.0
 16
1.0
 26
0.0
 36
0.0
 17
0.0
 27
1.0
 37
0.0
 76
     0
330
20
  0
MATERIAL
  5
AEF
102
{ACAD_XDICTIONARY
360
B1F
102
}
102
{ACAD_REACTORS
330
8E1
102
}
330
8E1
100
AcDbMaterial
  1
ByBlock
  0
MATERIAL
  5
AEE
102
{ACAD_XDICTIONARY
360
B1D
102
}
102
{ACAD_REACTORS
330
8E1
102
}
330
8E1
100
AcDbMaterial
  1
ByLayer
  0
MATERIAL
  5
AF0
102
{ACAD_XDICTIONARY
360
B21
102
}
102
{ACAD_REACTORS
330
8E1
102
}
330
8E1
100
AcDbMaterial
  1
Global
  0
MLINESTYLE
  5
13
102
{ACAD_REACTORS
330
E
102
}
330
E
100
AcDbMlineStyle
  2
STANDARD
 70
     0
  3

 62
     0
 51
90.0
 52
90.0
 71
     2
 49
0.5
 62
   256
  6
BYLAYER
 49
-0.5
 62
   256
  6
BYLAYER
  0
ACDBPLACEHOLDER
  5
8CC
102
{ACAD_REACTORS
330
8CB
102
}
330
8CB
  0
TABLESTYLE
  5
8E4
102
{ACAD_XDICTIONARY
360
B1B
102
}
102
{ACAD_REACTORS
330
8E3
102
}
330
8E3
100
AcDbTableStyle
  3
Standard
 70
     0
 71
     0
 40
0.06
 41
0.06
280
     0
281
     0
  7
STANDARD
140
0.18
170
     2
 62
     0
 63
     7
283
     0
274
    -2
284
     1
 64
     0
275
    -2
285
     1
 65
     0
276
    -2
286
     1
 66
     0
277
    -2
287
     1
 67
     0
278
    -2
288
     1
 68
     0
279
    -2
289
     1
 69
     0
  7
STANDARD
140
0.25
170
     5
 62
     0
 63
     7
283
     0
274
    -2
284
     1
 64
     0
275
    -2
285
     1
 65
     0
276
    -2
286
     1
 66
     0
277
    -2
287
     1
 67
     0
278
    -2
288
     1
 68
     0
279
    -2
289
     1
 69
     0
  7
STANDARD
140
0.18
170
     5
 62
     0
 63
     7
283
     0
274
    -2
284
     1
 64
     0
275
    -2
285
     1
 65
     0
276
    -2
286
     1
 66
     0
277
    -2
287
     1
 67
     0
278
    -2
288
     1
 68
     0
279
    -2
289
     1
 69
     0
  0
VISUALSTYLE
  5
AF7
102
{ACAD_REACTORS
330
AF1
102
}
330
AF1
100
AcDbVisualStyle
  2
2dWireframe
 70
     4
 71
     0
 72
     2
 73
     0
 90
        0
 40
-0.6
 41
-30.0
 62
     5
 63
     7
 74
     1
 91
        4
 64
     7
 65
   257
 75
     1
175
     1
 42
1.0
 92
        0
 66
   257
 43
1.0
 76
     1
 77
     6
 78
     2
 67
     7
 79
     5
170
     0
171
     0
290
     0
174
     0
 93
        1
 44
0.0
173
     0
291
     0
 45
0.0
1001
ACAD
1000
AcDbSavedByObjectVersion
1070
     0
  0
VISUALSTYLE
  5
AF9
102
{ACAD_REACTORS
330
AF1
102
}
330
AF1
100
AcDbVisualStyle
  2
3D Hidden
 70
     6
 71
     1
 72
     2
 73
     2
 90
        0
 40
-0.6
 41
-30.0
 62
     5
 63
     7
 74
     2
 91
        2
 64
     7
 65
   257
 75
     2
175
     1
 42
40.0
 92
        0
 66
   257
 43
1.0
 76
     1
 77
     6
 78
     2
 67
     7
 79
     3
170
     0
171
     0
290
     0
174
     0
 93
        1
 44
0.0
173
     0
291
     0
 45
0.0
1001
ACAD
1000
AcDbSavedByObjectVersion
1070
     0
  0
VISUALSTYLE
  5
AF8
102
{ACAD_REACTORS
330
AF1
102
}
330
AF1
100
AcDbVisualStyle
  2
3dWireframe
 70
     5
 71
     0
 72
     2
 73
     0
 90
        0
 40
-0.6
 41
-30.0
 62
     5
 63
     7
 74
     1
 91
        4
 64
     7
 65
   257
 75
     1
175
     1
 42
1.0
 92
        0
 66
   257
 43
1.0
 76
     1
 77
     6
 78
     2
 67
     7
 79
     5
170
     0
171
     0
290
     0
174
     0
 93
        1
 44
0.0
173
     0
291
     0
 45
0.0
1001
ACAD
1000
AcDbSavedByObjectVersion
1070
     0
  0
VISUALSTYLE
  5
AF6
102
{ACAD_REACTORS
330
AF1
102
}
330
AF1
100
AcDbVisualStyle
  2
Basic
 70
     7
 71
     1
 72
     0
 73
     1
 90
        0
 40
-0.6
 41
-30.0
 62
     5
 63
     7
 74
     0
 91
        4
 64
     7
 65
   257
 75
     1
175
     1
 42
1.0
 92
        8
 66
     7
 43
1.0
 76
     1
 77
     6
 78
     2
 67
     7
 79
     5
170
     0
171
     0
290
     0
174
     0
 93
        1
 44
0.0
173
     0
291
     1
 45
0.0
1001
ACAD
1000
AcDbSavedByObjectVersion
1070
     0
  0
VISUALSTYLE
  5
AFD
102
{ACAD_REACTORS
330
AF1
102
}
330
AF1
100
AcDbVisualStyle
  2
Brighten
 70
    12
 71
     2
 72
     2
 73
     0
 90
        0
 40
-0.6
 41
-30.0
 62
     5
 63
     7
 74
     1
 91
        4
 64
     7
 65
   257
 75
     1
175
     1
 42
1.0
 92
        8
 66
     7
 43
1.0
 76
     1
 77
     6
 78
     2
 67
     7
 79
     5
170
     0
171
     0
290
     0
174
     0
 93
        1
 44
50.0
173
     0
291
     1
 45
0.0
1001
ACAD
1000
AcDbSavedByObjectVersion
1070
     0
  0
VISUALSTYLE
  5
B01
102
{ACAD_REACTORS
330
AF1
102
}
330
AF1
100
AcDbVisualStyle
  2
ColorChange
 70
    16
 71
     2
 72
     2
 73
     3
 90
        0
 40
-0.6
 41
-30.0
 62
     5
 63
     8
 74
     1
 91
        4
 64
     7
 65
   257
 75
     1
175
     1
 42
1.0
 92
        8
 66
     8
 43
1.0
 76
     1
 77
     6
 78
     2
 67
     7
 79
     5
170
     0
171
     0
290
     0
174
     0
 93
        1
 44
0.0
173
     0
291
     1
 45
0.0
1001
ACAD
1000
AcDbSavedByObjectVersion
1070
     0
  0
VISUALSTYLE
  5
AFA
102
{ACAD_REACTORS
330
AF1
102
}
330
AF1
100
AcDbVisualStyle
  2
Conceptual
 70
     9
 71
     3
 72
     2
 73
     0
 90
        0
 40
-0.6
 41
-30.0
 62
     5
 63
     7
 74
     2
 91
        2
 64
     7
 65
   257
 75
     1
175
     1
 42
40.0
 92
        8
 66
     7
 43
1.0
 76
     1
 77
     6
 78
     2
 67
     7
 79
     3
170
     0
171
     0
290
     0
174
     0
 93
        1
 44
0.0
173
     0
291
     0
 45
0.0
1001
ACAD
1000
AcDbSavedByObjectVersion
1070
     0
  0
VISUALSTYLE
  5
AFC
102
{ACAD_REACTORS
330
AF1
102
}
330
AF1
100
AcDbVisualStyle
  2
Dim
 70
    11
 71
     2
 72
     2
 73
     0
 90
        0
 40
-0.6
 41
-30.0
 62
     5
 63
     7
 74
     1
 91
        4
 64
     7
 65
   257
 75
     1
175
     1
 42
1.0
 92
        8
 66
     7
 43
1.0
 76
     1
 77
     6
 78
     2
 67
     7
 79
     5
170
     0
171
     0
290
     0
174
     0
 93
        1
 44
-50.0
173
     0
291
     1
 45
0.0
1001
ACAD
1000
AcDbSavedByObjectVersion
1070
     0
  0
VISUALSTYLE
  5
B00
102
{ACAD_REACTORS
330
AF1
102
}
330
AF1
100
AcDbVisualStyle
  2
Facepattern
 70
    15
 71
     2
 72
     2
 73
     0
 90
        0
 40
-0.6
 41
-30.0
 62
     5
 63
     7
 74
     1
 91
        4
 64
     7
 65
   257
 75
     1
175
     1
 42
1.0
 92
        8
 66
     7
 43
1.0
 76
     1
 77
     6
 78
     2
 67
     7
 79
     5
170
     0
171
     0
290
     0
174
     0
 93
        1
 44
0.0
173
     0
291
     1
 45
0.0
1001
ACAD
1000
AcDbSavedByObjectVersion
1070
     0
  0
VISUALSTYLE
  5
AF2
102
{ACAD_REACTORS
330
AF1
102
}
330
AF1
100
AcDbVisualStyle
  2
Flat
 70
     0
 71
     2
 72
     1
 73
     1
 90
        2
 40
-0.6
 41
30.0
 62
     5
 63
     7
 74
     0
 91
        4
 64
     7
 65
   257
 75
     1
175
     1
 42
1.0
 92
        8
 66
     7
 43
1.0
 76
     1
 77
     6
 78
     2
 67
     7
 79
     5
170
     0
171
     0
290
     0
174
     0
 93
       13
 44
0.0
173
     0
291
     1
 45
0.0
1001
ACAD
1000
AcDbSavedByObjectVersion
1070
     0
  0
VISUALSTYLE
  5
AF3
102
{ACAD_REACTORS
330
AF1
102
}
330
AF1
100
AcDbVisualStyle
  2
FlatWithEdges
 70
     1
 71
     2
 72
     1
 73
     1
 90
        2
 40
-0.6
 41
30.0
 62
     5
 63
     7
 74
     1
 91
        4
 64
     7
 65
   257
 75
     1
175
     1
 42
1.0
 92
        0
 66
   257
 43
1.0
 76
     1
 77
     6
 78
     2
 67
     7
 79
     5
170
     0
171
     0
290
     0
174
     0
 93
       13
 44
0.0
173
     0
291
     1
 45
0.0
1001
ACAD
1000
AcDbSavedByObjectVersion
1070
     0
  0
VISUALSTYLE
  5
AF4
102
{ACAD_REACTORS
330
AF1
102
}
330
AF1
100
AcDbVisualStyle
  2
Gouraud
 70
     2
 71
     2
 72
     2
 73
     1
 90
        2
 40
-0.6
 41
30.0
 62
     5
 63
     7
 74
     0
 91
        4
 64
     7
 65
   257
 75
     1
175
     1
 42
1.0
 92
        0
 66
     7
 43
1.0
 76
     1
 77
     6
 78
     2
 67
     7
 79
     5
170
     0
171
     0
290
     0
174
     0
 93
       13
 44
0.0
173
     0
291
     1
 45
0.0
1001
ACAD
1000
AcDbSavedByObjectVersion
1070
     0
  0
VISUALSTYLE
  5
AF5
102
{ACAD_REACTORS
330
AF1
102
}
330
AF1
100
AcDbVisualStyle
  2
GouraudWithEdges
 70
     3
 71
     2
 72
     2
 73
     1
 90
        2
 40
-0.6
 41
30.0
 62
     5
 63
     7
 74
     1
 91
        4
 64
     7
 65
   257
 75
     1
175
     1
 42
1.0
 92
        0
 66
   257
 43
1.0
 76
     1
 77
     6
 78
     2
 67
     7
 79
     5
170
     0
171
     0
290
     0
174
     0
 93
       13
 44
0.0
173
     0
291
     1
 45
0.0
1001
ACAD
1000
AcDbSavedByObjectVersion
1070
     0
  0
VISUALSTYLE
  5
AFF
102
{ACAD_REACTORS
330
AF1
102
}
330
AF1
100
AcDbVisualStyle
  2
Linepattern
 70
    14
 71
     2
 72
     2
 73
     0
 90
        0
 40
-0.6
 41
-30.0
 62
     5
 63
     7
 74
     1
 91
        4
 64
     7
 65
   257
 75
     7
175
     7
 42
1.0
 92
        8
 66
     7
 43
1.0
 76
     1
 77
     6
 78
     2
 67
     7
 79
     5
170
     0
171
     0
290
     0
174
     0
 93
        1
 44
0.0
173
     0
291
     1
 45
0.0
1001
ACAD
1000
AcDbSavedByObjectVersion
1070
     0
  0
VISUALSTYLE
  5
AFB
102
{ACAD_REACTORS
330
AF1
102
}
330
AF1
100
AcDbVisualStyle
  2
Realistic
 70
     8
 71
     2
 72
     2
 73
     0
 90
        0
 40
-0.6
 41
-30.0
 62
     5
 63
     7
 74
     1
 91
        0
 64
     7
 65
   257
 75
     1
175
     1
 42
1.0
 92
        8
 66
     8
 43
1.0
 76
     1
 77
     6
 78
     2
 67
     7
 79
     5
170
     0
171
     0
290
     0
174
     0
 93
       13
 44
0.0
173
     0
291
     0
 45
0.0
1001
ACAD
1000
AcDbSavedByObjectVersion
1070
     0
  0
VISUALSTYLE
  5
AFE
102
{ACAD_REACTORS
330
AF1
102
}
330
AF1
100
AcDbVisualStyle
  2
Thicken
 70
    13
 71
     2
 72
     2
 73
     0
 90
        0
 40
-0.6
 41
-30.0
 62
     5
 63
     7
 74
     1
 91
        4
 64
     7
 65
   257
 75
     1
175
     1
 42
1.0
 92
       12
 66
     7
 43
1.0
 76
     1
 77
     6
 78
     2
 67
     7
 79
     5
170
     0
171
     0
290
     0
174
     0
 93
        1
 44
0.0
173
     0
291
     1
 45
0.0
1001
ACAD
1000
AcDbSavedByObjectVersion
1070
     0
  0
DICTIONARYVAR
  5
8E9
102
{ACAD_REACTORS
330
8D3
102
}
330
8D3
100
DictionaryVariables
280
     0
  1
STANDARD
  0
DICTIONARYVAR
  5
8D4
102
{ACAD_REACTORS
330
8D3
102
}
330
8D3
100
DictionaryVariables
280
     0
  1
1
  0
DICTIONARYVAR
  5
B13
102
{ACAD_REACTORS
330
8D3
102
}
330
8D3
100
DictionaryVariables
280
     0
  1
0
  0
DICTIONARYVAR
  5
B12
102
{ACAD_REACTORS
330
8D3
102
}
330
8D3
100
DictionaryVariables
280
     0
  1
127
  0
XRECORD
  5
B11
102
{ACAD_REACTORS
330
B0F
102
}
330
B0F
100
AcDbXrecord
280
     1
  0
DICTIONARY
  5
B19
330
8D0
100
AcDbDictionary
280
     1
281
     1
  3
ACAD_XREC_ROUNDTRIP
360
B1A
  0
DICTIONARY
  5
B17
330
8CF
100
AcDbDictionary
280
     1
281
     1
  3
ACAD_XREC_ROUNDTRIP
360
B18
  0
DICTIONARY
  5
B1F
330
AEF
100
AcDbDictionary
280
     1
281
     1
  3
ACAD_XREC_ROUNDTRIP
360
B20
  0
DICTIONARY
  5
B1D
330
AEE
100
AcDbDictionary
280
     1
281
     1
  3
ACAD_XREC_ROUNDTRIP
360
B1E
  0
DICTIONARY
  5
B21
330
AF0
100
AcDbDictionary
280
     1
281
     1
  3
ACAD_XREC_ROUNDTRIP
360
B22
  0
DICTIONARY
  5
B1B
330
8E4
100
AcDbDictionary
280
     1
281
     1
  3
ACAD_XREC_ROUNDTRIP
360
B1C
  0
XRECORD
  5
B1A
102
{ACAD_REACTORS
330
B19
102
}
330
B19
100
AcDbXrecord
280
     1
102
SHADEPLOT
 70
     0
102
SHADEPLOTRESLEVEL
 70
     2
102
SHADEPLOTCUSTOMDPI
 70
   300
  0
XRECORD
  5
B18
102
{ACAD_REACTORS
330
B17
102
}
330
B17
100
AcDbXrecord
280
     1
102
SHADEPLOT
 70
     0
102
SHADEPLOTRESLEVEL
 70
     2
102
SHADEPLOTCUSTOMDPI
 70
   300
  0
XRECORD
  5
B20
102
{ACAD_REACTORS
330
B1F
102
}
330
B1F
100
AcDbXrecord
280
     1
102
MATERIAL
148
0.0
149
0.0
149
0.0
 93
        0
 94
       63
282
     0
 72
     1
 77
     1
171
     1
175
     1
179
     1
273
     0
  0
XRECORD
  5
B1E
102
{ACAD_REACTORS
330
B1D
102
}
330
B1D
100
AcDbXrecord
280
     1
102
MATERIAL
148
0.0
149
0.0
149
0.0
 93
        0
 94
       63
282
     0
 72
     1
 77
     1
171
     1
175
     1
179
     1
273
     0
  0
XRECORD
  5
B22
102
{ACAD_REACTORS
330
B21
102
}
330
B21
100
AcDbXrecord
280
     1
102
MATERIAL
148
0.0
149
0.0
149
0.0
 93
        0
 94
       63
282
     0
 72
     1
 77
     1
171
     1
175
     1
179
     1
273
     0
  0
XRECORD
  5
B1C
102
{ACAD_REACTORS
330
B1B
102
}
330
B1B
100
AcDbXrecord
280
     1
102
ACAD_ROUNDTRIP_PRE2007_TABLESTYLE
 90
        4
 91
        0
  1

 92
        4
 93
        0
  2

 94
        4
 95
        0
  3

  0
ENDSEC
  0
EOF
